0
SECTION
2
HEADER
9
$EXTMIN
10
  0.0000
20
  0.0000
30
  0.0000
9
$EXTMAX
10
  0.2090
20
  0.2960
30
  0.0000
9
$LIMMIN
10
  0.0000
20
  0.0000
9
$LIMMAX
10
  0.2090
20
  0.2960
0
ENDSEC
0
SECTION
2
TABLES
0
TABLE
2
LTYPE
70
5
0
LTYPE
2
CONTINUOUS
70
64
3
CONTINUOUS
72
65
73
2
40
0
0
LTYPE
2
GESTRICHELT
70
64
3
GESTRICHELT
72
65
73
2
40
0.00125
49
0.000875
49
-0.000375
0
LTYPE
2
PUNKT
70
64
3
PUNKT
72
65
73
2
40
0.000625
49
0.000125
49
-0.0005
0
LTYPE
2
STRICHPUNKT
70
64
3
STRICHPUNKT
72
65
73
4
40
0.00175
49
0.000875
49
-0.000375
49
0.000125
49
-0.000375
0
LTYPE
2
GETRENNT
70
64
3
GETRENNT
72
65
73
6
40
0.00225
49
0.000875
49
-0.000375
49
0.000125
49
-0.000375
49
0.000125
49
-0.000375
0
ENDTAB
0
TABLE
2
LAYER
70
2
0
LAYER
2
Rahmen
70
0
62
7
6
CONTINUOUS
0
LAYER
2
DC
70
0
62
7
6
CONTINUOUS
0
ENDTAB
0
ENDSEC
0
SECTION
2
ENTITIES
0
LINE
8
Rahmen
6
CONTINUOUS
62
7
10
  0.00020000
20
 -0.00020000
30
  0.00000000
11
  0.20880000
21
 -0.00020000
31
  0.00000000
0
LINE
8
Rahmen
6
CONTINUOUS
62
7
10
  0.20880000
20
 -0.00020000
30
  0.00000000
11
  0.20880000
21
 -0.29580000
31
  0.00000000
0
LINE
8
Rahmen
6
CONTINUOUS
62
7
10
  0.20880000
20
 -0.29580000
30
  0.00000000
11
  0.00020000
21
 -0.29580000
31
  0.00000000
0
LINE
8
Rahmen
6
CONTINUOUS
62
7
10
  0.00020000
20
 -0.29580000
30
  0.00000000
11
  0.00020000
21
 -0.00020000
31
  0.00000000
0
LINE
8
Rahmen
6
CONTINUOUS
62
7
10
  0.00020000
20
 -0.14790000
30
  0.00000000
11
  0.01020000
21
 -0.14790000
31
  0.00000000
0
SOLID
8
Rahmen
62
255
10
  0.20430000
20
 -0.29530000
30
  0.00000000
11
  0.20830000
21
 -0.29530000
31
  0.00000000
12
  0.20430000
22
 -0.29130000
32
  0.00000000
13
  0.20830000
23
 -0.29130000
33
  0.00000000
0
LINE
8
Rahmen
6
CONTINUOUS
62
7
10
  0.20430000
20
 -0.29530000
30
  0.00000000
11
  0.20830000
21
 -0.29530000
31
  0.00000000
0
LINE
8
Rahmen
6
CONTINUOUS
62
7
10
  0.20830000
20
 -0.29530000
30
  0.00000000
11
  0.20830000
21
 -0.29130000
31
  0.00000000
0
LINE
8
Rahmen
6
CONTINUOUS
62
7
10
  0.20830000
20
 -0.29130000
30
  0.00000000
11
  0.20430000
21
 -0.29130000
31
  0.00000000
0
LINE
8
Rahmen
6
CONTINUOUS
62
7
10
  0.20430000
20
 -0.29130000
30
  0.00000000
11
  0.20430000
21
 -0.29530000
31
  0.00000000
0
TEXT
8
Rahmen
62
7
10
  0.20630000
20
 -0.29450000
30
  0.00000000
40
  0.00191667
41
  0.60000000
1
DC
50
  0.00000000
72
1
73
1
11
  0.20630000
21
 -0.29450000
31
  0.00000000
0
LINE
8
Rahmen
6
CONTINUOUS
62
7
10
  0.02000000
20
 -0.00500000
30
  0.00000000
11
  0.20400000
21
 -0.00500000
31
  0.00000000
0
LINE
8
Rahmen
6
CONTINUOUS
62
7
10
  0.20400000
20
 -0.00500000
30
  0.00000000
11
  0.20400000
21
 -0.29100000
31
  0.00000000
0
LINE
8
Rahmen
6
CONTINUOUS
62
7
10
  0.20400000
20
 -0.29100000
30
  0.00000000
11
  0.02000000
21
 -0.29100000
31
  0.00000000
0
LINE
8
Rahmen
6
CONTINUOUS
62
7
10
  0.02000000
20
 -0.29100000
30
  0.00000000
11
  0.02000000
21
 -0.00500000
31
  0.00000000
0
LINE
8
Rahmen
6
CONTINUOUS
62
7
10
  0.02000000
20
 -0.00500000
30
  0.00000000
11
  0.09000000
21
 -0.00500000
31
  0.00000000
0
LINE
8
Rahmen
6
CONTINUOUS
62
7
10
  0.02000000
20
 -0.01000000
30
  0.00000000
11
  0.09000000
21
 -0.01000000
31
  0.00000000
0
LINE
8
Rahmen
6
CONTINUOUS
62
7
10
  0.02000000
20
 -0.00500000
30
  0.00000000
11
  0.02000000
21
 -0.01000000
31
  0.00000000
0
LINE
8
Rahmen
6
CONTINUOUS
62
7
10
  0.09000000
20
 -0.00500000
30
  0.00000000
11
  0.09000000
21
 -0.01000000
31
  0.00000000
0
TEXT
8
Rahmen
62
7
10
  0.02100000
20
 -0.00970000
30
  0.00000000
40
  0.00300000
41
  0.60000000
1
Ingenieurbüro TBV GmbH
50
  0.00000000
72
0
73
1
11
  0.02100000
21
 -0.00970000
31
  0.00000000
0
LINE
8
Rahmen
6
CONTINUOUS
62
7
10
  0.09000000
20
 -0.00500000
30
  0.00000000
11
  0.20400000
21
 -0.00500000
31
  0.00000000
0
LINE
8
Rahmen
6
CONTINUOUS
62
7
10
  0.09000000
20
 -0.01000000
30
  0.00000000
11
  0.20400000
21
 -0.01000000
31
  0.00000000
0
LINE
8
Rahmen
6
CONTINUOUS
62
7
10
  0.09000000
20
 -0.00500000
30
  0.00000000
11
  0.09000000
21
 -0.01000000
31
  0.00000000
0
LINE
8
Rahmen
6
CONTINUOUS
62
7
10
  0.20400000
20
 -0.00500000
30
  0.00000000
11
  0.20400000
21
 -0.01000000
31
  0.00000000
0
TEXT
8
Rahmen
62
7
10
  0.09100000
20
 -0.00970000
30
  0.00000000
40
  0.00300000
41
  0.60000000
1
Projekt     :
50
  0.00000000
72
0
73
1
11
  0.09100000
21
 -0.00970000
31
  0.00000000
0
TEXT
8
Rahmen
62
7
10
  0.11100000
20
 -0.00970000
30
  0.00000000
40
  0.00300000
41
  0.60000000
1
Neuverlegung VBL SW-Kanal Söhesten-Stößwitz
50
  0.00000000
72
0
73
1
11
  0.11100000
21
 -0.00970000
31
  0.00000000
0
LINE
8
Rahmen
6
CONTINUOUS
62
7
10
  0.02000000
20
 -0.01000000
30
  0.00000000
11
  0.09000000
21
 -0.01000000
31
  0.00000000
0
LINE
8
Rahmen
6
CONTINUOUS
62
7
10
  0.02000000
20
 -0.01500000
30
  0.00000000
11
  0.09000000
21
 -0.01500000
31
  0.00000000
0
LINE
8
Rahmen
6
CONTINUOUS
62
7
10
  0.02000000
20
 -0.01000000
30
  0.00000000
11
  0.02000000
21
 -0.01500000
31
  0.00000000
0
LINE
8
Rahmen
6
CONTINUOUS
62
7
10
  0.09000000
20
 -0.01000000
30
  0.00000000
11
  0.09000000
21
 -0.01500000
31
  0.00000000
0
TEXT
8
Rahmen
62
7
10
  0.02100000
20
 -0.01470000
30
  0.00000000
40
  0.00300000
41
  0.60000000
1
Baenschstraße 6
50
  0.00000000
72
0
73
1
11
  0.02100000
21
 -0.01470000
31
  0.00000000
0
LINE
8
Rahmen
6
CONTINUOUS
62
7
10
  0.09000000
20
 -0.01000000
30
  0.00000000
11
  0.20400000
21
 -0.01000000
31
  0.00000000
0
LINE
8
Rahmen
6
CONTINUOUS
62
7
10
  0.09000000
20
 -0.01500000
30
  0.00000000
11
  0.20400000
21
 -0.01500000
31
  0.00000000
0
LINE
8
Rahmen
6
CONTINUOUS
62
7
10
  0.09000000
20
 -0.01000000
30
  0.00000000
11
  0.09000000
21
 -0.01500000
31
  0.00000000
0
LINE
8
Rahmen
6
CONTINUOUS
62
7
10
  0.20400000
20
 -0.01000000
30
  0.00000000
11
  0.20400000
21
 -0.01500000
31
  0.00000000
0
TEXT
8
Rahmen
62
7
10
  0.09100000
20
 -0.01470000
30
  0.00000000
40
  0.00300000
41
  0.60000000
1
Projektnr.:
50
  0.00000000
72
0
73
1
11
  0.09100000
21
 -0.01470000
31
  0.00000000
0
TEXT
8
Rahmen
62
7
10
  0.11100000
20
 -0.01470000
30
  0.00000000
40
  0.00300000
41
  0.60000000
1
22/12068.1
50
  0.00000000
72
0
73
1
11
  0.11100000
21
 -0.01470000
31
  0.00000000
0
LINE
8
Rahmen
6
CONTINUOUS
62
7
10
  0.02000000
20
 -0.01500000
30
  0.00000000
11
  0.09000000
21
 -0.01500000
31
  0.00000000
0
LINE
8
Rahmen
6
CONTINUOUS
62
7
10
  0.02000000
20
 -0.02000000
30
  0.00000000
11
  0.09000000
21
 -0.02000000
31
  0.00000000
0
LINE
8
Rahmen
6
CONTINUOUS
62
7
10
  0.02000000
20
 -0.01500000
30
  0.00000000
11
  0.02000000
21
 -0.02000000
31
  0.00000000
0
LINE
8
Rahmen
6
CONTINUOUS
62
7
10
  0.09000000
20
 -0.01500000
30
  0.00000000
11
  0.09000000
21
 -0.02000000
31
  0.00000000
0
TEXT
8
Rahmen
62
7
10
  0.02100000
20
 -0.01970000
30
  0.00000000
40
  0.00300000
41
  0.60000000
1
06712 Zeitz
50
  0.00000000
72
0
73
1
11
  0.02100000
21
 -0.01970000
31
  0.00000000
0
LINE
8
Rahmen
6
CONTINUOUS
62
7
10
  0.09000000
20
 -0.01500000
30
  0.00000000
11
  0.20400000
21
 -0.01500000
31
  0.00000000
0
LINE
8
Rahmen
6
CONTINUOUS
62
7
10
  0.09000000
20
 -0.02000000
30
  0.00000000
11
  0.20400000
21
 -0.02000000
31
  0.00000000
0
LINE
8
Rahmen
6
CONTINUOUS
62
7
10
  0.09000000
20
 -0.01500000
30
  0.00000000
11
  0.09000000
21
 -0.02000000
31
  0.00000000
0
LINE
8
Rahmen
6
CONTINUOUS
62
7
10
  0.20400000
20
 -0.01500000
30
  0.00000000
11
  0.20400000
21
 -0.02000000
31
  0.00000000
0
TEXT
8
Rahmen
62
7
10
  0.09100000
20
 -0.01970000
30
  0.00000000
40
  0.00300000
41
  0.60000000
1
Anlage     :
50
  0.00000000
72
0
73
1
11
  0.09100000
21
 -0.01970000
31
  0.00000000
0
TEXT
8
Rahmen
62
7
10
  0.11100000
20
 -0.01970000
30
  0.00000000
40
  0.00300000
41
  0.60000000
1
Bereich 1: VS Kreischau-Stößwitz
50
  0.00000000
72
0
73
1
11
  0.11100000
21
 -0.01970000
31
  0.00000000
0
LINE
8
Rahmen
6
CONTINUOUS
62
7
10
  0.02000000
20
 -0.02000000
30
  0.00000000
11
  0.09000000
21
 -0.02000000
31
  0.00000000
0
LINE
8
Rahmen
6
CONTINUOUS
62
7
10
  0.02000000
20
 -0.02500000
30
  0.00000000
11
  0.09000000
21
 -0.02500000
31
  0.00000000
0
LINE
8
Rahmen
6
CONTINUOUS
62
7
10
  0.02000000
20
 -0.02000000
30
  0.00000000
11
  0.02000000
21
 -0.02500000
31
  0.00000000
0
LINE
8
Rahmen
6
CONTINUOUS
62
7
10
  0.09000000
20
 -0.02000000
30
  0.00000000
11
  0.09000000
21
 -0.02500000
31
  0.00000000
0
TEXT
8
Rahmen
62
7
10
  0.02100000
20
 -0.02470000
30
  0.00000000
40
  0.00300000
41
  0.60000000
1
Tel: 03441 215737
50
  0.00000000
72
0
73
1
11
  0.02100000
21
 -0.02470000
31
  0.00000000
0
LINE
8
Rahmen
6
CONTINUOUS
62
7
10
  0.09000000
20
 -0.02000000
30
  0.00000000
11
  0.20400000
21
 -0.02000000
31
  0.00000000
0
LINE
8
Rahmen
6
CONTINUOUS
62
7
10
  0.09000000
20
 -0.02500000
30
  0.00000000
11
  0.20400000
21
 -0.02500000
31
  0.00000000
0
LINE
8
Rahmen
6
CONTINUOUS
62
7
10
  0.09000000
20
 -0.02000000
30
  0.00000000
11
  0.09000000
21
 -0.02500000
31
  0.00000000
0
LINE
8
Rahmen
6
CONTINUOUS
62
7
10
  0.20400000
20
 -0.02000000
30
  0.00000000
11
  0.20400000
21
 -0.02500000
31
  0.00000000
0
TEXT
8
Rahmen
62
7
10
  0.09100000
20
 -0.02470000
30
  0.00000000
40
  0.00300000
41
  0.60000000
1
Maßstab  :
50
  0.00000000
72
0
73
1
11
  0.09100000
21
 -0.02470000
31
  0.00000000
0
TEXT
8
Rahmen
62
7
10
  0.11100000
20
 -0.02470000
30
  0.00000000
40
  0.00300000
41
  0.60000000
1
1: 50
50
  0.00000000
72
0
73
1
11
  0.11100000
21
 -0.02470000
31
  0.00000000
0
TEXT
8
Rahmen
62
7
10
  0.02100000
20
 -0.27570000
30
  0.00000000
40
  0.00300000
41
  0.60000000
1
Bemerkung
50
  0.00000000
72
0
73
1
11
  0.02100000
21
 -0.27570000
31
  0.00000000
0
LINE
8
Rahmen
6
CONTINUOUS
62
7
10
  0.02000000
20
 -0.00500000
30
  0.00000000
11
  0.09000000
21
 -0.00500000
31
  0.00000000
0
LINE
8
Rahmen
6
CONTINUOUS
62
7
10
  0.02000000
20
 -0.01000000
30
  0.00000000
11
  0.09000000
21
 -0.01000000
31
  0.00000000
0
LINE
8
Rahmen
6
CONTINUOUS
62
7
10
  0.02000000
20
 -0.00500000
30
  0.00000000
11
  0.02000000
21
 -0.01000000
31
  0.00000000
0
LINE
8
Rahmen
6
CONTINUOUS
62
7
10
  0.09000000
20
 -0.00500000
30
  0.00000000
11
  0.09000000
21
 -0.01000000
31
  0.00000000
0
LINE
8
Rahmen
6
CONTINUOUS
62
7
10
  0.09000000
20
 -0.00500000
30
  0.00000000
11
  0.20400000
21
 -0.00500000
31
  0.00000000
0
LINE
8
Rahmen
6
CONTINUOUS
62
7
10
  0.09000000
20
 -0.01000000
30
  0.00000000
11
  0.20400000
21
 -0.01000000
31
  0.00000000
0
LINE
8
Rahmen
6
CONTINUOUS
62
7
10
  0.09000000
20
 -0.00500000
30
  0.00000000
11
  0.09000000
21
 -0.01000000
31
  0.00000000
0
LINE
8
Rahmen
6
CONTINUOUS
62
7
10
  0.20400000
20
 -0.00500000
30
  0.00000000
11
  0.20400000
21
 -0.01000000
31
  0.00000000
0
LINE
8
Rahmen
6
CONTINUOUS
62
7
10
  0.02000000
20
 -0.01000000
30
  0.00000000
11
  0.09000000
21
 -0.01000000
31
  0.00000000
0
LINE
8
Rahmen
6
CONTINUOUS
62
7
10
  0.02000000
20
 -0.01500000
30
  0.00000000
11
  0.09000000
21
 -0.01500000
31
  0.00000000
0
LINE
8
Rahmen
6
CONTINUOUS
62
7
10
  0.02000000
20
 -0.01000000
30
  0.00000000
11
  0.02000000
21
 -0.01500000
31
  0.00000000
0
LINE
8
Rahmen
6
CONTINUOUS
62
7
10
  0.09000000
20
 -0.01000000
30
  0.00000000
11
  0.09000000
21
 -0.01500000
31
  0.00000000
0
LINE
8
Rahmen
6
CONTINUOUS
62
7
10
  0.09000000
20
 -0.01000000
30
  0.00000000
11
  0.20400000
21
 -0.01000000
31
  0.00000000
0
LINE
8
Rahmen
6
CONTINUOUS
62
7
10
  0.09000000
20
 -0.01500000
30
  0.00000000
11
  0.20400000
21
 -0.01500000
31
  0.00000000
0
LINE
8
Rahmen
6
CONTINUOUS
62
7
10
  0.09000000
20
 -0.01000000
30
  0.00000000
11
  0.09000000
21
 -0.01500000
31
  0.00000000
0
LINE
8
Rahmen
6
CONTINUOUS
62
7
10
  0.20400000
20
 -0.01000000
30
  0.00000000
11
  0.20400000
21
 -0.01500000
31
  0.00000000
0
LINE
8
Rahmen
6
CONTINUOUS
62
7
10
  0.02000000
20
 -0.01500000
30
  0.00000000
11
  0.09000000
21
 -0.01500000
31
  0.00000000
0
LINE
8
Rahmen
6
CONTINUOUS
62
7
10
  0.02000000
20
 -0.02000000
30
  0.00000000
11
  0.09000000
21
 -0.02000000
31
  0.00000000
0
LINE
8
Rahmen
6
CONTINUOUS
62
7
10
  0.02000000
20
 -0.01500000
30
  0.00000000
11
  0.02000000
21
 -0.02000000
31
  0.00000000
0
LINE
8
Rahmen
6
CONTINUOUS
62
7
10
  0.09000000
20
 -0.01500000
30
  0.00000000
11
  0.09000000
21
 -0.02000000
31
  0.00000000
0
LINE
8
Rahmen
6
CONTINUOUS
62
7
10
  0.09000000
20
 -0.01500000
30
  0.00000000
11
  0.20400000
21
 -0.01500000
31
  0.00000000
0
LINE
8
Rahmen
6
CONTINUOUS
62
7
10
  0.09000000
20
 -0.02000000
30
  0.00000000
11
  0.20400000
21
 -0.02000000
31
  0.00000000
0
LINE
8
Rahmen
6
CONTINUOUS
62
7
10
  0.09000000
20
 -0.01500000
30
  0.00000000
11
  0.09000000
21
 -0.02000000
31
  0.00000000
0
LINE
8
Rahmen
6
CONTINUOUS
62
7
10
  0.20400000
20
 -0.01500000
30
  0.00000000
11
  0.20400000
21
 -0.02000000
31
  0.00000000
0
LINE
8
Rahmen
6
CONTINUOUS
62
7
10
  0.02000000
20
 -0.02000000
30
  0.00000000
11
  0.09000000
21
 -0.02000000
31
  0.00000000
0
LINE
8
Rahmen
6
CONTINUOUS
62
7
10
  0.02000000
20
 -0.02500000
30
  0.00000000
11
  0.09000000
21
 -0.02500000
31
  0.00000000
0
LINE
8
Rahmen
6
CONTINUOUS
62
7
10
  0.02000000
20
 -0.02000000
30
  0.00000000
11
  0.02000000
21
 -0.02500000
31
  0.00000000
0
LINE
8
Rahmen
6
CONTINUOUS
62
7
10
  0.09000000
20
 -0.02000000
30
  0.00000000
11
  0.09000000
21
 -0.02500000
31
  0.00000000
0
LINE
8
Rahmen
6
CONTINUOUS
62
7
10
  0.09000000
20
 -0.02000000
30
  0.00000000
11
  0.20400000
21
 -0.02000000
31
  0.00000000
0
LINE
8
Rahmen
6
CONTINUOUS
62
7
10
  0.09000000
20
 -0.02500000
30
  0.00000000
11
  0.20400000
21
 -0.02500000
31
  0.00000000
0
LINE
8
Rahmen
6
CONTINUOUS
62
7
10
  0.09000000
20
 -0.02000000
30
  0.00000000
11
  0.09000000
21
 -0.02500000
31
  0.00000000
0
LINE
8
Rahmen
6
CONTINUOUS
62
7
10
  0.20400000
20
 -0.02000000
30
  0.00000000
11
  0.20400000
21
 -0.02500000
31
  0.00000000
0
LINE
8
Rahmen
6
CONTINUOUS
62
7
10
  0.02000000
20
 -0.27100000
30
  0.00000000
11
  0.20400000
21
 -0.27100000
31
  0.00000000
0
LINE
8
Rahmen
6
CONTINUOUS
62
7
10
  0.02000000
20
 -0.00500000
30
  0.00000000
11
  0.20400000
21
 -0.00500000
31
  0.00000000
0
LINE
8
Rahmen
6
CONTINUOUS
62
7
10
  0.20400000
20
 -0.00500000
30
  0.00000000
11
  0.20400000
21
 -0.29100000
31
  0.00000000
0
LINE
8
Rahmen
6
CONTINUOUS
62
7
10
  0.20400000
20
 -0.29100000
30
  0.00000000
11
  0.02000000
21
 -0.29100000
31
  0.00000000
0
LINE
8
Rahmen
6
CONTINUOUS
62
7
10
  0.02000000
20
 -0.29100000
30
  0.00000000
11
  0.02000000
21
 -0.00500000
31
  0.00000000
0
LINE
8
DC
6
CONTINUOUS
62
7
10
  0.08270000
20
 -0.14500000
30
  0.00000000
11
  0.10650000
21
 -0.14500000
31
  0.00000000
0
TEXT
8
DC
62
7
10
  0.08170000
20
 -0.14450000
30
  0.00000000
40
  0.00250000
41
  0.60000000
1
7-1
50
  0.00000000
72
2
73
0
11
  0.08170000
21
 -0.14450000
31
  0.00000000
0
TEXT
8
DC
62
7
10
  0.09550000
20
 -0.14450000
30
  0.00000000
40
  0.00250000
41
  0.60000000
1
5.00m
50
  0.00000000
72
2
73
0
11
  0.09550000
21
 -0.14450000
31
  0.00000000
0
LINE
8
DC
6
CONTINUOUS
62
7
10
  0.08270000
20
 -0.14500000
30
  0.00000000
11
  0.08510000
21
 -0.14500000
31
  0.00000000
0
LINE
8
DC
6
CONTINUOUS
62
7
10
  0.08510000
20
 -0.14500000
30
  0.00000000
11
  0.08510000
21
 -0.14140000
31
  0.00000000
0
LINE
8
DC
6
CONTINUOUS
62
7
10
  0.08510000
20
 -0.14140000
30
  0.00000000
11
  0.08270000
21
 -0.14140000
31
  0.00000000
0
LINE
8
DC
6
CONTINUOUS
62
7
10
  0.08270000
20
 -0.14140000
30
  0.00000000
11
  0.08270000
21
 -0.14500000
31
  0.00000000
0
TEXT
8
DC
62
7
10
  0.09550000
20
 -0.14960000
30
  0.00000000
40
  0.00250000
41
  0.60000000
1
Kein Wasser
50
  0.00000000
72
2
73
0
11
  0.09550000
21
 -0.14960000
31
  0.00000000
0
TEXT
8
DC
62
7
10
  0.09550000
20
 -0.15370000
30
  0.00000000
40
  0.00250000
41
  0.60000000
1
(24.11.2022)
50
  0.00000000
72
2
73
0
11
  0.09550000
21
 -0.15370000
31
  0.00000000
0
LINE
8
DC
6
CONTINUOUS
62
7
10
  0.08390000
20
 -0.14140000
30
  0.00000000
11
  0.08390000
21
 -0.14090000
31
  0.00000000
0
LINE
8
DC
6
CONTINUOUS
62
7
10
  0.08390000
20
 -0.14090000
30
  0.00000000
11
  0.08390000
21
 -0.06500000
31
  0.00000000
0
LINE
8
DC
6
CONTINUOUS
62
7
10
  0.08290000
20
 -0.06500000
30
  0.00000000
11
  0.08490000
21
 -0.06500000
31
  0.00000000
0
LINE
8
DC
6
CONTINUOUS
62
7
10
  0.11690000
20
 -0.04500000
30
  0.00000000
11
  0.11590000
21
 -0.04500000
31
  0.00000000
0
LINE
8
DC
6
CONTINUOUS
62
7
10
  0.10650000
20
 -0.04500000
30
  0.00000000
11
  0.11590000
21
 -0.04500000
31
  0.00000000
0
TEXT
8
DC
62
7
10
  0.11590000
20
 -0.04450000
30
  0.00000000
40
  0.00250000
41
  0.60000000
1
    0.00m
50
  0.00000000
72
2
73
0
11
  0.11590000
21
 -0.04450000
31
  0.00000000
0
LINE
8
DC
6
CONTINUOUS
62
7
10
  0.12850000
20
 -0.04500000
30
  0.00000000
11
  0.12850000
21
 -0.04530000
31
  0.00000000
0
LINE
8
DC
6
CONTINUOUS
62
7
10
  0.12850000
20
 -0.04530000
30
  0.00000000
11
  0.12880000
21
 -0.04560000
31
  0.00000000
0
LINE
8
DC
6
CONTINUOUS
62
7
10
  0.12880000
20
 -0.04560000
30
  0.00000000
11
  0.12910000
21
 -0.04590000
31
  0.00000000
0
LINE
8
DC
6
CONTINUOUS
62
7
10
  0.12910000
20
 -0.04590000
30
  0.00000000
11
  0.12920000
21
 -0.04620000
31
  0.00000000
0
LINE
8
DC
6
CONTINUOUS
62
7
10
  0.12920000
20
 -0.04620000
30
  0.00000000
11
  0.12910000
21
 -0.04650000
31
  0.00000000
0
LINE
8
DC
6
CONTINUOUS
62
7
10
  0.12910000
20
 -0.04650000
30
  0.00000000
11
  0.12880000
21
 -0.04680000
31
  0.00000000
0
LINE
8
DC
6
CONTINUOUS
62
7
10
  0.12880000
20
 -0.04680000
30
  0.00000000
11
  0.12850000
21
 -0.04710000
31
  0.00000000
0
LINE
8
DC
6
CONTINUOUS
62
7
10
  0.12850000
20
 -0.04710000
30
  0.00000000
11
  0.12820000
21
 -0.04740000
31
  0.00000000
0
LINE
8
DC
6
CONTINUOUS
62
7
10
  0.12820000
20
 -0.04740000
30
  0.00000000
11
  0.12790000
21
 -0.04770000
31
  0.00000000
0
LINE
8
DC
6
CONTINUOUS
62
7
10
  0.12790000
20
 -0.04770000
30
  0.00000000
11
  0.12780000
21
 -0.04800000
31
  0.00000000
0
LINE
8
DC
6
CONTINUOUS
62
7
10
  0.12780000
20
 -0.04800000
30
  0.00000000
11
  0.12790000
21
 -0.04830000
31
  0.00000000
0
LINE
8
DC
6
CONTINUOUS
62
7
10
  0.12790000
20
 -0.04830000
30
  0.00000000
11
  0.12820000
21
 -0.04860000
31
  0.00000000
0
LINE
8
DC
6
CONTINUOUS
62
7
10
  0.12820000
20
 -0.04860000
30
  0.00000000
11
  0.12850000
21
 -0.04890000
31
  0.00000000
0
LINE
8
DC
6
CONTINUOUS
62
7
10
  0.12850000
20
 -0.04890000
30
  0.00000000
11
  0.12880000
21
 -0.04920000
31
  0.00000000
0
LINE
8
DC
6
CONTINUOUS
62
7
10
  0.12880000
20
 -0.04920000
30
  0.00000000
11
  0.12910000
21
 -0.04950000
31
  0.00000000
0
LINE
8
DC
6
CONTINUOUS
62
7
10
  0.12910000
20
 -0.04950000
30
  0.00000000
11
  0.12920000
21
 -0.04980000
31
  0.00000000
0
LINE
8
DC
6
CONTINUOUS
62
7
10
  0.12920000
20
 -0.04980000
30
  0.00000000
11
  0.12910000
21
 -0.05010000
31
  0.00000000
0
LINE
8
DC
6
CONTINUOUS
62
7
10
  0.12910000
20
 -0.05010000
30
  0.00000000
11
  0.12880000
21
 -0.05040000
31
  0.00000000
0
LINE
8
DC
6
CONTINUOUS
62
7
10
  0.12880000
20
 -0.05040000
30
  0.00000000
11
  0.12850000
21
 -0.05070000
31
  0.00000000
0
LINE
8
DC
6
CONTINUOUS
62
7
10
  0.12850000
20
 -0.05070000
30
  0.00000000
11
  0.12820000
21
 -0.05100000
31
  0.00000000
0
LINE
8
DC
6
CONTINUOUS
62
7
10
  0.12820000
20
 -0.05100000
30
  0.00000000
11
  0.12790000
21
 -0.05130000
31
  0.00000000
0
LINE
8
DC
6
CONTINUOUS
62
7
10
  0.12790000
20
 -0.05130000
30
  0.00000000
11
  0.12780000
21
 -0.05160000
31
  0.00000000
0
LINE
8
DC
6
CONTINUOUS
62
7
10
  0.12780000
20
 -0.05160000
30
  0.00000000
11
  0.12790000
21
 -0.05190000
31
  0.00000000
0
LINE
8
DC
6
CONTINUOUS
62
7
10
  0.12790000
20
 -0.05190000
30
  0.00000000
11
  0.12820000
21
 -0.05220000
31
  0.00000000
0
LINE
8
DC
6
CONTINUOUS
62
7
10
  0.12820000
20
 -0.05220000
30
  0.00000000
11
  0.12850000
21
 -0.05250000
31
  0.00000000
0
LINE
8
DC
6
CONTINUOUS
62
7
10
  0.12850000
20
 -0.05250000
30
  0.00000000
11
  0.12880000
21
 -0.05280000
31
  0.00000000
0
LINE
8
DC
6
CONTINUOUS
62
7
10
  0.12880000
20
 -0.05280000
30
  0.00000000
11
  0.12910000
21
 -0.05310000
31
  0.00000000
0
LINE
8
DC
6
CONTINUOUS
62
7
10
  0.12910000
20
 -0.05310000
30
  0.00000000
11
  0.12920000
21
 -0.05340000
31
  0.00000000
0
LINE
8
DC
6
CONTINUOUS
62
7
10
  0.12920000
20
 -0.05340000
30
  0.00000000
11
  0.12910000
21
 -0.05370000
31
  0.00000000
0
LINE
8
DC
6
CONTINUOUS
62
7
10
  0.12910000
20
 -0.05370000
30
  0.00000000
11
  0.12880000
21
 -0.05400000
31
  0.00000000
0
LINE
8
DC
6
CONTINUOUS
62
7
10
  0.12880000
20
 -0.05400000
30
  0.00000000
11
  0.12850000
21
 -0.05430000
31
  0.00000000
0
LINE
8
DC
6
CONTINUOUS
62
7
10
  0.12850000
20
 -0.05430000
30
  0.00000000
11
  0.12820000
21
 -0.05460000
31
  0.00000000
0
LINE
8
DC
6
CONTINUOUS
62
7
10
  0.12820000
20
 -0.05460000
30
  0.00000000
11
  0.12790000
21
 -0.05490000
31
  0.00000000
0
LINE
8
DC
6
CONTINUOUS
62
7
10
  0.12790000
20
 -0.05490000
30
  0.00000000
11
  0.12780000
21
 -0.05520000
31
  0.00000000
0
LINE
8
DC
6
CONTINUOUS
62
7
10
  0.12780000
20
 -0.05520000
30
  0.00000000
11
  0.12790000
21
 -0.05550000
31
  0.00000000
0
LINE
8
DC
6
CONTINUOUS
62
7
10
  0.12790000
20
 -0.05550000
30
  0.00000000
11
  0.12820000
21
 -0.05580000
31
  0.00000000
0
LINE
8
DC
6
CONTINUOUS
62
7
10
  0.12820000
20
 -0.05580000
30
  0.00000000
11
  0.12850000
21
 -0.05610000
31
  0.00000000
0
LINE
8
DC
6
CONTINUOUS
62
7
10
  0.12850000
20
 -0.05610000
30
  0.00000000
11
  0.12880000
21
 -0.05640000
31
  0.00000000
0
LINE
8
DC
6
CONTINUOUS
62
7
10
  0.12880000
20
 -0.05640000
30
  0.00000000
11
  0.12910000
21
 -0.05670000
31
  0.00000000
0
LINE
8
DC
6
CONTINUOUS
62
7
10
  0.12910000
20
 -0.05670000
30
  0.00000000
11
  0.12920000
21
 -0.05700000
31
  0.00000000
0
LINE
8
DC
6
CONTINUOUS
62
7
10
  0.12920000
20
 -0.05700000
30
  0.00000000
11
  0.12910000
21
 -0.05730000
31
  0.00000000
0
LINE
8
DC
6
CONTINUOUS
62
7
10
  0.12910000
20
 -0.05730000
30
  0.00000000
11
  0.12880000
21
 -0.05760000
31
  0.00000000
0
LINE
8
DC
6
CONTINUOUS
62
7
10
  0.12880000
20
 -0.05760000
30
  0.00000000
11
  0.12850000
21
 -0.05790000
31
  0.00000000
0
LINE
8
DC
6
CONTINUOUS
62
7
10
  0.12850000
20
 -0.05790000
30
  0.00000000
11
  0.12820000
21
 -0.05820000
31
  0.00000000
0
LINE
8
DC
6
CONTINUOUS
62
7
10
  0.12820000
20
 -0.05820000
30
  0.00000000
11
  0.12790000
21
 -0.05850000
31
  0.00000000
0
LINE
8
DC
6
CONTINUOUS
62
7
10
  0.12790000
20
 -0.05850000
30
  0.00000000
11
  0.12780000
21
 -0.05880000
31
  0.00000000
0
LINE
8
DC
6
CONTINUOUS
62
7
10
  0.12780000
20
 -0.05880000
30
  0.00000000
11
  0.12790000
21
 -0.05910000
31
  0.00000000
0
LINE
8
DC
6
CONTINUOUS
62
7
10
  0.12790000
20
 -0.05910000
30
  0.00000000
11
  0.12820000
21
 -0.05940000
31
  0.00000000
0
LINE
8
DC
6
CONTINUOUS
62
7
10
  0.12820000
20
 -0.05940000
30
  0.00000000
11
  0.12850000
21
 -0.05970000
31
  0.00000000
0
LINE
8
DC
6
CONTINUOUS
62
7
10
  0.12850000
20
 -0.05970000
30
  0.00000000
11
  0.12880000
21
 -0.06000000
31
  0.00000000
0
LINE
8
DC
6
CONTINUOUS
62
7
10
  0.12880000
20
 -0.06000000
30
  0.00000000
11
  0.12910000
21
 -0.06030000
31
  0.00000000
0
LINE
8
DC
6
CONTINUOUS
62
7
10
  0.12910000
20
 -0.06030000
30
  0.00000000
11
  0.12920000
21
 -0.06060000
31
  0.00000000
0
LINE
8
DC
6
CONTINUOUS
62
7
10
  0.12920000
20
 -0.06060000
30
  0.00000000
11
  0.12910000
21
 -0.06090000
31
  0.00000000
0
LINE
8
DC
6
CONTINUOUS
62
7
10
  0.12910000
20
 -0.06090000
30
  0.00000000
11
  0.12880000
21
 -0.06120000
31
  0.00000000
0
LINE
8
DC
6
CONTINUOUS
62
7
10
  0.12880000
20
 -0.06120000
30
  0.00000000
11
  0.12850000
21
 -0.06150000
31
  0.00000000
0
LINE
8
DC
6
CONTINUOUS
62
7
10
  0.12850000
20
 -0.06150000
30
  0.00000000
11
  0.12820000
21
 -0.06180000
31
  0.00000000
0
LINE
8
DC
6
CONTINUOUS
62
7
10
  0.12820000
20
 -0.06180000
30
  0.00000000
11
  0.12790000
21
 -0.06210000
31
  0.00000000
0
LINE
8
DC
6
CONTINUOUS
62
7
10
  0.12790000
20
 -0.06210000
30
  0.00000000
11
  0.12780000
21
 -0.06240000
31
  0.00000000
0
LINE
8
DC
6
CONTINUOUS
62
7
10
  0.12780000
20
 -0.06240000
30
  0.00000000
11
  0.12790000
21
 -0.06270000
31
  0.00000000
0
LINE
8
DC
6
CONTINUOUS
62
7
10
  0.12790000
20
 -0.06270000
30
  0.00000000
11
  0.12820000
21
 -0.06300000
31
  0.00000000
0
LINE
8
DC
6
CONTINUOUS
62
7
10
  0.12820000
20
 -0.06300000
30
  0.00000000
11
  0.12850000
21
 -0.06330000
31
  0.00000000
0
LINE
8
DC
6
CONTINUOUS
62
7
10
  0.12850000
20
 -0.06330000
30
  0.00000000
11
  0.12880000
21
 -0.06360000
31
  0.00000000
0
LINE
8
DC
6
CONTINUOUS
62
7
10
  0.12880000
20
 -0.06360000
30
  0.00000000
11
  0.12910000
21
 -0.06390000
31
  0.00000000
0
LINE
8
DC
6
CONTINUOUS
62
7
10
  0.12910000
20
 -0.06390000
30
  0.00000000
11
  0.12920000
21
 -0.06420000
31
  0.00000000
0
LINE
8
DC
6
CONTINUOUS
62
7
10
  0.12920000
20
 -0.06420000
30
  0.00000000
11
  0.12910000
21
 -0.06450000
31
  0.00000000
0
LINE
8
DC
6
CONTINUOUS
62
7
10
  0.12910000
20
 -0.06450000
30
  0.00000000
11
  0.12880000
21
 -0.06480000
31
  0.00000000
0
LINE
8
DC
6
CONTINUOUS
62
7
10
  0.12880000
20
 -0.06480000
30
  0.00000000
11
  0.12850000
21
 -0.06500000
31
  0.00000000
0
LINE
8
DC
6
GESTRICHELT
62
7
10
  0.13010000
20
 -0.04500000
30
  0.00000000
11
  0.13010000
21
 -0.06500000
31
  0.00000000
0
SOLID
8
DC
62
255
10
  0.11690000
20
 -0.04500000
30
  0.00000000
11
  0.12200000
21
 -0.04500000
31
  0.00000000
12
  0.11690000
22
 -0.06510000
32
  0.00000000
13
  0.12200000
23
 -0.06510000
33
  0.00000000
0
LINE
8
DC
6
CONTINUOUS
62
7
10
  0.11690000
20
 -0.04500000
30
  0.00000000
11
  0.12200000
21
 -0.04500000
31
  0.00000000
0
LINE
8
DC
6
CONTINUOUS
62
7
10
  0.12200000
20
 -0.04500000
30
  0.00000000
11
  0.12200000
21
 -0.06510000
31
  0.00000000
0
LINE
8
DC
6
CONTINUOUS
62
7
10
  0.12200000
20
 -0.06510000
30
  0.00000000
11
  0.11690000
21
 -0.06510000
31
  0.00000000
0
LINE
8
DC
6
CONTINUOUS
62
7
10
  0.11690000
20
 -0.06510000
30
  0.00000000
11
  0.11690000
21
 -0.04500000
31
  0.00000000
0
SOLID
8
DC
62
30
10
  0.12200000
20
 -0.04500000
30
  0.00000000
11
  0.12700000
21
 -0.04500000
31
  0.00000000
12
  0.12200000
22
 -0.06510000
32
  0.00000000
13
  0.12700000
23
 -0.06510000
33
  0.00000000
0
LINE
8
DC
6
CONTINUOUS
62
7
10
  0.12200000
20
 -0.04500000
30
  0.00000000
11
  0.12700000
21
 -0.04500000
31
  0.00000000
0
LINE
8
DC
6
CONTINUOUS
62
7
10
  0.12700000
20
 -0.04500000
30
  0.00000000
11
  0.12700000
21
 -0.06510000
31
  0.00000000
0
LINE
8
DC
6
CONTINUOUS
62
7
10
  0.12700000
20
 -0.06510000
30
  0.00000000
11
  0.12200000
21
 -0.06510000
31
  0.00000000
0
LINE
8
DC
6
CONTINUOUS
62
7
10
  0.12200000
20
 -0.06510000
30
  0.00000000
11
  0.12200000
21
 -0.04500000
31
  0.00000000
0
TEXT
8
DC
62
7
10
  0.11940000
20
 -0.04520000
30
  0.00000000
40
  0.00325000
41
  0.60000000
1
A
50
  0.00000000
72
1
73
3
11
  0.11940000
21
 -0.04520000
31
  0.00000000
0
TEXT
8
DC
62
7
10
  0.11850000
20
 -0.05100000
30
  0.00000000
40
  0.00216667
41
  0.60000000
1
M
50
  0.00000000
72
1
73
3
11
  0.11850000
21
 -0.05100000
31
  0.00000000
0
TEXT
8
DC
62
7
10
  0.12090000
20
 -0.05100000
30
  0.00000000
40
  0.00216667
41
  0.60000000
1
u
50
  0.00000000
72
1
73
3
11
  0.12090000
21
 -0.05100000
31
  0.00000000
0
TEXT
8
DC
62
7
10
  0.11940000
20
 -0.05520000
30
  0.00000000
40
  0.00325000
41
  0.60000000
1
A
50
  0.00000000
72
1
73
3
11
  0.11940000
21
 -0.05520000
31
  0.00000000
0
TEXT
8
DC
62
7
10
  0.11850000
20
 -0.06100000
30
  0.00000000
40
  0.00216667
41
  0.60000000
1
M
50
  0.00000000
72
1
73
3
11
  0.11850000
21
 -0.06100000
31
  0.00000000
0
TEXT
8
DC
62
7
10
  0.12090000
20
 -0.06100000
30
  0.00000000
40
  0.00216667
41
  0.60000000
1
u
50
  0.00000000
72
1
73
3
11
  0.12090000
21
 -0.06100000
31
  0.00000000
0
LINE
8
DC
6
CONTINUOUS
62
7
10
  0.12350000
20
 -0.04710000
30
  0.00000000
11
  0.12350000
21
 -0.04710000
31
  0.00000000
0
LINE
8
DC
6
CONTINUOUS
62
7
10
  0.12328206
20
 -0.04705000
30
  0.00000000
11
  0.12371794
21
 -0.04705000
31
  0.00000000
0
LINE
8
DC
6
CONTINUOUS
62
7
10
  0.12320000
20
 -0.04700000
30
  0.00000000
11
  0.12380000
21
 -0.04700000
31
  0.00000000
0
LINE
8
DC
6
CONTINUOUS
62
7
10
  0.12314293
20
 -0.04695000
30
  0.00000000
11
  0.12385707
21
 -0.04695000
31
  0.00000000
0
LINE
8
DC
6
CONTINUOUS
62
7
10
  0.12310000
20
 -0.04690000
30
  0.00000000
11
  0.12390000
21
 -0.04690000
31
  0.00000000
0
LINE
8
DC
6
CONTINUOUS
62
7
10
  0.12306699
20
 -0.04685000
30
  0.00000000
11
  0.12393301
21
 -0.04685000
31
  0.00000000
0
LINE
8
DC
6
CONTINUOUS
62
7
10
  0.12304174
20
 -0.04680000
30
  0.00000000
11
  0.12395826
21
 -0.04680000
31
  0.00000000
0
LINE
8
DC
6
CONTINUOUS
62
7
10
  0.12302303
20
 -0.04675000
30
  0.00000000
11
  0.12397697
21
 -0.04675000
31
  0.00000000
0
LINE
8
DC
6
CONTINUOUS
62
7
10
  0.12301010
20
 -0.04670000
30
  0.00000000
11
  0.12398990
21
 -0.04670000
31
  0.00000000
0
LINE
8
DC
6
CONTINUOUS
62
7
10
  0.12300251
20
 -0.04665000
30
  0.00000000
11
  0.12399749
21
 -0.04665000
31
  0.00000000
0
LINE
8
DC
6
CONTINUOUS
62
7
10
  0.12300000
20
 -0.04660000
30
  0.00000000
11
  0.12400000
21
 -0.04660000
31
  0.00000000
0
LINE
8
DC
6
CONTINUOUS
62
7
10
  0.12300251
20
 -0.04655000
30
  0.00000000
11
  0.12399749
21
 -0.04655000
31
  0.00000000
0
LINE
8
DC
6
CONTINUOUS
62
7
10
  0.12301010
20
 -0.04650000
30
  0.00000000
11
  0.12398990
21
 -0.04650000
31
  0.00000000
0
LINE
8
DC
6
CONTINUOUS
62
7
10
  0.12302303
20
 -0.04645000
30
  0.00000000
11
  0.12397697
21
 -0.04645000
31
  0.00000000
0
LINE
8
DC
6
CONTINUOUS
62
7
10
  0.12304174
20
 -0.04640000
30
  0.00000000
11
  0.12395826
21
 -0.04640000
31
  0.00000000
0
LINE
8
DC
6
CONTINUOUS
62
7
10
  0.12306699
20
 -0.04635000
30
  0.00000000
11
  0.12393301
21
 -0.04635000
31
  0.00000000
0
LINE
8
DC
6
CONTINUOUS
62
7
10
  0.12310000
20
 -0.04630000
30
  0.00000000
11
  0.12390000
21
 -0.04630000
31
  0.00000000
0
LINE
8
DC
6
CONTINUOUS
62
7
10
  0.12314293
20
 -0.04625000
30
  0.00000000
11
  0.12385707
21
 -0.04625000
31
  0.00000000
0
LINE
8
DC
6
CONTINUOUS
62
7
10
  0.12320000
20
 -0.04620000
30
  0.00000000
11
  0.12380000
21
 -0.04620000
31
  0.00000000
0
LINE
8
DC
6
CONTINUOUS
62
7
10
  0.12328206
20
 -0.04615000
30
  0.00000000
11
  0.12371794
21
 -0.04615000
31
  0.00000000
0
CIRCLE
8
DC
6
CONTINUOUS
62
7
10
  0.12350000
20
 -0.04660000
30
  0.00000000
40
  0.00050000
0
LINE
8
DC
6
CONTINUOUS
62
7
10
  0.12510000
20
 -0.04710000
30
  0.00000000
11
  0.12510000
21
 -0.04710000
31
  0.00000000
0
LINE
8
DC
6
CONTINUOUS
62
7
10
  0.12488206
20
 -0.04705000
30
  0.00000000
11
  0.12531794
21
 -0.04705000
31
  0.00000000
0
LINE
8
DC
6
CONTINUOUS
62
7
10
  0.12480000
20
 -0.04700000
30
  0.00000000
11
  0.12540000
21
 -0.04700000
31
  0.00000000
0
LINE
8
DC
6
CONTINUOUS
62
7
10
  0.12474293
20
 -0.04695000
30
  0.00000000
11
  0.12545707
21
 -0.04695000
31
  0.00000000
0
LINE
8
DC
6
CONTINUOUS
62
7
10
  0.12470000
20
 -0.04690000
30
  0.00000000
11
  0.12550000
21
 -0.04690000
31
  0.00000000
0
LINE
8
DC
6
CONTINUOUS
62
7
10
  0.12466699
20
 -0.04685000
30
  0.00000000
11
  0.12553301
21
 -0.04685000
31
  0.00000000
0
LINE
8
DC
6
CONTINUOUS
62
7
10
  0.12464174
20
 -0.04680000
30
  0.00000000
11
  0.12555826
21
 -0.04680000
31
  0.00000000
0
LINE
8
DC
6
CONTINUOUS
62
7
10
  0.12462303
20
 -0.04675000
30
  0.00000000
11
  0.12557697
21
 -0.04675000
31
  0.00000000
0
LINE
8
DC
6
CONTINUOUS
62
7
10
  0.12461010
20
 -0.04670000
30
  0.00000000
11
  0.12558990
21
 -0.04670000
31
  0.00000000
0
LINE
8
DC
6
CONTINUOUS
62
7
10
  0.12460251
20
 -0.04665000
30
  0.00000000
11
  0.12559749
21
 -0.04665000
31
  0.00000000
0
LINE
8
DC
6
CONTINUOUS
62
7
10
  0.12460000
20
 -0.04660000
30
  0.00000000
11
  0.12560000
21
 -0.04660000
31
  0.00000000
0
LINE
8
DC
6
CONTINUOUS
62
7
10
  0.12460251
20
 -0.04655000
30
  0.00000000
11
  0.12559749
21
 -0.04655000
31
  0.00000000
0
LINE
8
DC
6
CONTINUOUS
62
7
10
  0.12461010
20
 -0.04650000
30
  0.00000000
11
  0.12558990
21
 -0.04650000
31
  0.00000000
0
LINE
8
DC
6
CONTINUOUS
62
7
10
  0.12462303
20
 -0.04645000
30
  0.00000000
11
  0.12557697
21
 -0.04645000
31
  0.00000000
0
LINE
8
DC
6
CONTINUOUS
62
7
10
  0.12464174
20
 -0.04640000
30
  0.00000000
11
  0.12555826
21
 -0.04640000
31
  0.00000000
0
LINE
8
DC
6
CONTINUOUS
62
7
10
  0.12466699
20
 -0.04635000
30
  0.00000000
11
  0.12553301
21
 -0.04635000
31
  0.00000000
0
LINE
8
DC
6
CONTINUOUS
62
7
10
  0.12470000
20
 -0.04630000
30
  0.00000000
11
  0.12550000
21
 -0.04630000
31
  0.00000000
0
LINE
8
DC
6
CONTINUOUS
62
7
10
  0.12474293
20
 -0.04625000
30
  0.00000000
11
  0.12545707
21
 -0.04625000
31
  0.00000000
0
LINE
8
DC
6
CONTINUOUS
62
7
10
  0.12480000
20
 -0.04620000
30
  0.00000000
11
  0.12540000
21
 -0.04620000
31
  0.00000000
0
LINE
8
DC
6
CONTINUOUS
62
7
10
  0.12488206
20
 -0.04615000
30
  0.00000000
11
  0.12531794
21
 -0.04615000
31
  0.00000000
0
CIRCLE
8
DC
6
CONTINUOUS
62
7
10
  0.12510000
20
 -0.04660000
30
  0.00000000
40
  0.00050000
0
LINE
8
DC
6
CONTINUOUS
62
7
10
  0.12290000
20
 -0.04710000
30
  0.00000000
11
  0.12590000
21
 -0.04710000
31
  0.00000000
0
LINE
8
DC
6
CONTINUOUS
62
7
10
  0.12210000
20
 -0.04900000
30
  0.00000000
11
  0.12210000
21
 -0.04900000
31
  0.00000000
0
LINE
8
DC
6
CONTINUOUS
62
7
10
  0.12196771
20
 -0.04895000
30
  0.00000000
11
  0.12223229
21
 -0.04895000
31
  0.00000000
0
LINE
8
DC
6
CONTINUOUS
62
7
10
  0.12192679
20
 -0.04890000
30
  0.00000000
11
  0.12227321
21
 -0.04890000
31
  0.00000000
0
LINE
8
DC
6
CONTINUOUS
62
7
10
  0.12190635
20
 -0.04885000
30
  0.00000000
11
  0.12229365
21
 -0.04885000
31
  0.00000000
0
LINE
8
DC
6
CONTINUOUS
62
7
10
  0.12190000
20
 -0.04880000
30
  0.00000000
11
  0.12230000
21
 -0.04880000
31
  0.00000000
0
LINE
8
DC
6
CONTINUOUS
62
7
10
  0.12190635
20
 -0.04875000
30
  0.00000000
11
  0.12229365
21
 -0.04875000
31
  0.00000000
0
LINE
8
DC
6
CONTINUOUS
62
7
10
  0.12192679
20
 -0.04870000
30
  0.00000000
11
  0.12227321
21
 -0.04870000
31
  0.00000000
0
LINE
8
DC
6
CONTINUOUS
62
7
10
  0.12196771
20
 -0.04865000
30
  0.00000000
11
  0.12223229
21
 -0.04865000
31
  0.00000000
0
CIRCLE
8
DC
6
CONTINUOUS
62
7
10
  0.12210000
20
 -0.04880000
30
  0.00000000
40
  0.00020000
0
LINE
8
DC
6
CONTINUOUS
62
7
10
  0.12310000
20
 -0.04900000
30
  0.00000000
11
  0.12310000
21
 -0.04900000
31
  0.00000000
0
LINE
8
DC
6
CONTINUOUS
62
7
10
  0.12296771
20
 -0.04895000
30
  0.00000000
11
  0.12323229
21
 -0.04895000
31
  0.00000000
0
LINE
8
DC
6
CONTINUOUS
62
7
10
  0.12292679
20
 -0.04890000
30
  0.00000000
11
  0.12327321
21
 -0.04890000
31
  0.00000000
0
LINE
8
DC
6
CONTINUOUS
62
7
10
  0.12290635
20
 -0.04885000
30
  0.00000000
11
  0.12329365
21
 -0.04885000
31
  0.00000000
0
LINE
8
DC
6
CONTINUOUS
62
7
10
  0.12290000
20
 -0.04880000
30
  0.00000000
11
  0.12330000
21
 -0.04880000
31
  0.00000000
0
LINE
8
DC
6
CONTINUOUS
62
7
10
  0.12290635
20
 -0.04875000
30
  0.00000000
11
  0.12329365
21
 -0.04875000
31
  0.00000000
0
LINE
8
DC
6
CONTINUOUS
62
7
10
  0.12292679
20
 -0.04870000
30
  0.00000000
11
  0.12327321
21
 -0.04870000
31
  0.00000000
0
LINE
8
DC
6
CONTINUOUS
62
7
10
  0.12296771
20
 -0.04865000
30
  0.00000000
11
  0.12323229
21
 -0.04865000
31
  0.00000000
0
CIRCLE
8
DC
6
CONTINUOUS
62
7
10
  0.12310000
20
 -0.04880000
30
  0.00000000
40
  0.00020000
0
LINE
8
DC
6
CONTINUOUS
62
7
10
  0.12410000
20
 -0.04900000
30
  0.00000000
11
  0.12410000
21
 -0.04900000
31
  0.00000000
0
LINE
8
DC
6
CONTINUOUS
62
7
10
  0.12396771
20
 -0.04895000
30
  0.00000000
11
  0.12423229
21
 -0.04895000
31
  0.00000000
0
LINE
8
DC
6
CONTINUOUS
62
7
10
  0.12392679
20
 -0.04890000
30
  0.00000000
11
  0.12427321
21
 -0.04890000
31
  0.00000000
0
LINE
8
DC
6
CONTINUOUS
62
7
10
  0.12390635
20
 -0.04885000
30
  0.00000000
11
  0.12429365
21
 -0.04885000
31
  0.00000000
0
LINE
8
DC
6
CONTINUOUS
62
7
10
  0.12390000
20
 -0.04880000
30
  0.00000000
11
  0.12430000
21
 -0.04880000
31
  0.00000000
0
LINE
8
DC
6
CONTINUOUS
62
7
10
  0.12390635
20
 -0.04875000
30
  0.00000000
11
  0.12429365
21
 -0.04875000
31
  0.00000000
0
LINE
8
DC
6
CONTINUOUS
62
7
10
  0.12392679
20
 -0.04870000
30
  0.00000000
11
  0.12427321
21
 -0.04870000
31
  0.00000000
0
LINE
8
DC
6
CONTINUOUS
62
7
10
  0.12396771
20
 -0.04865000
30
  0.00000000
11
  0.12423229
21
 -0.04865000
31
  0.00000000
0
CIRCLE
8
DC
6
CONTINUOUS
62
7
10
  0.12410000
20
 -0.04880000
30
  0.00000000
40
  0.00020000
0
LINE
8
DC
6
CONTINUOUS
62
7
10
  0.12510000
20
 -0.04900000
30
  0.00000000
11
  0.12510000
21
 -0.04900000
31
  0.00000000
0
LINE
8
DC
6
CONTINUOUS
62
7
10
  0.12496771
20
 -0.04895000
30
  0.00000000
11
  0.12523229
21
 -0.04895000
31
  0.00000000
0
LINE
8
DC
6
CONTINUOUS
62
7
10
  0.12492679
20
 -0.04890000
30
  0.00000000
11
  0.12527321
21
 -0.04890000
31
  0.00000000
0
LINE
8
DC
6
CONTINUOUS
62
7
10
  0.12490635
20
 -0.04885000
30
  0.00000000
11
  0.12529365
21
 -0.04885000
31
  0.00000000
0
LINE
8
DC
6
CONTINUOUS
62
7
10
  0.12490000
20
 -0.04880000
30
  0.00000000
11
  0.12530000
21
 -0.04880000
31
  0.00000000
0
LINE
8
DC
6
CONTINUOUS
62
7
10
  0.12490635
20
 -0.04875000
30
  0.00000000
11
  0.12529365
21
 -0.04875000
31
  0.00000000
0
LINE
8
DC
6
CONTINUOUS
62
7
10
  0.12492679
20
 -0.04870000
30
  0.00000000
11
  0.12527321
21
 -0.04870000
31
  0.00000000
0
LINE
8
DC
6
CONTINUOUS
62
7
10
  0.12496771
20
 -0.04865000
30
  0.00000000
11
  0.12523229
21
 -0.04865000
31
  0.00000000
0
CIRCLE
8
DC
6
CONTINUOUS
62
7
10
  0.12510000
20
 -0.04880000
30
  0.00000000
40
  0.00020000
0
LINE
8
DC
6
CONTINUOUS
62
7
10
  0.12610000
20
 -0.04900000
30
  0.00000000
11
  0.12610000
21
 -0.04900000
31
  0.00000000
0
LINE
8
DC
6
CONTINUOUS
62
7
10
  0.12596771
20
 -0.04895000
30
  0.00000000
11
  0.12623229
21
 -0.04895000
31
  0.00000000
0
LINE
8
DC
6
CONTINUOUS
62
7
10
  0.12592679
20
 -0.04890000
30
  0.00000000
11
  0.12627321
21
 -0.04890000
31
  0.00000000
0
LINE
8
DC
6
CONTINUOUS
62
7
10
  0.12590635
20
 -0.04885000
30
  0.00000000
11
  0.12629365
21
 -0.04885000
31
  0.00000000
0
LINE
8
DC
6
CONTINUOUS
62
7
10
  0.12590000
20
 -0.04880000
30
  0.00000000
11
  0.12630000
21
 -0.04880000
31
  0.00000000
0
LINE
8
DC
6
CONTINUOUS
62
7
10
  0.12590635
20
 -0.04875000
30
  0.00000000
11
  0.12629365
21
 -0.04875000
31
  0.00000000
0
LINE
8
DC
6
CONTINUOUS
62
7
10
  0.12592679
20
 -0.04870000
30
  0.00000000
11
  0.12627321
21
 -0.04870000
31
  0.00000000
0
LINE
8
DC
6
CONTINUOUS
62
7
10
  0.12596771
20
 -0.04865000
30
  0.00000000
11
  0.12623229
21
 -0.04865000
31
  0.00000000
0
CIRCLE
8
DC
6
CONTINUOUS
62
7
10
  0.12610000
20
 -0.04880000
30
  0.00000000
40
  0.00020000
0
LINE
8
DC
6
CONTINUOUS
62
7
10
  0.12210000
20
 -0.05120000
30
  0.00000000
11
  0.12210000
21
 -0.05120000
31
  0.00000000
0
LINE
8
DC
6
CONTINUOUS
62
7
10
  0.12196771
20
 -0.05115000
30
  0.00000000
11
  0.12223229
21
 -0.05115000
31
  0.00000000
0
LINE
8
DC
6
CONTINUOUS
62
7
10
  0.12192679
20
 -0.05110000
30
  0.00000000
11
  0.12227321
21
 -0.05110000
31
  0.00000000
0
LINE
8
DC
6
CONTINUOUS
62
7
10
  0.12190635
20
 -0.05105000
30
  0.00000000
11
  0.12229365
21
 -0.05105000
31
  0.00000000
0
LINE
8
DC
6
CONTINUOUS
62
7
10
  0.12190000
20
 -0.05100000
30
  0.00000000
11
  0.12230000
21
 -0.05100000
31
  0.00000000
0
LINE
8
DC
6
CONTINUOUS
62
7
10
  0.12190635
20
 -0.05095000
30
  0.00000000
11
  0.12229365
21
 -0.05095000
31
  0.00000000
0
LINE
8
DC
6
CONTINUOUS
62
7
10
  0.12192679
20
 -0.05090000
30
  0.00000000
11
  0.12227321
21
 -0.05090000
31
  0.00000000
0
LINE
8
DC
6
CONTINUOUS
62
7
10
  0.12196771
20
 -0.05085000
30
  0.00000000
11
  0.12223229
21
 -0.05085000
31
  0.00000000
0
CIRCLE
8
DC
6
CONTINUOUS
62
7
10
  0.12210000
20
 -0.05100000
30
  0.00000000
40
  0.00020000
0
LINE
8
DC
6
CONTINUOUS
62
7
10
  0.12310000
20
 -0.05120000
30
  0.00000000
11
  0.12310000
21
 -0.05120000
31
  0.00000000
0
LINE
8
DC
6
CONTINUOUS
62
7
10
  0.12296771
20
 -0.05115000
30
  0.00000000
11
  0.12323229
21
 -0.05115000
31
  0.00000000
0
LINE
8
DC
6
CONTINUOUS
62
7
10
  0.12292679
20
 -0.05110000
30
  0.00000000
11
  0.12327321
21
 -0.05110000
31
  0.00000000
0
LINE
8
DC
6
CONTINUOUS
62
7
10
  0.12290635
20
 -0.05105000
30
  0.00000000
11
  0.12329365
21
 -0.05105000
31
  0.00000000
0
LINE
8
DC
6
CONTINUOUS
62
7
10
  0.12290000
20
 -0.05100000
30
  0.00000000
11
  0.12330000
21
 -0.05100000
31
  0.00000000
0
LINE
8
DC
6
CONTINUOUS
62
7
10
  0.12290635
20
 -0.05095000
30
  0.00000000
11
  0.12329365
21
 -0.05095000
31
  0.00000000
0
LINE
8
DC
6
CONTINUOUS
62
7
10
  0.12292679
20
 -0.05090000
30
  0.00000000
11
  0.12327321
21
 -0.05090000
31
  0.00000000
0
LINE
8
DC
6
CONTINUOUS
62
7
10
  0.12296771
20
 -0.05085000
30
  0.00000000
11
  0.12323229
21
 -0.05085000
31
  0.00000000
0
CIRCLE
8
DC
6
CONTINUOUS
62
7
10
  0.12310000
20
 -0.05100000
30
  0.00000000
40
  0.00020000
0
LINE
8
DC
6
CONTINUOUS
62
7
10
  0.12410000
20
 -0.05120000
30
  0.00000000
11
  0.12410000
21
 -0.05120000
31
  0.00000000
0
LINE
8
DC
6
CONTINUOUS
62
7
10
  0.12396771
20
 -0.05115000
30
  0.00000000
11
  0.12423229
21
 -0.05115000
31
  0.00000000
0
LINE
8
DC
6
CONTINUOUS
62
7
10
  0.12392679
20
 -0.05110000
30
  0.00000000
11
  0.12427321
21
 -0.05110000
31
  0.00000000
0
LINE
8
DC
6
CONTINUOUS
62
7
10
  0.12390635
20
 -0.05105000
30
  0.00000000
11
  0.12429365
21
 -0.05105000
31
  0.00000000
0
LINE
8
DC
6
CONTINUOUS
62
7
10
  0.12390000
20
 -0.05100000
30
  0.00000000
11
  0.12430000
21
 -0.05100000
31
  0.00000000
0
LINE
8
DC
6
CONTINUOUS
62
7
10
  0.12390635
20
 -0.05095000
30
  0.00000000
11
  0.12429365
21
 -0.05095000
31
  0.00000000
0
LINE
8
DC
6
CONTINUOUS
62
7
10
  0.12392679
20
 -0.05090000
30
  0.00000000
11
  0.12427321
21
 -0.05090000
31
  0.00000000
0
LINE
8
DC
6
CONTINUOUS
62
7
10
  0.12396771
20
 -0.05085000
30
  0.00000000
11
  0.12423229
21
 -0.05085000
31
  0.00000000
0
CIRCLE
8
DC
6
CONTINUOUS
62
7
10
  0.12410000
20
 -0.05100000
30
  0.00000000
40
  0.00020000
0
LINE
8
DC
6
CONTINUOUS
62
7
10
  0.12510000
20
 -0.05120000
30
  0.00000000
11
  0.12510000
21
 -0.05120000
31
  0.00000000
0
LINE
8
DC
6
CONTINUOUS
62
7
10
  0.12496771
20
 -0.05115000
30
  0.00000000
11
  0.12523229
21
 -0.05115000
31
  0.00000000
0
LINE
8
DC
6
CONTINUOUS
62
7
10
  0.12492679
20
 -0.05110000
30
  0.00000000
11
  0.12527321
21
 -0.05110000
31
  0.00000000
0
LINE
8
DC
6
CONTINUOUS
62
7
10
  0.12490635
20
 -0.05105000
30
  0.00000000
11
  0.12529365
21
 -0.05105000
31
  0.00000000
0
LINE
8
DC
6
CONTINUOUS
62
7
10
  0.12490000
20
 -0.05100000
30
  0.00000000
11
  0.12530000
21
 -0.05100000
31
  0.00000000
0
LINE
8
DC
6
CONTINUOUS
62
7
10
  0.12490635
20
 -0.05095000
30
  0.00000000
11
  0.12529365
21
 -0.05095000
31
  0.00000000
0
LINE
8
DC
6
CONTINUOUS
62
7
10
  0.12492679
20
 -0.05090000
30
  0.00000000
11
  0.12527321
21
 -0.05090000
31
  0.00000000
0
LINE
8
DC
6
CONTINUOUS
62
7
10
  0.12496771
20
 -0.05085000
30
  0.00000000
11
  0.12523229
21
 -0.05085000
31
  0.00000000
0
CIRCLE
8
DC
6
CONTINUOUS
62
7
10
  0.12510000
20
 -0.05100000
30
  0.00000000
40
  0.00020000
0
LINE
8
DC
6
CONTINUOUS
62
7
10
  0.12610000
20
 -0.05120000
30
  0.00000000
11
  0.12610000
21
 -0.05120000
31
  0.00000000
0
LINE
8
DC
6
CONTINUOUS
62
7
10
  0.12596771
20
 -0.05115000
30
  0.00000000
11
  0.12623229
21
 -0.05115000
31
  0.00000000
0
LINE
8
DC
6
CONTINUOUS
62
7
10
  0.12592679
20
 -0.05110000
30
  0.00000000
11
  0.12627321
21
 -0.05110000
31
  0.00000000
0
LINE
8
DC
6
CONTINUOUS
62
7
10
  0.12590635
20
 -0.05105000
30
  0.00000000
11
  0.12629365
21
 -0.05105000
31
  0.00000000
0
LINE
8
DC
6
CONTINUOUS
62
7
10
  0.12590000
20
 -0.05100000
30
  0.00000000
11
  0.12630000
21
 -0.05100000
31
  0.00000000
0
LINE
8
DC
6
CONTINUOUS
62
7
10
  0.12590635
20
 -0.05095000
30
  0.00000000
11
  0.12629365
21
 -0.05095000
31
  0.00000000
0
LINE
8
DC
6
CONTINUOUS
62
7
10
  0.12592679
20
 -0.05090000
30
  0.00000000
11
  0.12627321
21
 -0.05090000
31
  0.00000000
0
LINE
8
DC
6
CONTINUOUS
62
7
10
  0.12596771
20
 -0.05085000
30
  0.00000000
11
  0.12623229
21
 -0.05085000
31
  0.00000000
0
CIRCLE
8
DC
6
CONTINUOUS
62
7
10
  0.12610000
20
 -0.05100000
30
  0.00000000
40
  0.00020000
0
LINE
8
DC
6
CONTINUOUS
62
7
10
  0.12260000
20
 -0.05010000
30
  0.00000000
11
  0.12260000
21
 -0.05010000
31
  0.00000000
0
LINE
8
DC
6
CONTINUOUS
62
7
10
  0.12246771
20
 -0.05005000
30
  0.00000000
11
  0.12273229
21
 -0.05005000
31
  0.00000000
0
LINE
8
DC
6
CONTINUOUS
62
7
10
  0.12242679
20
 -0.05000000
30
  0.00000000
11
  0.12277321
21
 -0.05000000
31
  0.00000000
0
LINE
8
DC
6
CONTINUOUS
62
7
10
  0.12240635
20
 -0.04995000
30
  0.00000000
11
  0.12279365
21
 -0.04995000
31
  0.00000000
0
LINE
8
DC
6
CONTINUOUS
62
7
10
  0.12240000
20
 -0.04990000
30
  0.00000000
11
  0.12280000
21
 -0.04990000
31
  0.00000000
0
LINE
8
DC
6
CONTINUOUS
62
7
10
  0.12240635
20
 -0.04985000
30
  0.00000000
11
  0.12279365
21
 -0.04985000
31
  0.00000000
0
LINE
8
DC
6
CONTINUOUS
62
7
10
  0.12242679
20
 -0.04980000
30
  0.00000000
11
  0.12277321
21
 -0.04980000
31
  0.00000000
0
LINE
8
DC
6
CONTINUOUS
62
7
10
  0.12246771
20
 -0.04975000
30
  0.00000000
11
  0.12273229
21
 -0.04975000
31
  0.00000000
0
CIRCLE
8
DC
6
CONTINUOUS
62
7
10
  0.12260000
20
 -0.04990000
30
  0.00000000
40
  0.00020000
0
LINE
8
DC
6
CONTINUOUS
62
7
10
  0.12360000
20
 -0.05010000
30
  0.00000000
11
  0.12360000
21
 -0.05010000
31
  0.00000000
0
LINE
8
DC
6
CONTINUOUS
62
7
10
  0.12346771
20
 -0.05005000
30
  0.00000000
11
  0.12373229
21
 -0.05005000
31
  0.00000000
0
LINE
8
DC
6
CONTINUOUS
62
7
10
  0.12342679
20
 -0.05000000
30
  0.00000000
11
  0.12377321
21
 -0.05000000
31
  0.00000000
0
LINE
8
DC
6
CONTINUOUS
62
7
10
  0.12340635
20
 -0.04995000
30
  0.00000000
11
  0.12379365
21
 -0.04995000
31
  0.00000000
0
LINE
8
DC
6
CONTINUOUS
62
7
10
  0.12340000
20
 -0.04990000
30
  0.00000000
11
  0.12380000
21
 -0.04990000
31
  0.00000000
0
LINE
8
DC
6
CONTINUOUS
62
7
10
  0.12340635
20
 -0.04985000
30
  0.00000000
11
  0.12379365
21
 -0.04985000
31
  0.00000000
0
LINE
8
DC
6
CONTINUOUS
62
7
10
  0.12342679
20
 -0.04980000
30
  0.00000000
11
  0.12377321
21
 -0.04980000
31
  0.00000000
0
LINE
8
DC
6
CONTINUOUS
62
7
10
  0.12346771
20
 -0.04975000
30
  0.00000000
11
  0.12373229
21
 -0.04975000
31
  0.00000000
0
CIRCLE
8
DC
6
CONTINUOUS
62
7
10
  0.12360000
20
 -0.04990000
30
  0.00000000
40
  0.00020000
0
LINE
8
DC
6
CONTINUOUS
62
7
10
  0.12460000
20
 -0.05010000
30
  0.00000000
11
  0.12460000
21
 -0.05010000
31
  0.00000000
0
LINE
8
DC
6
CONTINUOUS
62
7
10
  0.12446771
20
 -0.05005000
30
  0.00000000
11
  0.12473229
21
 -0.05005000
31
  0.00000000
0
LINE
8
DC
6
CONTINUOUS
62
7
10
  0.12442679
20
 -0.05000000
30
  0.00000000
11
  0.12477321
21
 -0.05000000
31
  0.00000000
0
LINE
8
DC
6
CONTINUOUS
62
7
10
  0.12440635
20
 -0.04995000
30
  0.00000000
11
  0.12479365
21
 -0.04995000
31
  0.00000000
0
LINE
8
DC
6
CONTINUOUS
62
7
10
  0.12440000
20
 -0.04990000
30
  0.00000000
11
  0.12480000
21
 -0.04990000
31
  0.00000000
0
LINE
8
DC
6
CONTINUOUS
62
7
10
  0.12440635
20
 -0.04985000
30
  0.00000000
11
  0.12479365
21
 -0.04985000
31
  0.00000000
0
LINE
8
DC
6
CONTINUOUS
62
7
10
  0.12442679
20
 -0.04980000
30
  0.00000000
11
  0.12477321
21
 -0.04980000
31
  0.00000000
0
LINE
8
DC
6
CONTINUOUS
62
7
10
  0.12446771
20
 -0.04975000
30
  0.00000000
11
  0.12473229
21
 -0.04975000
31
  0.00000000
0
CIRCLE
8
DC
6
CONTINUOUS
62
7
10
  0.12460000
20
 -0.04990000
30
  0.00000000
40
  0.00020000
0
LINE
8
DC
6
CONTINUOUS
62
7
10
  0.12560000
20
 -0.05010000
30
  0.00000000
11
  0.12560000
21
 -0.05010000
31
  0.00000000
0
LINE
8
DC
6
CONTINUOUS
62
7
10
  0.12546771
20
 -0.05005000
30
  0.00000000
11
  0.12573229
21
 -0.05005000
31
  0.00000000
0
LINE
8
DC
6
CONTINUOUS
62
7
10
  0.12542679
20
 -0.05000000
30
  0.00000000
11
  0.12577321
21
 -0.05000000
31
  0.00000000
0
LINE
8
DC
6
CONTINUOUS
62
7
10
  0.12540635
20
 -0.04995000
30
  0.00000000
11
  0.12579365
21
 -0.04995000
31
  0.00000000
0
LINE
8
DC
6
CONTINUOUS
62
7
10
  0.12540000
20
 -0.04990000
30
  0.00000000
11
  0.12580000
21
 -0.04990000
31
  0.00000000
0
LINE
8
DC
6
CONTINUOUS
62
7
10
  0.12540635
20
 -0.04985000
30
  0.00000000
11
  0.12579365
21
 -0.04985000
31
  0.00000000
0
LINE
8
DC
6
CONTINUOUS
62
7
10
  0.12542679
20
 -0.04980000
30
  0.00000000
11
  0.12577321
21
 -0.04980000
31
  0.00000000
0
LINE
8
DC
6
CONTINUOUS
62
7
10
  0.12546771
20
 -0.04975000
30
  0.00000000
11
  0.12573229
21
 -0.04975000
31
  0.00000000
0
CIRCLE
8
DC
6
CONTINUOUS
62
7
10
  0.12560000
20
 -0.04990000
30
  0.00000000
40
  0.00020000
0
LINE
8
DC
6
CONTINUOUS
62
7
10
  0.12660000
20
 -0.05010000
30
  0.00000000
11
  0.12660000
21
 -0.05010000
31
  0.00000000
0
LINE
8
DC
6
CONTINUOUS
62
7
10
  0.12646771
20
 -0.05005000
30
  0.00000000
11
  0.12673229
21
 -0.05005000
31
  0.00000000
0
LINE
8
DC
6
CONTINUOUS
62
7
10
  0.12642679
20
 -0.05000000
30
  0.00000000
11
  0.12677321
21
 -0.05000000
31
  0.00000000
0
LINE
8
DC
6
CONTINUOUS
62
7
10
  0.12640635
20
 -0.04995000
30
  0.00000000
11
  0.12679365
21
 -0.04995000
31
  0.00000000
0
LINE
8
DC
6
CONTINUOUS
62
7
10
  0.12640000
20
 -0.04990000
30
  0.00000000
11
  0.12680000
21
 -0.04990000
31
  0.00000000
0
LINE
8
DC
6
CONTINUOUS
62
7
10
  0.12640635
20
 -0.04985000
30
  0.00000000
11
  0.12679365
21
 -0.04985000
31
  0.00000000
0
LINE
8
DC
6
CONTINUOUS
62
7
10
  0.12642679
20
 -0.04980000
30
  0.00000000
11
  0.12677321
21
 -0.04980000
31
  0.00000000
0
LINE
8
DC
6
CONTINUOUS
62
7
10
  0.12646771
20
 -0.04975000
30
  0.00000000
11
  0.12673229
21
 -0.04975000
31
  0.00000000
0
CIRCLE
8
DC
6
CONTINUOUS
62
7
10
  0.12660000
20
 -0.04990000
30
  0.00000000
40
  0.00020000
0
TEXT
8
DC
62
7
10
  0.12440000
20
 -0.05180000
30
  0.00000000
40
  0.00325000
41
  0.60000000
1
A
50
  0.00000000
72
1
73
3
11
  0.12440000
21
 -0.05180000
31
  0.00000000
0
TEXT
8
DC
62
7
10
  0.12350000
20
 -0.05760000
30
  0.00000000
40
  0.00216667
41
  0.60000000
1
M
50
  0.00000000
72
1
73
3
11
  0.12350000
21
 -0.05760000
31
  0.00000000
0
TEXT
8
DC
62
7
10
  0.12590000
20
 -0.05760000
30
  0.00000000
40
  0.00216667
41
  0.60000000
1
u
50
  0.00000000
72
1
73
3
11
  0.12590000
21
 -0.05760000
31
  0.00000000
0
LINE
8
DC
6
CONTINUOUS
62
7
10
  0.12350000
20
 -0.06370000
30
  0.00000000
11
  0.12350000
21
 -0.06370000
31
  0.00000000
0
LINE
8
DC
6
CONTINUOUS
62
7
10
  0.12328206
20
 -0.06365000
30
  0.00000000
11
  0.12371794
21
 -0.06365000
31
  0.00000000
0
LINE
8
DC
6
CONTINUOUS
62
7
10
  0.12320000
20
 -0.06360000
30
  0.00000000
11
  0.12380000
21
 -0.06360000
31
  0.00000000
0
LINE
8
DC
6
CONTINUOUS
62
7
10
  0.12314293
20
 -0.06355000
30
  0.00000000
11
  0.12385707
21
 -0.06355000
31
  0.00000000
0
LINE
8
DC
6
CONTINUOUS
62
7
10
  0.12310000
20
 -0.06350000
30
  0.00000000
11
  0.12390000
21
 -0.06350000
31
  0.00000000
0
LINE
8
DC
6
CONTINUOUS
62
7
10
  0.12306699
20
 -0.06345000
30
  0.00000000
11
  0.12393301
21
 -0.06345000
31
  0.00000000
0
LINE
8
DC
6
CONTINUOUS
62
7
10
  0.12304174
20
 -0.06340000
30
  0.00000000
11
  0.12395826
21
 -0.06340000
31
  0.00000000
0
LINE
8
DC
6
CONTINUOUS
62
7
10
  0.12302303
20
 -0.06335000
30
  0.00000000
11
  0.12397697
21
 -0.06335000
31
  0.00000000
0
LINE
8
DC
6
CONTINUOUS
62
7
10
  0.12301010
20
 -0.06330000
30
  0.00000000
11
  0.12398990
21
 -0.06330000
31
  0.00000000
0
LINE
8
DC
6
CONTINUOUS
62
7
10
  0.12300251
20
 -0.06325000
30
  0.00000000
11
  0.12399749
21
 -0.06325000
31
  0.00000000
0
LINE
8
DC
6
CONTINUOUS
62
7
10
  0.12300000
20
 -0.06320000
30
  0.00000000
11
  0.12400000
21
 -0.06320000
31
  0.00000000
0
LINE
8
DC
6
CONTINUOUS
62
7
10
  0.12300251
20
 -0.06315000
30
  0.00000000
11
  0.12399749
21
 -0.06315000
31
  0.00000000
0
LINE
8
DC
6
CONTINUOUS
62
7
10
  0.12301010
20
 -0.06310000
30
  0.00000000
11
  0.12398990
21
 -0.06310000
31
  0.00000000
0
LINE
8
DC
6
CONTINUOUS
62
7
10
  0.12302303
20
 -0.06305000
30
  0.00000000
11
  0.12397697
21
 -0.06305000
31
  0.00000000
0
LINE
8
DC
6
CONTINUOUS
62
7
10
  0.12304174
20
 -0.06300000
30
  0.00000000
11
  0.12395826
21
 -0.06300000
31
  0.00000000
0
LINE
8
DC
6
CONTINUOUS
62
7
10
  0.12306699
20
 -0.06295000
30
  0.00000000
11
  0.12393301
21
 -0.06295000
31
  0.00000000
0
LINE
8
DC
6
CONTINUOUS
62
7
10
  0.12310000
20
 -0.06290000
30
  0.00000000
11
  0.12390000
21
 -0.06290000
31
  0.00000000
0
LINE
8
DC
6
CONTINUOUS
62
7
10
  0.12314293
20
 -0.06285000
30
  0.00000000
11
  0.12385707
21
 -0.06285000
31
  0.00000000
0
LINE
8
DC
6
CONTINUOUS
62
7
10
  0.12320000
20
 -0.06280000
30
  0.00000000
11
  0.12380000
21
 -0.06280000
31
  0.00000000
0
LINE
8
DC
6
CONTINUOUS
62
7
10
  0.12328206
20
 -0.06275000
30
  0.00000000
11
  0.12371794
21
 -0.06275000
31
  0.00000000
0
CIRCLE
8
DC
6
CONTINUOUS
62
7
10
  0.12350000
20
 -0.06320000
30
  0.00000000
40
  0.00050000
0
LINE
8
DC
6
CONTINUOUS
62
7
10
  0.12510000
20
 -0.06370000
30
  0.00000000
11
  0.12510000
21
 -0.06370000
31
  0.00000000
0
LINE
8
DC
6
CONTINUOUS
62
7
10
  0.12488206
20
 -0.06365000
30
  0.00000000
11
  0.12531794
21
 -0.06365000
31
  0.00000000
0
LINE
8
DC
6
CONTINUOUS
62
7
10
  0.12480000
20
 -0.06360000
30
  0.00000000
11
  0.12540000
21
 -0.06360000
31
  0.00000000
0
LINE
8
DC
6
CONTINUOUS
62
7
10
  0.12474293
20
 -0.06355000
30
  0.00000000
11
  0.12545707
21
 -0.06355000
31
  0.00000000
0
LINE
8
DC
6
CONTINUOUS
62
7
10
  0.12470000
20
 -0.06350000
30
  0.00000000
11
  0.12550000
21
 -0.06350000
31
  0.00000000
0
LINE
8
DC
6
CONTINUOUS
62
7
10
  0.12466699
20
 -0.06345000
30
  0.00000000
11
  0.12553301
21
 -0.06345000
31
  0.00000000
0
LINE
8
DC
6
CONTINUOUS
62
7
10
  0.12464174
20
 -0.06340000
30
  0.00000000
11
  0.12555826
21
 -0.06340000
31
  0.00000000
0
LINE
8
DC
6
CONTINUOUS
62
7
10
  0.12462303
20
 -0.06335000
30
  0.00000000
11
  0.12557697
21
 -0.06335000
31
  0.00000000
0
LINE
8
DC
6
CONTINUOUS
62
7
10
  0.12461010
20
 -0.06330000
30
  0.00000000
11
  0.12558990
21
 -0.06330000
31
  0.00000000
0
LINE
8
DC
6
CONTINUOUS
62
7
10
  0.12460251
20
 -0.06325000
30
  0.00000000
11
  0.12559749
21
 -0.06325000
31
  0.00000000
0
LINE
8
DC
6
CONTINUOUS
62
7
10
  0.12460000
20
 -0.06320000
30
  0.00000000
11
  0.12560000
21
 -0.06320000
31
  0.00000000
0
LINE
8
DC
6
CONTINUOUS
62
7
10
  0.12460251
20
 -0.06315000
30
  0.00000000
11
  0.12559749
21
 -0.06315000
31
  0.00000000
0
LINE
8
DC
6
CONTINUOUS
62
7
10
  0.12461010
20
 -0.06310000
30
  0.00000000
11
  0.12558990
21
 -0.06310000
31
  0.00000000
0
LINE
8
DC
6
CONTINUOUS
62
7
10
  0.12462303
20
 -0.06305000
30
  0.00000000
11
  0.12557697
21
 -0.06305000
31
  0.00000000
0
LINE
8
DC
6
CONTINUOUS
62
7
10
  0.12464174
20
 -0.06300000
30
  0.00000000
11
  0.12555826
21
 -0.06300000
31
  0.00000000
0
LINE
8
DC
6
CONTINUOUS
62
7
10
  0.12466699
20
 -0.06295000
30
  0.00000000
11
  0.12553301
21
 -0.06295000
31
  0.00000000
0
LINE
8
DC
6
CONTINUOUS
62
7
10
  0.12470000
20
 -0.06290000
30
  0.00000000
11
  0.12550000
21
 -0.06290000
31
  0.00000000
0
LINE
8
DC
6
CONTINUOUS
62
7
10
  0.12474293
20
 -0.06285000
30
  0.00000000
11
  0.12545707
21
 -0.06285000
31
  0.00000000
0
LINE
8
DC
6
CONTINUOUS
62
7
10
  0.12480000
20
 -0.06280000
30
  0.00000000
11
  0.12540000
21
 -0.06280000
31
  0.00000000
0
LINE
8
DC
6
CONTINUOUS
62
7
10
  0.12488206
20
 -0.06275000
30
  0.00000000
11
  0.12531794
21
 -0.06275000
31
  0.00000000
0
CIRCLE
8
DC
6
CONTINUOUS
62
7
10
  0.12510000
20
 -0.06320000
30
  0.00000000
40
  0.00050000
0
LINE
8
DC
6
CONTINUOUS
62
7
10
  0.11690000
20
 -0.04500000
30
  0.00000000
11
  0.17390000
21
 -0.04500000
31
  0.00000000
0
LINE
8
DC
6
CONTINUOUS
62
7
10
  0.11690000
20
 -0.06500000
30
  0.00000000
11
  0.11590000
21
 -0.06500000
31
  0.00000000
0
LINE
8
DC
6
CONTINUOUS
62
7
10
  0.10650000
20
 -0.06500000
30
  0.00000000
11
  0.11590000
21
 -0.06500000
31
  0.00000000
0
TEXT
8
DC
62
7
10
  0.11590000
20
 -0.06450000
30
  0.00000000
40
  0.00250000
41
  0.60000000
1
    1.00m
50
  0.00000000
72
2
73
0
11
  0.11590000
21
 -0.06450000
31
  0.00000000
0
TEXT
8
DC
62
7
10
  0.13390000
20
 -0.04880000
30
  0.00000000
40
  0.00216667
41
  0.60000000
1
Auffüllung, Mutterboden, Ton, 
50
  0.00000000
72
0
73
1
11
  0.13390000
21
 -0.04880000
31
  0.00000000
0
TEXT
8
DC
62
7
10
  0.13390000
20
 -0.05190000
30
  0.00000000
40
  0.00216667
41
  0.60000000
1
stark schluffig, schwach 
50
  0.00000000
72
0
73
1
11
  0.13390000
21
 -0.05190000
31
  0.00000000
0
TEXT
8
DC
62
7
10
  0.13390000
20
 -0.05500000
30
  0.00000000
40
  0.00216667
41
  0.60000000
1
feinsandig, humos
50
  0.00000000
72
0
73
1
11
  0.13390000
21
 -0.05500000
31
  0.00000000
0
TEXT
8
DC
62
7
10
  0.13390000
20
 -0.05810000
30
  0.00000000
40
  0.00216667
41
  0.60000000
1
weich bis steif
50
  0.00000000
72
0
73
1
11
  0.13390000
21
 -0.05810000
31
  0.00000000
0
TEXT
8
DC
62
7
10
  0.13390000
20
 -0.06120000
30
  0.00000000
40
  0.00216667
41
  0.60000000
1
erdfeucht
50
  0.00000000
72
0
73
1
11
  0.13390000
21
 -0.06120000
31
  0.00000000
0
TEXT
8
DC
62
7
10
  0.13390000
20
 -0.06430000
30
  0.00000000
40
  0.00216667
41
  0.60000000
1
schwarzbraun
50
  0.00000000
72
0
73
1
11
  0.13390000
21
 -0.06430000
31
  0.00000000
0
CIRCLE
8
DC
6
CONTINUOUS
62
7
10
  0.18210000
20
 -0.05500000
30
  0.00000000
40
  0.00720000
0
TEXT
8
DC
62
7
10
  0.17680000
20
 -0.05700000
30
  0.00000000
40
  0.00250000
41
  0.60000000
1
[TLOH]
50
  0.00000000
72
0
73
1
11
  0.17680000
21
 -0.05700000
31
  0.00000000
0
LINE
8
DC
6
CONTINUOUS
62
7
10
  0.16770000
20
 -0.05190000
30
  0.00000000
11
  0.17390000
21
 -0.05190000
31
  0.00000000
0
LINE
8
DC
6
CONTINUOUS
62
7
10
  0.17390000
20
 -0.05190000
30
  0.00000000
11
  0.17390000
21
 -0.05810000
31
  0.00000000
0
LINE
8
DC
6
CONTINUOUS
62
7
10
  0.17390000
20
 -0.05810000
30
  0.00000000
11
  0.16770000
21
 -0.05810000
31
  0.00000000
0
LINE
8
DC
6
CONTINUOUS
62
7
10
  0.16770000
20
 -0.05810000
30
  0.00000000
11
  0.16770000
21
 -0.05190000
31
  0.00000000
0
TEXT
8
DC
62
7
10
  0.17080000
20
 -0.05700000
30
  0.00000000
40
  0.00250000
41
  0.60000000
1
4
50
  0.00000000
72
1
73
1
11
  0.17080000
21
 -0.05700000
31
  0.00000000
0
LINE
8
DC
6
CONTINUOUS
62
7
10
  0.12850000
20
 -0.06500000
30
  0.00000000
11
  0.12850000
21
 -0.14500000
31
  0.00000000
0
SOLID
8
DC
62
253
10
  0.11690000
20
 -0.06500000
30
  0.00000000
11
  0.12200000
21
 -0.06500000
31
  0.00000000
12
  0.11690000
22
 -0.14510000
32
  0.00000000
13
  0.12200000
23
 -0.14510000
33
  0.00000000
0
LINE
8
DC
6
CONTINUOUS
62
7
10
  0.11690000
20
 -0.06500000
30
  0.00000000
11
  0.12200000
21
 -0.06500000
31
  0.00000000
0
LINE
8
DC
6
CONTINUOUS
62
7
10
  0.12200000
20
 -0.06500000
30
  0.00000000
11
  0.12200000
21
 -0.14510000
31
  0.00000000
0
LINE
8
DC
6
CONTINUOUS
62
7
10
  0.12200000
20
 -0.14510000
30
  0.00000000
11
  0.11690000
21
 -0.14510000
31
  0.00000000
0
LINE
8
DC
6
CONTINUOUS
62
7
10
  0.11690000
20
 -0.14510000
30
  0.00000000
11
  0.11690000
21
 -0.06500000
31
  0.00000000
0
SOLID
8
DC
62
200
10
  0.12200000
20
 -0.06500000
30
  0.00000000
11
  0.12700000
21
 -0.06500000
31
  0.00000000
12
  0.12200000
22
 -0.14510000
32
  0.00000000
13
  0.12700000
23
 -0.14510000
33
  0.00000000
0
LINE
8
DC
6
CONTINUOUS
62
7
10
  0.12200000
20
 -0.06500000
30
  0.00000000
11
  0.12700000
21
 -0.06500000
31
  0.00000000
0
LINE
8
DC
6
CONTINUOUS
62
7
10
  0.12700000
20
 -0.06500000
30
  0.00000000
11
  0.12700000
21
 -0.14510000
31
  0.00000000
0
LINE
8
DC
6
CONTINUOUS
62
7
10
  0.12700000
20
 -0.14510000
30
  0.00000000
11
  0.12200000
21
 -0.14510000
31
  0.00000000
0
LINE
8
DC
6
CONTINUOUS
62
7
10
  0.12200000
20
 -0.14510000
30
  0.00000000
11
  0.12200000
21
 -0.06500000
31
  0.00000000
0
LINE
8
DC
6
CONTINUOUS
62
7
10
  0.11690000
20
 -0.06750000
30
  0.00000000
11
  0.11940000
21
 -0.06500000
31
  0.00000000
0
LINE
8
DC
6
CONTINUOUS
62
7
10
  0.11940000
20
 -0.07000000
30
  0.00000000
11
  0.12190000
21
 -0.06750000
31
  0.00000000
0
LINE
8
DC
6
CONTINUOUS
62
7
10
  0.11690000
20
 -0.07000000
30
  0.00000000
11
  0.12190000
21
 -0.06500000
31
  0.00000000
0
LINE
8
DC
6
CONTINUOUS
62
7
10
  0.11740000
20
 -0.07080000
30
  0.00000000
11
  0.12040000
21
 -0.07080000
31
  0.00000000
0
LINE
8
DC
6
CONTINUOUS
62
7
10
  0.11840000
20
 -0.07240000
30
  0.00000000
11
  0.12140000
21
 -0.07240000
31
  0.00000000
0
LINE
8
DC
6
CONTINUOUS
62
7
10
  0.11690000
20
 -0.07580000
30
  0.00000000
11
  0.11940000
21
 -0.07330000
31
  0.00000000
0
LINE
8
DC
6
CONTINUOUS
62
7
10
  0.11940000
20
 -0.07830000
30
  0.00000000
11
  0.12190000
21
 -0.07580000
31
  0.00000000
0
LINE
8
DC
6
CONTINUOUS
62
7
10
  0.11690000
20
 -0.07830000
30
  0.00000000
11
  0.12190000
21
 -0.07330000
31
  0.00000000
0
LINE
8
DC
6
CONTINUOUS
62
7
10
  0.11740000
20
 -0.07910000
30
  0.00000000
11
  0.12040000
21
 -0.07910000
31
  0.00000000
0
LINE
8
DC
6
CONTINUOUS
62
7
10
  0.11840000
20
 -0.08070000
30
  0.00000000
11
  0.12140000
21
 -0.08070000
31
  0.00000000
0
LINE
8
DC
6
CONTINUOUS
62
7
10
  0.11690000
20
 -0.08410000
30
  0.00000000
11
  0.11940000
21
 -0.08160000
31
  0.00000000
0
LINE
8
DC
6
CONTINUOUS
62
7
10
  0.11940000
20
 -0.08660000
30
  0.00000000
11
  0.12190000
21
 -0.08410000
31
  0.00000000
0
LINE
8
DC
6
CONTINUOUS
62
7
10
  0.11690000
20
 -0.08660000
30
  0.00000000
11
  0.12190000
21
 -0.08160000
31
  0.00000000
0
LINE
8
DC
6
CONTINUOUS
62
7
10
  0.11740000
20
 -0.08740000
30
  0.00000000
11
  0.12040000
21
 -0.08740000
31
  0.00000000
0
LINE
8
DC
6
CONTINUOUS
62
7
10
  0.11840000
20
 -0.08900000
30
  0.00000000
11
  0.12140000
21
 -0.08900000
31
  0.00000000
0
LINE
8
DC
6
CONTINUOUS
62
7
10
  0.11690000
20
 -0.09240000
30
  0.00000000
11
  0.11940000
21
 -0.08990000
31
  0.00000000
0
LINE
8
DC
6
CONTINUOUS
62
7
10
  0.11940000
20
 -0.09490000
30
  0.00000000
11
  0.12190000
21
 -0.09240000
31
  0.00000000
0
LINE
8
DC
6
CONTINUOUS
62
7
10
  0.11690000
20
 -0.09490000
30
  0.00000000
11
  0.12190000
21
 -0.08990000
31
  0.00000000
0
LINE
8
DC
6
CONTINUOUS
62
7
10
  0.11740000
20
 -0.09570000
30
  0.00000000
11
  0.12040000
21
 -0.09570000
31
  0.00000000
0
LINE
8
DC
6
CONTINUOUS
62
7
10
  0.11840000
20
 -0.09730000
30
  0.00000000
11
  0.12140000
21
 -0.09730000
31
  0.00000000
0
LINE
8
DC
6
CONTINUOUS
62
7
10
  0.11690000
20
 -0.10070000
30
  0.00000000
11
  0.11940000
21
 -0.09820000
31
  0.00000000
0
LINE
8
DC
6
CONTINUOUS
62
7
10
  0.11940000
20
 -0.10320000
30
  0.00000000
11
  0.12190000
21
 -0.10070000
31
  0.00000000
0
LINE
8
DC
6
CONTINUOUS
62
7
10
  0.11690000
20
 -0.10320000
30
  0.00000000
11
  0.12190000
21
 -0.09820000
31
  0.00000000
0
LINE
8
DC
6
CONTINUOUS
62
7
10
  0.11740000
20
 -0.10400000
30
  0.00000000
11
  0.12040000
21
 -0.10400000
31
  0.00000000
0
LINE
8
DC
6
CONTINUOUS
62
7
10
  0.11840000
20
 -0.10560000
30
  0.00000000
11
  0.12140000
21
 -0.10560000
31
  0.00000000
0
LINE
8
DC
6
CONTINUOUS
62
7
10
  0.11690000
20
 -0.10900000
30
  0.00000000
11
  0.11940000
21
 -0.10650000
31
  0.00000000
0
LINE
8
DC
6
CONTINUOUS
62
7
10
  0.11940000
20
 -0.11150000
30
  0.00000000
11
  0.12190000
21
 -0.10900000
31
  0.00000000
0
LINE
8
DC
6
CONTINUOUS
62
7
10
  0.11690000
20
 -0.11150000
30
  0.00000000
11
  0.12190000
21
 -0.10650000
31
  0.00000000
0
LINE
8
DC
6
CONTINUOUS
62
7
10
  0.11740000
20
 -0.11230000
30
  0.00000000
11
  0.12040000
21
 -0.11230000
31
  0.00000000
0
LINE
8
DC
6
CONTINUOUS
62
7
10
  0.11840000
20
 -0.11390000
30
  0.00000000
11
  0.12140000
21
 -0.11390000
31
  0.00000000
0
LINE
8
DC
6
CONTINUOUS
62
7
10
  0.11690000
20
 -0.11730000
30
  0.00000000
11
  0.11940000
21
 -0.11480000
31
  0.00000000
0
LINE
8
DC
6
CONTINUOUS
62
7
10
  0.11940000
20
 -0.11980000
30
  0.00000000
11
  0.12190000
21
 -0.11730000
31
  0.00000000
0
LINE
8
DC
6
CONTINUOUS
62
7
10
  0.11690000
20
 -0.11980000
30
  0.00000000
11
  0.12190000
21
 -0.11480000
31
  0.00000000
0
LINE
8
DC
6
CONTINUOUS
62
7
10
  0.11740000
20
 -0.12060000
30
  0.00000000
11
  0.12040000
21
 -0.12060000
31
  0.00000000
0
LINE
8
DC
6
CONTINUOUS
62
7
10
  0.11840000
20
 -0.12220000
30
  0.00000000
11
  0.12140000
21
 -0.12220000
31
  0.00000000
0
LINE
8
DC
6
CONTINUOUS
62
7
10
  0.11690000
20
 -0.12560000
30
  0.00000000
11
  0.11940000
21
 -0.12310000
31
  0.00000000
0
LINE
8
DC
6
CONTINUOUS
62
7
10
  0.11940000
20
 -0.12810000
30
  0.00000000
11
  0.12190000
21
 -0.12560000
31
  0.00000000
0
LINE
8
DC
6
CONTINUOUS
62
7
10
  0.11690000
20
 -0.12810000
30
  0.00000000
11
  0.12190000
21
 -0.12310000
31
  0.00000000
0
LINE
8
DC
6
CONTINUOUS
62
7
10
  0.11740000
20
 -0.12890000
30
  0.00000000
11
  0.12040000
21
 -0.12890000
31
  0.00000000
0
LINE
8
DC
6
CONTINUOUS
62
7
10
  0.11840000
20
 -0.13050000
30
  0.00000000
11
  0.12140000
21
 -0.13050000
31
  0.00000000
0
LINE
8
DC
6
CONTINUOUS
62
7
10
  0.11690000
20
 -0.13390000
30
  0.00000000
11
  0.11940000
21
 -0.13140000
31
  0.00000000
0
LINE
8
DC
6
CONTINUOUS
62
7
10
  0.11940000
20
 -0.13640000
30
  0.00000000
11
  0.12190000
21
 -0.13390000
31
  0.00000000
0
LINE
8
DC
6
CONTINUOUS
62
7
10
  0.11690000
20
 -0.13640000
30
  0.00000000
11
  0.12190000
21
 -0.13140000
31
  0.00000000
0
LINE
8
DC
6
CONTINUOUS
62
7
10
  0.11740000
20
 -0.13720000
30
  0.00000000
11
  0.12040000
21
 -0.13720000
31
  0.00000000
0
LINE
8
DC
6
CONTINUOUS
62
7
10
  0.11840000
20
 -0.13880000
30
  0.00000000
11
  0.12140000
21
 -0.13880000
31
  0.00000000
0
LINE
8
DC
6
CONTINUOUS
62
7
10
  0.11690000
20
 -0.14220000
30
  0.00000000
11
  0.11940000
21
 -0.13970000
31
  0.00000000
0
LINE
8
DC
6
CONTINUOUS
62
7
10
  0.11940000
20
 -0.14470000
30
  0.00000000
11
  0.12190000
21
 -0.14220000
31
  0.00000000
0
LINE
8
DC
6
CONTINUOUS
62
7
10
  0.11690000
20
 -0.14470000
30
  0.00000000
11
  0.12190000
21
 -0.13970000
31
  0.00000000
0
LINE
8
DC
6
CONTINUOUS
62
7
10
  0.12350000
20
 -0.06710000
30
  0.00000000
11
  0.12350000
21
 -0.06710000
31
  0.00000000
0
LINE
8
DC
6
CONTINUOUS
62
7
10
  0.12328206
20
 -0.06705000
30
  0.00000000
11
  0.12371794
21
 -0.06705000
31
  0.00000000
0
LINE
8
DC
6
CONTINUOUS
62
7
10
  0.12320000
20
 -0.06700000
30
  0.00000000
11
  0.12380000
21
 -0.06700000
31
  0.00000000
0
LINE
8
DC
6
CONTINUOUS
62
7
10
  0.12314293
20
 -0.06695000
30
  0.00000000
11
  0.12385707
21
 -0.06695000
31
  0.00000000
0
LINE
8
DC
6
CONTINUOUS
62
7
10
  0.12310000
20
 -0.06690000
30
  0.00000000
11
  0.12390000
21
 -0.06690000
31
  0.00000000
0
LINE
8
DC
6
CONTINUOUS
62
7
10
  0.12306699
20
 -0.06685000
30
  0.00000000
11
  0.12393301
21
 -0.06685000
31
  0.00000000
0
LINE
8
DC
6
CONTINUOUS
62
7
10
  0.12304174
20
 -0.06680000
30
  0.00000000
11
  0.12395826
21
 -0.06680000
31
  0.00000000
0
LINE
8
DC
6
CONTINUOUS
62
7
10
  0.12302303
20
 -0.06675000
30
  0.00000000
11
  0.12397697
21
 -0.06675000
31
  0.00000000
0
LINE
8
DC
6
CONTINUOUS
62
7
10
  0.12301010
20
 -0.06670000
30
  0.00000000
11
  0.12398990
21
 -0.06670000
31
  0.00000000
0
LINE
8
DC
6
CONTINUOUS
62
7
10
  0.12300251
20
 -0.06665000
30
  0.00000000
11
  0.12399749
21
 -0.06665000
31
  0.00000000
0
LINE
8
DC
6
CONTINUOUS
62
7
10
  0.12300000
20
 -0.06660000
30
  0.00000000
11
  0.12400000
21
 -0.06660000
31
  0.00000000
0
LINE
8
DC
6
CONTINUOUS
62
7
10
  0.12300251
20
 -0.06655000
30
  0.00000000
11
  0.12399749
21
 -0.06655000
31
  0.00000000
0
LINE
8
DC
6
CONTINUOUS
62
7
10
  0.12301010
20
 -0.06650000
30
  0.00000000
11
  0.12398990
21
 -0.06650000
31
  0.00000000
0
LINE
8
DC
6
CONTINUOUS
62
7
10
  0.12302303
20
 -0.06645000
30
  0.00000000
11
  0.12397697
21
 -0.06645000
31
  0.00000000
0
LINE
8
DC
6
CONTINUOUS
62
7
10
  0.12304174
20
 -0.06640000
30
  0.00000000
11
  0.12395826
21
 -0.06640000
31
  0.00000000
0
LINE
8
DC
6
CONTINUOUS
62
7
10
  0.12306699
20
 -0.06635000
30
  0.00000000
11
  0.12393301
21
 -0.06635000
31
  0.00000000
0
LINE
8
DC
6
CONTINUOUS
62
7
10
  0.12310000
20
 -0.06630000
30
  0.00000000
11
  0.12390000
21
 -0.06630000
31
  0.00000000
0
LINE
8
DC
6
CONTINUOUS
62
7
10
  0.12314293
20
 -0.06625000
30
  0.00000000
11
  0.12385707
21
 -0.06625000
31
  0.00000000
0
LINE
8
DC
6
CONTINUOUS
62
7
10
  0.12320000
20
 -0.06620000
30
  0.00000000
11
  0.12380000
21
 -0.06620000
31
  0.00000000
0
LINE
8
DC
6
CONTINUOUS
62
7
10
  0.12328206
20
 -0.06615000
30
  0.00000000
11
  0.12371794
21
 -0.06615000
31
  0.00000000
0
CIRCLE
8
DC
6
CONTINUOUS
62
7
10
  0.12350000
20
 -0.06660000
30
  0.00000000
40
  0.00050000
0
LINE
8
DC
6
CONTINUOUS
62
7
10
  0.12510000
20
 -0.06710000
30
  0.00000000
11
  0.12510000
21
 -0.06710000
31
  0.00000000
0
LINE
8
DC
6
CONTINUOUS
62
7
10
  0.12488206
20
 -0.06705000
30
  0.00000000
11
  0.12531794
21
 -0.06705000
31
  0.00000000
0
LINE
8
DC
6
CONTINUOUS
62
7
10
  0.12480000
20
 -0.06700000
30
  0.00000000
11
  0.12540000
21
 -0.06700000
31
  0.00000000
0
LINE
8
DC
6
CONTINUOUS
62
7
10
  0.12474293
20
 -0.06695000
30
  0.00000000
11
  0.12545707
21
 -0.06695000
31
  0.00000000
0
LINE
8
DC
6
CONTINUOUS
62
7
10
  0.12470000
20
 -0.06690000
30
  0.00000000
11
  0.12550000
21
 -0.06690000
31
  0.00000000
0
LINE
8
DC
6
CONTINUOUS
62
7
10
  0.12466699
20
 -0.06685000
30
  0.00000000
11
  0.12553301
21
 -0.06685000
31
  0.00000000
0
LINE
8
DC
6
CONTINUOUS
62
7
10
  0.12464174
20
 -0.06680000
30
  0.00000000
11
  0.12555826
21
 -0.06680000
31
  0.00000000
0
LINE
8
DC
6
CONTINUOUS
62
7
10
  0.12462303
20
 -0.06675000
30
  0.00000000
11
  0.12557697
21
 -0.06675000
31
  0.00000000
0
LINE
8
DC
6
CONTINUOUS
62
7
10
  0.12461010
20
 -0.06670000
30
  0.00000000
11
  0.12558990
21
 -0.06670000
31
  0.00000000
0
LINE
8
DC
6
CONTINUOUS
62
7
10
  0.12460251
20
 -0.06665000
30
  0.00000000
11
  0.12559749
21
 -0.06665000
31
  0.00000000
0
LINE
8
DC
6
CONTINUOUS
62
7
10
  0.12460000
20
 -0.06660000
30
  0.00000000
11
  0.12560000
21
 -0.06660000
31
  0.00000000
0
LINE
8
DC
6
CONTINUOUS
62
7
10
  0.12460251
20
 -0.06655000
30
  0.00000000
11
  0.12559749
21
 -0.06655000
31
  0.00000000
0
LINE
8
DC
6
CONTINUOUS
62
7
10
  0.12461010
20
 -0.06650000
30
  0.00000000
11
  0.12558990
21
 -0.06650000
31
  0.00000000
0
LINE
8
DC
6
CONTINUOUS
62
7
10
  0.12462303
20
 -0.06645000
30
  0.00000000
11
  0.12557697
21
 -0.06645000
31
  0.00000000
0
LINE
8
DC
6
CONTINUOUS
62
7
10
  0.12464174
20
 -0.06640000
30
  0.00000000
11
  0.12555826
21
 -0.06640000
31
  0.00000000
0
LINE
8
DC
6
CONTINUOUS
62
7
10
  0.12466699
20
 -0.06635000
30
  0.00000000
11
  0.12553301
21
 -0.06635000
31
  0.00000000
0
LINE
8
DC
6
CONTINUOUS
62
7
10
  0.12470000
20
 -0.06630000
30
  0.00000000
11
  0.12550000
21
 -0.06630000
31
  0.00000000
0
LINE
8
DC
6
CONTINUOUS
62
7
10
  0.12474293
20
 -0.06625000
30
  0.00000000
11
  0.12545707
21
 -0.06625000
31
  0.00000000
0
LINE
8
DC
6
CONTINUOUS
62
7
10
  0.12480000
20
 -0.06620000
30
  0.00000000
11
  0.12540000
21
 -0.06620000
31
  0.00000000
0
LINE
8
DC
6
CONTINUOUS
62
7
10
  0.12488206
20
 -0.06615000
30
  0.00000000
11
  0.12531794
21
 -0.06615000
31
  0.00000000
0
CIRCLE
8
DC
6
CONTINUOUS
62
7
10
  0.12510000
20
 -0.06660000
30
  0.00000000
40
  0.00050000
0
LINE
8
DC
6
CONTINUOUS
62
7
10
  0.12290000
20
 -0.06710000
30
  0.00000000
11
  0.12590000
21
 -0.06710000
31
  0.00000000
0
LINE
8
DC
6
CONTINUOUS
62
7
10
  0.12190000
20
 -0.07080000
30
  0.00000000
11
  0.12440000
21
 -0.06830000
31
  0.00000000
0
LINE
8
DC
6
CONTINUOUS
62
7
10
  0.12440000
20
 -0.07330000
30
  0.00000000
11
  0.12690000
21
 -0.07080000
31
  0.00000000
0
LINE
8
DC
6
CONTINUOUS
62
7
10
  0.12190000
20
 -0.07330000
30
  0.00000000
11
  0.12690000
21
 -0.06830000
31
  0.00000000
0
LINE
8
DC
6
CONTINUOUS
62
7
10
  0.12240000
20
 -0.07410000
30
  0.00000000
11
  0.12540000
21
 -0.07410000
31
  0.00000000
0
LINE
8
DC
6
CONTINUOUS
62
7
10
  0.12340000
20
 -0.07570000
30
  0.00000000
11
  0.12640000
21
 -0.07570000
31
  0.00000000
0
LINE
8
DC
6
CONTINUOUS
62
7
10
  0.12350000
20
 -0.07870000
30
  0.00000000
11
  0.12350000
21
 -0.07870000
31
  0.00000000
0
LINE
8
DC
6
CONTINUOUS
62
7
10
  0.12328206
20
 -0.07865000
30
  0.00000000
11
  0.12371794
21
 -0.07865000
31
  0.00000000
0
LINE
8
DC
6
CONTINUOUS
62
7
10
  0.12320000
20
 -0.07860000
30
  0.00000000
11
  0.12380000
21
 -0.07860000
31
  0.00000000
0
LINE
8
DC
6
CONTINUOUS
62
7
10
  0.12314293
20
 -0.07855000
30
  0.00000000
11
  0.12385707
21
 -0.07855000
31
  0.00000000
0
LINE
8
DC
6
CONTINUOUS
62
7
10
  0.12310000
20
 -0.07850000
30
  0.00000000
11
  0.12390000
21
 -0.07850000
31
  0.00000000
0
LINE
8
DC
6
CONTINUOUS
62
7
10
  0.12306699
20
 -0.07845000
30
  0.00000000
11
  0.12393301
21
 -0.07845000
31
  0.00000000
0
LINE
8
DC
6
CONTINUOUS
62
7
10
  0.12304174
20
 -0.07840000
30
  0.00000000
11
  0.12395826
21
 -0.07840000
31
  0.00000000
0
LINE
8
DC
6
CONTINUOUS
62
7
10
  0.12302303
20
 -0.07835000
30
  0.00000000
11
  0.12397697
21
 -0.07835000
31
  0.00000000
0
LINE
8
DC
6
CONTINUOUS
62
7
10
  0.12301010
20
 -0.07830000
30
  0.00000000
11
  0.12398990
21
 -0.07830000
31
  0.00000000
0
LINE
8
DC
6
CONTINUOUS
62
7
10
  0.12300251
20
 -0.07825000
30
  0.00000000
11
  0.12399749
21
 -0.07825000
31
  0.00000000
0
LINE
8
DC
6
CONTINUOUS
62
7
10
  0.12300000
20
 -0.07820000
30
  0.00000000
11
  0.12400000
21
 -0.07820000
31
  0.00000000
0
LINE
8
DC
6
CONTINUOUS
62
7
10
  0.12300251
20
 -0.07815000
30
  0.00000000
11
  0.12399749
21
 -0.07815000
31
  0.00000000
0
LINE
8
DC
6
CONTINUOUS
62
7
10
  0.12301010
20
 -0.07810000
30
  0.00000000
11
  0.12398990
21
 -0.07810000
31
  0.00000000
0
LINE
8
DC
6
CONTINUOUS
62
7
10
  0.12302303
20
 -0.07805000
30
  0.00000000
11
  0.12397697
21
 -0.07805000
31
  0.00000000
0
LINE
8
DC
6
CONTINUOUS
62
7
10
  0.12304174
20
 -0.07800000
30
  0.00000000
11
  0.12395826
21
 -0.07800000
31
  0.00000000
0
LINE
8
DC
6
CONTINUOUS
62
7
10
  0.12306699
20
 -0.07795000
30
  0.00000000
11
  0.12393301
21
 -0.07795000
31
  0.00000000
0
LINE
8
DC
6
CONTINUOUS
62
7
10
  0.12310000
20
 -0.07790000
30
  0.00000000
11
  0.12390000
21
 -0.07790000
31
  0.00000000
0
LINE
8
DC
6
CONTINUOUS
62
7
10
  0.12314293
20
 -0.07785000
30
  0.00000000
11
  0.12385707
21
 -0.07785000
31
  0.00000000
0
LINE
8
DC
6
CONTINUOUS
62
7
10
  0.12320000
20
 -0.07780000
30
  0.00000000
11
  0.12380000
21
 -0.07780000
31
  0.00000000
0
LINE
8
DC
6
CONTINUOUS
62
7
10
  0.12328206
20
 -0.07775000
30
  0.00000000
11
  0.12371794
21
 -0.07775000
31
  0.00000000
0
CIRCLE
8
DC
6
CONTINUOUS
62
7
10
  0.12350000
20
 -0.07820000
30
  0.00000000
40
  0.00050000
0
LINE
8
DC
6
CONTINUOUS
62
7
10
  0.12510000
20
 -0.07870000
30
  0.00000000
11
  0.12510000
21
 -0.07870000
31
  0.00000000
0
LINE
8
DC
6
CONTINUOUS
62
7
10
  0.12488206
20
 -0.07865000
30
  0.00000000
11
  0.12531794
21
 -0.07865000
31
  0.00000000
0
LINE
8
DC
6
CONTINUOUS
62
7
10
  0.12480000
20
 -0.07860000
30
  0.00000000
11
  0.12540000
21
 -0.07860000
31
  0.00000000
0
LINE
8
DC
6
CONTINUOUS
62
7
10
  0.12474293
20
 -0.07855000
30
  0.00000000
11
  0.12545707
21
 -0.07855000
31
  0.00000000
0
LINE
8
DC
6
CONTINUOUS
62
7
10
  0.12470000
20
 -0.07850000
30
  0.00000000
11
  0.12550000
21
 -0.07850000
31
  0.00000000
0
LINE
8
DC
6
CONTINUOUS
62
7
10
  0.12466699
20
 -0.07845000
30
  0.00000000
11
  0.12553301
21
 -0.07845000
31
  0.00000000
0
LINE
8
DC
6
CONTINUOUS
62
7
10
  0.12464174
20
 -0.07840000
30
  0.00000000
11
  0.12555826
21
 -0.07840000
31
  0.00000000
0
LINE
8
DC
6
CONTINUOUS
62
7
10
  0.12462303
20
 -0.07835000
30
  0.00000000
11
  0.12557697
21
 -0.07835000
31
  0.00000000
0
LINE
8
DC
6
CONTINUOUS
62
7
10
  0.12461010
20
 -0.07830000
30
  0.00000000
11
  0.12558990
21
 -0.07830000
31
  0.00000000
0
LINE
8
DC
6
CONTINUOUS
62
7
10
  0.12460251
20
 -0.07825000
30
  0.00000000
11
  0.12559749
21
 -0.07825000
31
  0.00000000
0
LINE
8
DC
6
CONTINUOUS
62
7
10
  0.12460000
20
 -0.07820000
30
  0.00000000
11
  0.12560000
21
 -0.07820000
31
  0.00000000
0
LINE
8
DC
6
CONTINUOUS
62
7
10
  0.12460251
20
 -0.07815000
30
  0.00000000
11
  0.12559749
21
 -0.07815000
31
  0.00000000
0
LINE
8
DC
6
CONTINUOUS
62
7
10
  0.12461010
20
 -0.07810000
30
  0.00000000
11
  0.12558990
21
 -0.07810000
31
  0.00000000
0
LINE
8
DC
6
CONTINUOUS
62
7
10
  0.12462303
20
 -0.07805000
30
  0.00000000
11
  0.12557697
21
 -0.07805000
31
  0.00000000
0
LINE
8
DC
6
CONTINUOUS
62
7
10
  0.12464174
20
 -0.07800000
30
  0.00000000
11
  0.12555826
21
 -0.07800000
31
  0.00000000
0
LINE
8
DC
6
CONTINUOUS
62
7
10
  0.12466699
20
 -0.07795000
30
  0.00000000
11
  0.12553301
21
 -0.07795000
31
  0.00000000
0
LINE
8
DC
6
CONTINUOUS
62
7
10
  0.12470000
20
 -0.07790000
30
  0.00000000
11
  0.12550000
21
 -0.07790000
31
  0.00000000
0
LINE
8
DC
6
CONTINUOUS
62
7
10
  0.12474293
20
 -0.07785000
30
  0.00000000
11
  0.12545707
21
 -0.07785000
31
  0.00000000
0
LINE
8
DC
6
CONTINUOUS
62
7
10
  0.12480000
20
 -0.07780000
30
  0.00000000
11
  0.12540000
21
 -0.07780000
31
  0.00000000
0
LINE
8
DC
6
CONTINUOUS
62
7
10
  0.12488206
20
 -0.07775000
30
  0.00000000
11
  0.12531794
21
 -0.07775000
31
  0.00000000
0
CIRCLE
8
DC
6
CONTINUOUS
62
7
10
  0.12510000
20
 -0.07820000
30
  0.00000000
40
  0.00050000
0
LINE
8
DC
6
CONTINUOUS
62
7
10
  0.12290000
20
 -0.07870000
30
  0.00000000
11
  0.12590000
21
 -0.07870000
31
  0.00000000
0
LINE
8
DC
6
CONTINUOUS
62
7
10
  0.12190000
20
 -0.08240000
30
  0.00000000
11
  0.12440000
21
 -0.07990000
31
  0.00000000
0
LINE
8
DC
6
CONTINUOUS
62
7
10
  0.12440000
20
 -0.08490000
30
  0.00000000
11
  0.12690000
21
 -0.08240000
31
  0.00000000
0
LINE
8
DC
6
CONTINUOUS
62
7
10
  0.12190000
20
 -0.08490000
30
  0.00000000
11
  0.12690000
21
 -0.07990000
31
  0.00000000
0
LINE
8
DC
6
CONTINUOUS
62
7
10
  0.12240000
20
 -0.08570000
30
  0.00000000
11
  0.12540000
21
 -0.08570000
31
  0.00000000
0
LINE
8
DC
6
CONTINUOUS
62
7
10
  0.12340000
20
 -0.08730000
30
  0.00000000
11
  0.12640000
21
 -0.08730000
31
  0.00000000
0
LINE
8
DC
6
CONTINUOUS
62
7
10
  0.12350000
20
 -0.09030000
30
  0.00000000
11
  0.12350000
21
 -0.09030000
31
  0.00000000
0
LINE
8
DC
6
CONTINUOUS
62
7
10
  0.12328206
20
 -0.09025000
30
  0.00000000
11
  0.12371794
21
 -0.09025000
31
  0.00000000
0
LINE
8
DC
6
CONTINUOUS
62
7
10
  0.12320000
20
 -0.09020000
30
  0.00000000
11
  0.12380000
21
 -0.09020000
31
  0.00000000
0
LINE
8
DC
6
CONTINUOUS
62
7
10
  0.12314293
20
 -0.09015000
30
  0.00000000
11
  0.12385707
21
 -0.09015000
31
  0.00000000
0
LINE
8
DC
6
CONTINUOUS
62
7
10
  0.12310000
20
 -0.09010000
30
  0.00000000
11
  0.12390000
21
 -0.09010000
31
  0.00000000
0
LINE
8
DC
6
CONTINUOUS
62
7
10
  0.12306699
20
 -0.09005000
30
  0.00000000
11
  0.12393301
21
 -0.09005000
31
  0.00000000
0
LINE
8
DC
6
CONTINUOUS
62
7
10
  0.12304174
20
 -0.09000000
30
  0.00000000
11
  0.12395826
21
 -0.09000000
31
  0.00000000
0
LINE
8
DC
6
CONTINUOUS
62
7
10
  0.12302303
20
 -0.08995000
30
  0.00000000
11
  0.12397697
21
 -0.08995000
31
  0.00000000
0
LINE
8
DC
6
CONTINUOUS
62
7
10
  0.12301010
20
 -0.08990000
30
  0.00000000
11
  0.12398990
21
 -0.08990000
31
  0.00000000
0
LINE
8
DC
6
CONTINUOUS
62
7
10
  0.12300251
20
 -0.08985000
30
  0.00000000
11
  0.12399749
21
 -0.08985000
31
  0.00000000
0
LINE
8
DC
6
CONTINUOUS
62
7
10
  0.12300000
20
 -0.08980000
30
  0.00000000
11
  0.12400000
21
 -0.08980000
31
  0.00000000
0
LINE
8
DC
6
CONTINUOUS
62
7
10
  0.12300251
20
 -0.08975000
30
  0.00000000
11
  0.12399749
21
 -0.08975000
31
  0.00000000
0
LINE
8
DC
6
CONTINUOUS
62
7
10
  0.12301010
20
 -0.08970000
30
  0.00000000
11
  0.12398990
21
 -0.08970000
31
  0.00000000
0
LINE
8
DC
6
CONTINUOUS
62
7
10
  0.12302303
20
 -0.08965000
30
  0.00000000
11
  0.12397697
21
 -0.08965000
31
  0.00000000
0
LINE
8
DC
6
CONTINUOUS
62
7
10
  0.12304174
20
 -0.08960000
30
  0.00000000
11
  0.12395826
21
 -0.08960000
31
  0.00000000
0
LINE
8
DC
6
CONTINUOUS
62
7
10
  0.12306699
20
 -0.08955000
30
  0.00000000
11
  0.12393301
21
 -0.08955000
31
  0.00000000
0
LINE
8
DC
6
CONTINUOUS
62
7
10
  0.12310000
20
 -0.08950000
30
  0.00000000
11
  0.12390000
21
 -0.08950000
31
  0.00000000
0
LINE
8
DC
6
CONTINUOUS
62
7
10
  0.12314293
20
 -0.08945000
30
  0.00000000
11
  0.12385707
21
 -0.08945000
31
  0.00000000
0
LINE
8
DC
6
CONTINUOUS
62
7
10
  0.12320000
20
 -0.08940000
30
  0.00000000
11
  0.12380000
21
 -0.08940000
31
  0.00000000
0
LINE
8
DC
6
CONTINUOUS
62
7
10
  0.12328206
20
 -0.08935000
30
  0.00000000
11
  0.12371794
21
 -0.08935000
31
  0.00000000
0
CIRCLE
8
DC
6
CONTINUOUS
62
7
10
  0.12350000
20
 -0.08980000
30
  0.00000000
40
  0.00050000
0
LINE
8
DC
6
CONTINUOUS
62
7
10
  0.12510000
20
 -0.09030000
30
  0.00000000
11
  0.12510000
21
 -0.09030000
31
  0.00000000
0
LINE
8
DC
6
CONTINUOUS
62
7
10
  0.12488206
20
 -0.09025000
30
  0.00000000
11
  0.12531794
21
 -0.09025000
31
  0.00000000
0
LINE
8
DC
6
CONTINUOUS
62
7
10
  0.12480000
20
 -0.09020000
30
  0.00000000
11
  0.12540000
21
 -0.09020000
31
  0.00000000
0
LINE
8
DC
6
CONTINUOUS
62
7
10
  0.12474293
20
 -0.09015000
30
  0.00000000
11
  0.12545707
21
 -0.09015000
31
  0.00000000
0
LINE
8
DC
6
CONTINUOUS
62
7
10
  0.12470000
20
 -0.09010000
30
  0.00000000
11
  0.12550000
21
 -0.09010000
31
  0.00000000
0
LINE
8
DC
6
CONTINUOUS
62
7
10
  0.12466699
20
 -0.09005000
30
  0.00000000
11
  0.12553301
21
 -0.09005000
31
  0.00000000
0
LINE
8
DC
6
CONTINUOUS
62
7
10
  0.12464174
20
 -0.09000000
30
  0.00000000
11
  0.12555826
21
 -0.09000000
31
  0.00000000
0
LINE
8
DC
6
CONTINUOUS
62
7
10
  0.12462303
20
 -0.08995000
30
  0.00000000
11
  0.12557697
21
 -0.08995000
31
  0.00000000
0
LINE
8
DC
6
CONTINUOUS
62
7
10
  0.12461010
20
 -0.08990000
30
  0.00000000
11
  0.12558990
21
 -0.08990000
31
  0.00000000
0
LINE
8
DC
6
CONTINUOUS
62
7
10
  0.12460251
20
 -0.08985000
30
  0.00000000
11
  0.12559749
21
 -0.08985000
31
  0.00000000
0
LINE
8
DC
6
CONTINUOUS
62
7
10
  0.12460000
20
 -0.08980000
30
  0.00000000
11
  0.12560000
21
 -0.08980000
31
  0.00000000
0
LINE
8
DC
6
CONTINUOUS
62
7
10
  0.12460251
20
 -0.08975000
30
  0.00000000
11
  0.12559749
21
 -0.08975000
31
  0.00000000
0
LINE
8
DC
6
CONTINUOUS
62
7
10
  0.12461010
20
 -0.08970000
30
  0.00000000
11
  0.12558990
21
 -0.08970000
31
  0.00000000
0
LINE
8
DC
6
CONTINUOUS
62
7
10
  0.12462303
20
 -0.08965000
30
  0.00000000
11
  0.12557697
21
 -0.08965000
31
  0.00000000
0
LINE
8
DC
6
CONTINUOUS
62
7
10
  0.12464174
20
 -0.08960000
30
  0.00000000
11
  0.12555826
21
 -0.08960000
31
  0.00000000
0
LINE
8
DC
6
CONTINUOUS
62
7
10
  0.12466699
20
 -0.08955000
30
  0.00000000
11
  0.12553301
21
 -0.08955000
31
  0.00000000
0
LINE
8
DC
6
CONTINUOUS
62
7
10
  0.12470000
20
 -0.08950000
30
  0.00000000
11
  0.12550000
21
 -0.08950000
31
  0.00000000
0
LINE
8
DC
6
CONTINUOUS
62
7
10
  0.12474293
20
 -0.08945000
30
  0.00000000
11
  0.12545707
21
 -0.08945000
31
  0.00000000
0
LINE
8
DC
6
CONTINUOUS
62
7
10
  0.12480000
20
 -0.08940000
30
  0.00000000
11
  0.12540000
21
 -0.08940000
31
  0.00000000
0
LINE
8
DC
6
CONTINUOUS
62
7
10
  0.12488206
20
 -0.08935000
30
  0.00000000
11
  0.12531794
21
 -0.08935000
31
  0.00000000
0
CIRCLE
8
DC
6
CONTINUOUS
62
7
10
  0.12510000
20
 -0.08980000
30
  0.00000000
40
  0.00050000
0
LINE
8
DC
6
CONTINUOUS
62
7
10
  0.12290000
20
 -0.09030000
30
  0.00000000
11
  0.12590000
21
 -0.09030000
31
  0.00000000
0
LINE
8
DC
6
CONTINUOUS
62
7
10
  0.12190000
20
 -0.09400000
30
  0.00000000
11
  0.12440000
21
 -0.09150000
31
  0.00000000
0
LINE
8
DC
6
CONTINUOUS
62
7
10
  0.12440000
20
 -0.09650000
30
  0.00000000
11
  0.12690000
21
 -0.09400000
31
  0.00000000
0
LINE
8
DC
6
CONTINUOUS
62
7
10
  0.12190000
20
 -0.09650000
30
  0.00000000
11
  0.12690000
21
 -0.09150000
31
  0.00000000
0
LINE
8
DC
6
CONTINUOUS
62
7
10
  0.12240000
20
 -0.09730000
30
  0.00000000
11
  0.12540000
21
 -0.09730000
31
  0.00000000
0
LINE
8
DC
6
CONTINUOUS
62
7
10
  0.12340000
20
 -0.09890000
30
  0.00000000
11
  0.12640000
21
 -0.09890000
31
  0.00000000
0
LINE
8
DC
6
CONTINUOUS
62
7
10
  0.12350000
20
 -0.10190000
30
  0.00000000
11
  0.12350000
21
 -0.10190000
31
  0.00000000
0
LINE
8
DC
6
CONTINUOUS
62
7
10
  0.12328206
20
 -0.10185000
30
  0.00000000
11
  0.12371794
21
 -0.10185000
31
  0.00000000
0
LINE
8
DC
6
CONTINUOUS
62
7
10
  0.12320000
20
 -0.10180000
30
  0.00000000
11
  0.12380000
21
 -0.10180000
31
  0.00000000
0
LINE
8
DC
6
CONTINUOUS
62
7
10
  0.12314293
20
 -0.10175000
30
  0.00000000
11
  0.12385707
21
 -0.10175000
31
  0.00000000
0
LINE
8
DC
6
CONTINUOUS
62
7
10
  0.12310000
20
 -0.10170000
30
  0.00000000
11
  0.12390000
21
 -0.10170000
31
  0.00000000
0
LINE
8
DC
6
CONTINUOUS
62
7
10
  0.12306699
20
 -0.10165000
30
  0.00000000
11
  0.12393301
21
 -0.10165000
31
  0.00000000
0
LINE
8
DC
6
CONTINUOUS
62
7
10
  0.12304174
20
 -0.10160000
30
  0.00000000
11
  0.12395826
21
 -0.10160000
31
  0.00000000
0
LINE
8
DC
6
CONTINUOUS
62
7
10
  0.12302303
20
 -0.10155000
30
  0.00000000
11
  0.12397697
21
 -0.10155000
31
  0.00000000
0
LINE
8
DC
6
CONTINUOUS
62
7
10
  0.12301010
20
 -0.10150000
30
  0.00000000
11
  0.12398990
21
 -0.10150000
31
  0.00000000
0
LINE
8
DC
6
CONTINUOUS
62
7
10
  0.12300251
20
 -0.10145000
30
  0.00000000
11
  0.12399749
21
 -0.10145000
31
  0.00000000
0
LINE
8
DC
6
CONTINUOUS
62
7
10
  0.12300000
20
 -0.10140000
30
  0.00000000
11
  0.12400000
21
 -0.10140000
31
  0.00000000
0
LINE
8
DC
6
CONTINUOUS
62
7
10
  0.12300251
20
 -0.10135000
30
  0.00000000
11
  0.12399749
21
 -0.10135000
31
  0.00000000
0
LINE
8
DC
6
CONTINUOUS
62
7
10
  0.12301010
20
 -0.10130000
30
  0.00000000
11
  0.12398990
21
 -0.10130000
31
  0.00000000
0
LINE
8
DC
6
CONTINUOUS
62
7
10
  0.12302303
20
 -0.10125000
30
  0.00000000
11
  0.12397697
21
 -0.10125000
31
  0.00000000
0
LINE
8
DC
6
CONTINUOUS
62
7
10
  0.12304174
20
 -0.10120000
30
  0.00000000
11
  0.12395826
21
 -0.10120000
31
  0.00000000
0
LINE
8
DC
6
CONTINUOUS
62
7
10
  0.12306699
20
 -0.10115000
30
  0.00000000
11
  0.12393301
21
 -0.10115000
31
  0.00000000
0
LINE
8
DC
6
CONTINUOUS
62
7
10
  0.12310000
20
 -0.10110000
30
  0.00000000
11
  0.12390000
21
 -0.10110000
31
  0.00000000
0
LINE
8
DC
6
CONTINUOUS
62
7
10
  0.12314293
20
 -0.10105000
30
  0.00000000
11
  0.12385707
21
 -0.10105000
31
  0.00000000
0
LINE
8
DC
6
CONTINUOUS
62
7
10
  0.12320000
20
 -0.10100000
30
  0.00000000
11
  0.12380000
21
 -0.10100000
31
  0.00000000
0
LINE
8
DC
6
CONTINUOUS
62
7
10
  0.12328206
20
 -0.10095000
30
  0.00000000
11
  0.12371794
21
 -0.10095000
31
  0.00000000
0
CIRCLE
8
DC
6
CONTINUOUS
62
7
10
  0.12350000
20
 -0.10140000
30
  0.00000000
40
  0.00050000
0
LINE
8
DC
6
CONTINUOUS
62
7
10
  0.12510000
20
 -0.10190000
30
  0.00000000
11
  0.12510000
21
 -0.10190000
31
  0.00000000
0
LINE
8
DC
6
CONTINUOUS
62
7
10
  0.12488206
20
 -0.10185000
30
  0.00000000
11
  0.12531794
21
 -0.10185000
31
  0.00000000
0
LINE
8
DC
6
CONTINUOUS
62
7
10
  0.12480000
20
 -0.10180000
30
  0.00000000
11
  0.12540000
21
 -0.10180000
31
  0.00000000
0
LINE
8
DC
6
CONTINUOUS
62
7
10
  0.12474293
20
 -0.10175000
30
  0.00000000
11
  0.12545707
21
 -0.10175000
31
  0.00000000
0
LINE
8
DC
6
CONTINUOUS
62
7
10
  0.12470000
20
 -0.10170000
30
  0.00000000
11
  0.12550000
21
 -0.10170000
31
  0.00000000
0
LINE
8
DC
6
CONTINUOUS
62
7
10
  0.12466699
20
 -0.10165000
30
  0.00000000
11
  0.12553301
21
 -0.10165000
31
  0.00000000
0
LINE
8
DC
6
CONTINUOUS
62
7
10
  0.12464174
20
 -0.10160000
30
  0.00000000
11
  0.12555826
21
 -0.10160000
31
  0.00000000
0
LINE
8
DC
6
CONTINUOUS
62
7
10
  0.12462303
20
 -0.10155000
30
  0.00000000
11
  0.12557697
21
 -0.10155000
31
  0.00000000
0
LINE
8
DC
6
CONTINUOUS
62
7
10
  0.12461010
20
 -0.10150000
30
  0.00000000
11
  0.12558990
21
 -0.10150000
31
  0.00000000
0
LINE
8
DC
6
CONTINUOUS
62
7
10
  0.12460251
20
 -0.10145000
30
  0.00000000
11
  0.12559749
21
 -0.10145000
31
  0.00000000
0
LINE
8
DC
6
CONTINUOUS
62
7
10
  0.12460000
20
 -0.10140000
30
  0.00000000
11
  0.12560000
21
 -0.10140000
31
  0.00000000
0
LINE
8
DC
6
CONTINUOUS
62
7
10
  0.12460251
20
 -0.10135000
30
  0.00000000
11
  0.12559749
21
 -0.10135000
31
  0.00000000
0
LINE
8
DC
6
CONTINUOUS
62
7
10
  0.12461010
20
 -0.10130000
30
  0.00000000
11
  0.12558990
21
 -0.10130000
31
  0.00000000
0
LINE
8
DC
6
CONTINUOUS
62
7
10
  0.12462303
20
 -0.10125000
30
  0.00000000
11
  0.12557697
21
 -0.10125000
31
  0.00000000
0
LINE
8
DC
6
CONTINUOUS
62
7
10
  0.12464174
20
 -0.10120000
30
  0.00000000
11
  0.12555826
21
 -0.10120000
31
  0.00000000
0
LINE
8
DC
6
CONTINUOUS
62
7
10
  0.12466699
20
 -0.10115000
30
  0.00000000
11
  0.12553301
21
 -0.10115000
31
  0.00000000
0
LINE
8
DC
6
CONTINUOUS
62
7
10
  0.12470000
20
 -0.10110000
30
  0.00000000
11
  0.12550000
21
 -0.10110000
31
  0.00000000
0
LINE
8
DC
6
CONTINUOUS
62
7
10
  0.12474293
20
 -0.10105000
30
  0.00000000
11
  0.12545707
21
 -0.10105000
31
  0.00000000
0
LINE
8
DC
6
CONTINUOUS
62
7
10
  0.12480000
20
 -0.10100000
30
  0.00000000
11
  0.12540000
21
 -0.10100000
31
  0.00000000
0
LINE
8
DC
6
CONTINUOUS
62
7
10
  0.12488206
20
 -0.10095000
30
  0.00000000
11
  0.12531794
21
 -0.10095000
31
  0.00000000
0
CIRCLE
8
DC
6
CONTINUOUS
62
7
10
  0.12510000
20
 -0.10140000
30
  0.00000000
40
  0.00050000
0
LINE
8
DC
6
CONTINUOUS
62
7
10
  0.12290000
20
 -0.10190000
30
  0.00000000
11
  0.12590000
21
 -0.10190000
31
  0.00000000
0
LINE
8
DC
6
CONTINUOUS
62
7
10
  0.12190000
20
 -0.10560000
30
  0.00000000
11
  0.12440000
21
 -0.10310000
31
  0.00000000
0
LINE
8
DC
6
CONTINUOUS
62
7
10
  0.12440000
20
 -0.10810000
30
  0.00000000
11
  0.12690000
21
 -0.10560000
31
  0.00000000
0
LINE
8
DC
6
CONTINUOUS
62
7
10
  0.12190000
20
 -0.10810000
30
  0.00000000
11
  0.12690000
21
 -0.10310000
31
  0.00000000
0
LINE
8
DC
6
CONTINUOUS
62
7
10
  0.12240000
20
 -0.10890000
30
  0.00000000
11
  0.12540000
21
 -0.10890000
31
  0.00000000
0
LINE
8
DC
6
CONTINUOUS
62
7
10
  0.12340000
20
 -0.11050000
30
  0.00000000
11
  0.12640000
21
 -0.11050000
31
  0.00000000
0
LINE
8
DC
6
CONTINUOUS
62
7
10
  0.12350000
20
 -0.11350000
30
  0.00000000
11
  0.12350000
21
 -0.11350000
31
  0.00000000
0
LINE
8
DC
6
CONTINUOUS
62
7
10
  0.12328206
20
 -0.11345000
30
  0.00000000
11
  0.12371794
21
 -0.11345000
31
  0.00000000
0
LINE
8
DC
6
CONTINUOUS
62
7
10
  0.12320000
20
 -0.11340000
30
  0.00000000
11
  0.12380000
21
 -0.11340000
31
  0.00000000
0
LINE
8
DC
6
CONTINUOUS
62
7
10
  0.12314293
20
 -0.11335000
30
  0.00000000
11
  0.12385707
21
 -0.11335000
31
  0.00000000
0
LINE
8
DC
6
CONTINUOUS
62
7
10
  0.12310000
20
 -0.11330000
30
  0.00000000
11
  0.12390000
21
 -0.11330000
31
  0.00000000
0
LINE
8
DC
6
CONTINUOUS
62
7
10
  0.12306699
20
 -0.11325000
30
  0.00000000
11
  0.12393301
21
 -0.11325000
31
  0.00000000
0
LINE
8
DC
6
CONTINUOUS
62
7
10
  0.12304174
20
 -0.11320000
30
  0.00000000
11
  0.12395826
21
 -0.11320000
31
  0.00000000
0
LINE
8
DC
6
CONTINUOUS
62
7
10
  0.12302303
20
 -0.11315000
30
  0.00000000
11
  0.12397697
21
 -0.11315000
31
  0.00000000
0
LINE
8
DC
6
CONTINUOUS
62
7
10
  0.12301010
20
 -0.11310000
30
  0.00000000
11
  0.12398990
21
 -0.11310000
31
  0.00000000
0
LINE
8
DC
6
CONTINUOUS
62
7
10
  0.12300251
20
 -0.11305000
30
  0.00000000
11
  0.12399749
21
 -0.11305000
31
  0.00000000
0
LINE
8
DC
6
CONTINUOUS
62
7
10
  0.12300000
20
 -0.11300000
30
  0.00000000
11
  0.12400000
21
 -0.11300000
31
  0.00000000
0
LINE
8
DC
6
CONTINUOUS
62
7
10
  0.12300251
20
 -0.11295000
30
  0.00000000
11
  0.12399749
21
 -0.11295000
31
  0.00000000
0
LINE
8
DC
6
CONTINUOUS
62
7
10
  0.12301010
20
 -0.11290000
30
  0.00000000
11
  0.12398990
21
 -0.11290000
31
  0.00000000
0
LINE
8
DC
6
CONTINUOUS
62
7
10
  0.12302303
20
 -0.11285000
30
  0.00000000
11
  0.12397697
21
 -0.11285000
31
  0.00000000
0
LINE
8
DC
6
CONTINUOUS
62
7
10
  0.12304174
20
 -0.11280000
30
  0.00000000
11
  0.12395826
21
 -0.11280000
31
  0.00000000
0
LINE
8
DC
6
CONTINUOUS
62
7
10
  0.12306699
20
 -0.11275000
30
  0.00000000
11
  0.12393301
21
 -0.11275000
31
  0.00000000
0
LINE
8
DC
6
CONTINUOUS
62
7
10
  0.12310000
20
 -0.11270000
30
  0.00000000
11
  0.12390000
21
 -0.11270000
31
  0.00000000
0
LINE
8
DC
6
CONTINUOUS
62
7
10
  0.12314293
20
 -0.11265000
30
  0.00000000
11
  0.12385707
21
 -0.11265000
31
  0.00000000
0
LINE
8
DC
6
CONTINUOUS
62
7
10
  0.12320000
20
 -0.11260000
30
  0.00000000
11
  0.12380000
21
 -0.11260000
31
  0.00000000
0
LINE
8
DC
6
CONTINUOUS
62
7
10
  0.12328206
20
 -0.11255000
30
  0.00000000
11
  0.12371794
21
 -0.11255000
31
  0.00000000
0
CIRCLE
8
DC
6
CONTINUOUS
62
7
10
  0.12350000
20
 -0.11300000
30
  0.00000000
40
  0.00050000
0
LINE
8
DC
6
CONTINUOUS
62
7
10
  0.12510000
20
 -0.11350000
30
  0.00000000
11
  0.12510000
21
 -0.11350000
31
  0.00000000
0
LINE
8
DC
6
CONTINUOUS
62
7
10
  0.12488206
20
 -0.11345000
30
  0.00000000
11
  0.12531794
21
 -0.11345000
31
  0.00000000
0
LINE
8
DC
6
CONTINUOUS
62
7
10
  0.12480000
20
 -0.11340000
30
  0.00000000
11
  0.12540000
21
 -0.11340000
31
  0.00000000
0
LINE
8
DC
6
CONTINUOUS
62
7
10
  0.12474293
20
 -0.11335000
30
  0.00000000
11
  0.12545707
21
 -0.11335000
31
  0.00000000
0
LINE
8
DC
6
CONTINUOUS
62
7
10
  0.12470000
20
 -0.11330000
30
  0.00000000
11
  0.12550000
21
 -0.11330000
31
  0.00000000
0
LINE
8
DC
6
CONTINUOUS
62
7
10
  0.12466699
20
 -0.11325000
30
  0.00000000
11
  0.12553301
21
 -0.11325000
31
  0.00000000
0
LINE
8
DC
6
CONTINUOUS
62
7
10
  0.12464174
20
 -0.11320000
30
  0.00000000
11
  0.12555826
21
 -0.11320000
31
  0.00000000
0
LINE
8
DC
6
CONTINUOUS
62
7
10
  0.12462303
20
 -0.11315000
30
  0.00000000
11
  0.12557697
21
 -0.11315000
31
  0.00000000
0
LINE
8
DC
6
CONTINUOUS
62
7
10
  0.12461010
20
 -0.11310000
30
  0.00000000
11
  0.12558990
21
 -0.11310000
31
  0.00000000
0
LINE
8
DC
6
CONTINUOUS
62
7
10
  0.12460251
20
 -0.11305000
30
  0.00000000
11
  0.12559749
21
 -0.11305000
31
  0.00000000
0
LINE
8
DC
6
CONTINUOUS
62
7
10
  0.12460000
20
 -0.11300000
30
  0.00000000
11
  0.12560000
21
 -0.11300000
31
  0.00000000
0
LINE
8
DC
6
CONTINUOUS
62
7
10
  0.12460251
20
 -0.11295000
30
  0.00000000
11
  0.12559749
21
 -0.11295000
31
  0.00000000
0
LINE
8
DC
6
CONTINUOUS
62
7
10
  0.12461010
20
 -0.11290000
30
  0.00000000
11
  0.12558990
21
 -0.11290000
31
  0.00000000
0
LINE
8
DC
6
CONTINUOUS
62
7
10
  0.12462303
20
 -0.11285000
30
  0.00000000
11
  0.12557697
21
 -0.11285000
31
  0.00000000
0
LINE
8
DC
6
CONTINUOUS
62
7
10
  0.12464174
20
 -0.11280000
30
  0.00000000
11
  0.12555826
21
 -0.11280000
31
  0.00000000
0
LINE
8
DC
6
CONTINUOUS
62
7
10
  0.12466699
20
 -0.11275000
30
  0.00000000
11
  0.12553301
21
 -0.11275000
31
  0.00000000
0
LINE
8
DC
6
CONTINUOUS
62
7
10
  0.12470000
20
 -0.11270000
30
  0.00000000
11
  0.12550000
21
 -0.11270000
31
  0.00000000
0
LINE
8
DC
6
CONTINUOUS
62
7
10
  0.12474293
20
 -0.11265000
30
  0.00000000
11
  0.12545707
21
 -0.11265000
31
  0.00000000
0
LINE
8
DC
6
CONTINUOUS
62
7
10
  0.12480000
20
 -0.11260000
30
  0.00000000
11
  0.12540000
21
 -0.11260000
31
  0.00000000
0
LINE
8
DC
6
CONTINUOUS
62
7
10
  0.12488206
20
 -0.11255000
30
  0.00000000
11
  0.12531794
21
 -0.11255000
31
  0.00000000
0
CIRCLE
8
DC
6
CONTINUOUS
62
7
10
  0.12510000
20
 -0.11300000
30
  0.00000000
40
  0.00050000
0
LINE
8
DC
6
CONTINUOUS
62
7
10
  0.12290000
20
 -0.11350000
30
  0.00000000
11
  0.12590000
21
 -0.11350000
31
  0.00000000
0
LINE
8
DC
6
CONTINUOUS
62
7
10
  0.12190000
20
 -0.11720000
30
  0.00000000
11
  0.12440000
21
 -0.11470000
31
  0.00000000
0
LINE
8
DC
6
CONTINUOUS
62
7
10
  0.12440000
20
 -0.11970000
30
  0.00000000
11
  0.12690000
21
 -0.11720000
31
  0.00000000
0
LINE
8
DC
6
CONTINUOUS
62
7
10
  0.12190000
20
 -0.11970000
30
  0.00000000
11
  0.12690000
21
 -0.11470000
31
  0.00000000
0
LINE
8
DC
6
CONTINUOUS
62
7
10
  0.12240000
20
 -0.12050000
30
  0.00000000
11
  0.12540000
21
 -0.12050000
31
  0.00000000
0
LINE
8
DC
6
CONTINUOUS
62
7
10
  0.12340000
20
 -0.12210000
30
  0.00000000
11
  0.12640000
21
 -0.12210000
31
  0.00000000
0
LINE
8
DC
6
CONTINUOUS
62
7
10
  0.12350000
20
 -0.12510000
30
  0.00000000
11
  0.12350000
21
 -0.12510000
31
  0.00000000
0
LINE
8
DC
6
CONTINUOUS
62
7
10
  0.12328206
20
 -0.12505000
30
  0.00000000
11
  0.12371794
21
 -0.12505000
31
  0.00000000
0
LINE
8
DC
6
CONTINUOUS
62
7
10
  0.12320000
20
 -0.12500000
30
  0.00000000
11
  0.12380000
21
 -0.12500000
31
  0.00000000
0
LINE
8
DC
6
CONTINUOUS
62
7
10
  0.12314293
20
 -0.12495000
30
  0.00000000
11
  0.12385707
21
 -0.12495000
31
  0.00000000
0
LINE
8
DC
6
CONTINUOUS
62
7
10
  0.12310000
20
 -0.12490000
30
  0.00000000
11
  0.12390000
21
 -0.12490000
31
  0.00000000
0
LINE
8
DC
6
CONTINUOUS
62
7
10
  0.12306699
20
 -0.12485000
30
  0.00000000
11
  0.12393301
21
 -0.12485000
31
  0.00000000
0
LINE
8
DC
6
CONTINUOUS
62
7
10
  0.12304174
20
 -0.12480000
30
  0.00000000
11
  0.12395826
21
 -0.12480000
31
  0.00000000
0
LINE
8
DC
6
CONTINUOUS
62
7
10
  0.12302303
20
 -0.12475000
30
  0.00000000
11
  0.12397697
21
 -0.12475000
31
  0.00000000
0
LINE
8
DC
6
CONTINUOUS
62
7
10
  0.12301010
20
 -0.12470000
30
  0.00000000
11
  0.12398990
21
 -0.12470000
31
  0.00000000
0
LINE
8
DC
6
CONTINUOUS
62
7
10
  0.12300251
20
 -0.12465000
30
  0.00000000
11
  0.12399749
21
 -0.12465000
31
  0.00000000
0
LINE
8
DC
6
CONTINUOUS
62
7
10
  0.12300000
20
 -0.12460000
30
  0.00000000
11
  0.12400000
21
 -0.12460000
31
  0.00000000
0
LINE
8
DC
6
CONTINUOUS
62
7
10
  0.12300251
20
 -0.12455000
30
  0.00000000
11
  0.12399749
21
 -0.12455000
31
  0.00000000
0
LINE
8
DC
6
CONTINUOUS
62
7
10
  0.12301010
20
 -0.12450000
30
  0.00000000
11
  0.12398990
21
 -0.12450000
31
  0.00000000
0
LINE
8
DC
6
CONTINUOUS
62
7
10
  0.12302303
20
 -0.12445000
30
  0.00000000
11
  0.12397697
21
 -0.12445000
31
  0.00000000
0
LINE
8
DC
6
CONTINUOUS
62
7
10
  0.12304174
20
 -0.12440000
30
  0.00000000
11
  0.12395826
21
 -0.12440000
31
  0.00000000
0
LINE
8
DC
6
CONTINUOUS
62
7
10
  0.12306699
20
 -0.12435000
30
  0.00000000
11
  0.12393301
21
 -0.12435000
31
  0.00000000
0
LINE
8
DC
6
CONTINUOUS
62
7
10
  0.12310000
20
 -0.12430000
30
  0.00000000
11
  0.12390000
21
 -0.12430000
31
  0.00000000
0
LINE
8
DC
6
CONTINUOUS
62
7
10
  0.12314293
20
 -0.12425000
30
  0.00000000
11
  0.12385707
21
 -0.12425000
31
  0.00000000
0
LINE
8
DC
6
CONTINUOUS
62
7
10
  0.12320000
20
 -0.12420000
30
  0.00000000
11
  0.12380000
21
 -0.12420000
31
  0.00000000
0
LINE
8
DC
6
CONTINUOUS
62
7
10
  0.12328206
20
 -0.12415000
30
  0.00000000
11
  0.12371794
21
 -0.12415000
31
  0.00000000
0
CIRCLE
8
DC
6
CONTINUOUS
62
7
10
  0.12350000
20
 -0.12460000
30
  0.00000000
40
  0.00050000
0
LINE
8
DC
6
CONTINUOUS
62
7
10
  0.12510000
20
 -0.12510000
30
  0.00000000
11
  0.12510000
21
 -0.12510000
31
  0.00000000
0
LINE
8
DC
6
CONTINUOUS
62
7
10
  0.12488206
20
 -0.12505000
30
  0.00000000
11
  0.12531794
21
 -0.12505000
31
  0.00000000
0
LINE
8
DC
6
CONTINUOUS
62
7
10
  0.12480000
20
 -0.12500000
30
  0.00000000
11
  0.12540000
21
 -0.12500000
31
  0.00000000
0
LINE
8
DC
6
CONTINUOUS
62
7
10
  0.12474293
20
 -0.12495000
30
  0.00000000
11
  0.12545707
21
 -0.12495000
31
  0.00000000
0
LINE
8
DC
6
CONTINUOUS
62
7
10
  0.12470000
20
 -0.12490000
30
  0.00000000
11
  0.12550000
21
 -0.12490000
31
  0.00000000
0
LINE
8
DC
6
CONTINUOUS
62
7
10
  0.12466699
20
 -0.12485000
30
  0.00000000
11
  0.12553301
21
 -0.12485000
31
  0.00000000
0
LINE
8
DC
6
CONTINUOUS
62
7
10
  0.12464174
20
 -0.12480000
30
  0.00000000
11
  0.12555826
21
 -0.12480000
31
  0.00000000
0
LINE
8
DC
6
CONTINUOUS
62
7
10
  0.12462303
20
 -0.12475000
30
  0.00000000
11
  0.12557697
21
 -0.12475000
31
  0.00000000
0
LINE
8
DC
6
CONTINUOUS
62
7
10
  0.12461010
20
 -0.12470000
30
  0.00000000
11
  0.12558990
21
 -0.12470000
31
  0.00000000
0
LINE
8
DC
6
CONTINUOUS
62
7
10
  0.12460251
20
 -0.12465000
30
  0.00000000
11
  0.12559749
21
 -0.12465000
31
  0.00000000
0
LINE
8
DC
6
CONTINUOUS
62
7
10
  0.12460000
20
 -0.12460000
30
  0.00000000
11
  0.12560000
21
 -0.12460000
31
  0.00000000
0
LINE
8
DC
6
CONTINUOUS
62
7
10
  0.12460251
20
 -0.12455000
30
  0.00000000
11
  0.12559749
21
 -0.12455000
31
  0.00000000
0
LINE
8
DC
6
CONTINUOUS
62
7
10
  0.12461010
20
 -0.12450000
30
  0.00000000
11
  0.12558990
21
 -0.12450000
31
  0.00000000
0
LINE
8
DC
6
CONTINUOUS
62
7
10
  0.12462303
20
 -0.12445000
30
  0.00000000
11
  0.12557697
21
 -0.12445000
31
  0.00000000
0
LINE
8
DC
6
CONTINUOUS
62
7
10
  0.12464174
20
 -0.12440000
30
  0.00000000
11
  0.12555826
21
 -0.12440000
31
  0.00000000
0
LINE
8
DC
6
CONTINUOUS
62
7
10
  0.12466699
20
 -0.12435000
30
  0.00000000
11
  0.12553301
21
 -0.12435000
31
  0.00000000
0
LINE
8
DC
6
CONTINUOUS
62
7
10
  0.12470000
20
 -0.12430000
30
  0.00000000
11
  0.12550000
21
 -0.12430000
31
  0.00000000
0
LINE
8
DC
6
CONTINUOUS
62
7
10
  0.12474293
20
 -0.12425000
30
  0.00000000
11
  0.12545707
21
 -0.12425000
31
  0.00000000
0
LINE
8
DC
6
CONTINUOUS
62
7
10
  0.12480000
20
 -0.12420000
30
  0.00000000
11
  0.12540000
21
 -0.12420000
31
  0.00000000
0
LINE
8
DC
6
CONTINUOUS
62
7
10
  0.12488206
20
 -0.12415000
30
  0.00000000
11
  0.12531794
21
 -0.12415000
31
  0.00000000
0
CIRCLE
8
DC
6
CONTINUOUS
62
7
10
  0.12510000
20
 -0.12460000
30
  0.00000000
40
  0.00050000
0
LINE
8
DC
6
CONTINUOUS
62
7
10
  0.12290000
20
 -0.12510000
30
  0.00000000
11
  0.12590000
21
 -0.12510000
31
  0.00000000
0
LINE
8
DC
6
CONTINUOUS
62
7
10
  0.12190000
20
 -0.12880000
30
  0.00000000
11
  0.12440000
21
 -0.12630000
31
  0.00000000
0
LINE
8
DC
6
CONTINUOUS
62
7
10
  0.12440000
20
 -0.13130000
30
  0.00000000
11
  0.12690000
21
 -0.12880000
31
  0.00000000
0
LINE
8
DC
6
CONTINUOUS
62
7
10
  0.12190000
20
 -0.13130000
30
  0.00000000
11
  0.12690000
21
 -0.12630000
31
  0.00000000
0
LINE
8
DC
6
CONTINUOUS
62
7
10
  0.12240000
20
 -0.13210000
30
  0.00000000
11
  0.12540000
21
 -0.13210000
31
  0.00000000
0
LINE
8
DC
6
CONTINUOUS
62
7
10
  0.12340000
20
 -0.13370000
30
  0.00000000
11
  0.12640000
21
 -0.13370000
31
  0.00000000
0
LINE
8
DC
6
CONTINUOUS
62
7
10
  0.12350000
20
 -0.13670000
30
  0.00000000
11
  0.12350000
21
 -0.13670000
31
  0.00000000
0
LINE
8
DC
6
CONTINUOUS
62
7
10
  0.12328206
20
 -0.13665000
30
  0.00000000
11
  0.12371794
21
 -0.13665000
31
  0.00000000
0
LINE
8
DC
6
CONTINUOUS
62
7
10
  0.12320000
20
 -0.13660000
30
  0.00000000
11
  0.12380000
21
 -0.13660000
31
  0.00000000
0
LINE
8
DC
6
CONTINUOUS
62
7
10
  0.12314293
20
 -0.13655000
30
  0.00000000
11
  0.12385707
21
 -0.13655000
31
  0.00000000
0
LINE
8
DC
6
CONTINUOUS
62
7
10
  0.12310000
20
 -0.13650000
30
  0.00000000
11
  0.12390000
21
 -0.13650000
31
  0.00000000
0
LINE
8
DC
6
CONTINUOUS
62
7
10
  0.12306699
20
 -0.13645000
30
  0.00000000
11
  0.12393301
21
 -0.13645000
31
  0.00000000
0
LINE
8
DC
6
CONTINUOUS
62
7
10
  0.12304174
20
 -0.13640000
30
  0.00000000
11
  0.12395826
21
 -0.13640000
31
  0.00000000
0
LINE
8
DC
6
CONTINUOUS
62
7
10
  0.12302303
20
 -0.13635000
30
  0.00000000
11
  0.12397697
21
 -0.13635000
31
  0.00000000
0
LINE
8
DC
6
CONTINUOUS
62
7
10
  0.12301010
20
 -0.13630000
30
  0.00000000
11
  0.12398990
21
 -0.13630000
31
  0.00000000
0
LINE
8
DC
6
CONTINUOUS
62
7
10
  0.12300251
20
 -0.13625000
30
  0.00000000
11
  0.12399749
21
 -0.13625000
31
  0.00000000
0
LINE
8
DC
6
CONTINUOUS
62
7
10
  0.12300000
20
 -0.13620000
30
  0.00000000
11
  0.12400000
21
 -0.13620000
31
  0.00000000
0
LINE
8
DC
6
CONTINUOUS
62
7
10
  0.12300251
20
 -0.13615000
30
  0.00000000
11
  0.12399749
21
 -0.13615000
31
  0.00000000
0
LINE
8
DC
6
CONTINUOUS
62
7
10
  0.12301010
20
 -0.13610000
30
  0.00000000
11
  0.12398990
21
 -0.13610000
31
  0.00000000
0
LINE
8
DC
6
CONTINUOUS
62
7
10
  0.12302303
20
 -0.13605000
30
  0.00000000
11
  0.12397697
21
 -0.13605000
31
  0.00000000
0
LINE
8
DC
6
CONTINUOUS
62
7
10
  0.12304174
20
 -0.13600000
30
  0.00000000
11
  0.12395826
21
 -0.13600000
31
  0.00000000
0
LINE
8
DC
6
CONTINUOUS
62
7
10
  0.12306699
20
 -0.13595000
30
  0.00000000
11
  0.12393301
21
 -0.13595000
31
  0.00000000
0
LINE
8
DC
6
CONTINUOUS
62
7
10
  0.12310000
20
 -0.13590000
30
  0.00000000
11
  0.12390000
21
 -0.13590000
31
  0.00000000
0
LINE
8
DC
6
CONTINUOUS
62
7
10
  0.12314293
20
 -0.13585000
30
  0.00000000
11
  0.12385707
21
 -0.13585000
31
  0.00000000
0
LINE
8
DC
6
CONTINUOUS
62
7
10
  0.12320000
20
 -0.13580000
30
  0.00000000
11
  0.12380000
21
 -0.13580000
31
  0.00000000
0
LINE
8
DC
6
CONTINUOUS
62
7
10
  0.12328206
20
 -0.13575000
30
  0.00000000
11
  0.12371794
21
 -0.13575000
31
  0.00000000
0
CIRCLE
8
DC
6
CONTINUOUS
62
7
10
  0.12350000
20
 -0.13620000
30
  0.00000000
40
  0.00050000
0
LINE
8
DC
6
CONTINUOUS
62
7
10
  0.12510000
20
 -0.13670000
30
  0.00000000
11
  0.12510000
21
 -0.13670000
31
  0.00000000
0
LINE
8
DC
6
CONTINUOUS
62
7
10
  0.12488206
20
 -0.13665000
30
  0.00000000
11
  0.12531794
21
 -0.13665000
31
  0.00000000
0
LINE
8
DC
6
CONTINUOUS
62
7
10
  0.12480000
20
 -0.13660000
30
  0.00000000
11
  0.12540000
21
 -0.13660000
31
  0.00000000
0
LINE
8
DC
6
CONTINUOUS
62
7
10
  0.12474293
20
 -0.13655000
30
  0.00000000
11
  0.12545707
21
 -0.13655000
31
  0.00000000
0
LINE
8
DC
6
CONTINUOUS
62
7
10
  0.12470000
20
 -0.13650000
30
  0.00000000
11
  0.12550000
21
 -0.13650000
31
  0.00000000
0
LINE
8
DC
6
CONTINUOUS
62
7
10
  0.12466699
20
 -0.13645000
30
  0.00000000
11
  0.12553301
21
 -0.13645000
31
  0.00000000
0
LINE
8
DC
6
CONTINUOUS
62
7
10
  0.12464174
20
 -0.13640000
30
  0.00000000
11
  0.12555826
21
 -0.13640000
31
  0.00000000
0
LINE
8
DC
6
CONTINUOUS
62
7
10
  0.12462303
20
 -0.13635000
30
  0.00000000
11
  0.12557697
21
 -0.13635000
31
  0.00000000
0
LINE
8
DC
6
CONTINUOUS
62
7
10
  0.12461010
20
 -0.13630000
30
  0.00000000
11
  0.12558990
21
 -0.13630000
31
  0.00000000
0
LINE
8
DC
6
CONTINUOUS
62
7
10
  0.12460251
20
 -0.13625000
30
  0.00000000
11
  0.12559749
21
 -0.13625000
31
  0.00000000
0
LINE
8
DC
6
CONTINUOUS
62
7
10
  0.12460000
20
 -0.13620000
30
  0.00000000
11
  0.12560000
21
 -0.13620000
31
  0.00000000
0
LINE
8
DC
6
CONTINUOUS
62
7
10
  0.12460251
20
 -0.13615000
30
  0.00000000
11
  0.12559749
21
 -0.13615000
31
  0.00000000
0
LINE
8
DC
6
CONTINUOUS
62
7
10
  0.12461010
20
 -0.13610000
30
  0.00000000
11
  0.12558990
21
 -0.13610000
31
  0.00000000
0
LINE
8
DC
6
CONTINUOUS
62
7
10
  0.12462303
20
 -0.13605000
30
  0.00000000
11
  0.12557697
21
 -0.13605000
31
  0.00000000
0
LINE
8
DC
6
CONTINUOUS
62
7
10
  0.12464174
20
 -0.13600000
30
  0.00000000
11
  0.12555826
21
 -0.13600000
31
  0.00000000
0
LINE
8
DC
6
CONTINUOUS
62
7
10
  0.12466699
20
 -0.13595000
30
  0.00000000
11
  0.12553301
21
 -0.13595000
31
  0.00000000
0
LINE
8
DC
6
CONTINUOUS
62
7
10
  0.12470000
20
 -0.13590000
30
  0.00000000
11
  0.12550000
21
 -0.13590000
31
  0.00000000
0
LINE
8
DC
6
CONTINUOUS
62
7
10
  0.12474293
20
 -0.13585000
30
  0.00000000
11
  0.12545707
21
 -0.13585000
31
  0.00000000
0
LINE
8
DC
6
CONTINUOUS
62
7
10
  0.12480000
20
 -0.13580000
30
  0.00000000
11
  0.12540000
21
 -0.13580000
31
  0.00000000
0
LINE
8
DC
6
CONTINUOUS
62
7
10
  0.12488206
20
 -0.13575000
30
  0.00000000
11
  0.12531794
21
 -0.13575000
31
  0.00000000
0
CIRCLE
8
DC
6
CONTINUOUS
62
7
10
  0.12510000
20
 -0.13620000
30
  0.00000000
40
  0.00050000
0
LINE
8
DC
6
CONTINUOUS
62
7
10
  0.12290000
20
 -0.13670000
30
  0.00000000
11
  0.12590000
21
 -0.13670000
31
  0.00000000
0
LINE
8
DC
6
CONTINUOUS
62
7
10
  0.12190000
20
 -0.14040000
30
  0.00000000
11
  0.12440000
21
 -0.13790000
31
  0.00000000
0
LINE
8
DC
6
CONTINUOUS
62
7
10
  0.12440000
20
 -0.14290000
30
  0.00000000
11
  0.12690000
21
 -0.14040000
31
  0.00000000
0
LINE
8
DC
6
CONTINUOUS
62
7
10
  0.12190000
20
 -0.14290000
30
  0.00000000
11
  0.12690000
21
 -0.13790000
31
  0.00000000
0
LINE
8
DC
6
CONTINUOUS
62
7
10
  0.11690000
20
 -0.06500000
30
  0.00000000
11
  0.17390000
21
 -0.06500000
31
  0.00000000
0
LINE
8
DC
6
CONTINUOUS
62
7
10
  0.11690000
20
 -0.14500000
30
  0.00000000
11
  0.11590000
21
 -0.14500000
31
  0.00000000
0
LINE
8
DC
6
CONTINUOUS
62
7
10
  0.10650000
20
 -0.14500000
30
  0.00000000
11
  0.11590000
21
 -0.14500000
31
  0.00000000
0
TEXT
8
DC
62
7
10
  0.11590000
20
 -0.14450000
30
  0.00000000
40
  0.00250000
41
  0.60000000
1
    5.00m
50
  0.00000000
72
2
73
0
11
  0.11590000
21
 -0.14450000
31
  0.00000000
0
TEXT
8
DC
62
7
10
  0.13390000
20
 -0.10030000
30
  0.00000000
40
  0.00216667
41
  0.60000000
1
Verwitterungslehm, Ton, stark 
50
  0.00000000
72
0
73
1
11
  0.13390000
21
 -0.10030000
31
  0.00000000
0
TEXT
8
DC
62
7
10
  0.13390000
20
 -0.10340000
30
  0.00000000
40
  0.00216667
41
  0.60000000
1
schluffig
50
  0.00000000
72
0
73
1
11
  0.13390000
21
 -0.10340000
31
  0.00000000
0
TEXT
8
DC
62
7
10
  0.13390000
20
 -0.10650000
30
  0.00000000
40
  0.00216667
41
  0.60000000
1
halbfest
50
  0.00000000
72
0
73
1
11
  0.13390000
21
 -0.10650000
31
  0.00000000
0
TEXT
8
DC
62
7
10
  0.13390000
20
 -0.10960000
30
  0.00000000
40
  0.00216667
41
  0.60000000
1
feucht
50
  0.00000000
72
0
73
1
11
  0.13390000
21
 -0.10960000
31
  0.00000000
0
TEXT
8
DC
62
7
10
  0.13390000
20
 -0.11270000
30
  0.00000000
40
  0.00216667
41
  0.60000000
1
hellgelbgrau
50
  0.00000000
72
0
73
1
11
  0.13390000
21
 -0.11270000
31
  0.00000000
0
CIRCLE
8
DC
6
CONTINUOUS
62
7
10
  0.18210000
20
 -0.10500000
30
  0.00000000
40
  0.00720000
0
TEXT
8
DC
62
7
10
  0.18010000
20
 -0.10700000
30
  0.00000000
40
  0.00250000
41
  0.60000000
1
TL
50
  0.00000000
72
0
73
1
11
  0.18010000
21
 -0.10700000
31
  0.00000000
0
LINE
8
DC
6
CONTINUOUS
62
7
10
  0.16770000
20
 -0.10190000
30
  0.00000000
11
  0.17390000
21
 -0.10190000
31
  0.00000000
0
LINE
8
DC
6
CONTINUOUS
62
7
10
  0.17390000
20
 -0.10190000
30
  0.00000000
11
  0.17390000
21
 -0.10810000
31
  0.00000000
0
LINE
8
DC
6
CONTINUOUS
62
7
10
  0.17390000
20
 -0.10810000
30
  0.00000000
11
  0.16770000
21
 -0.10810000
31
  0.00000000
0
LINE
8
DC
6
CONTINUOUS
62
7
10
  0.16770000
20
 -0.10810000
30
  0.00000000
11
  0.16770000
21
 -0.10190000
31
  0.00000000
0
TEXT
8
DC
62
7
10
  0.17080000
20
 -0.10700000
30
  0.00000000
40
  0.00250000
41
  0.60000000
1
4
50
  0.00000000
72
1
73
1
11
  0.17080000
21
 -0.10700000
31
  0.00000000
0
LINE
8
DC
6
CONTINUOUS
62
7
10
  0.11690000
20
 -0.14500000
30
  0.00000000
11
  0.17390000
21
 -0.14500000
31
  0.00000000
0
TEXT
8
DC
62
7
10
  0.11690000
20
 -0.14850000
30
  0.00000000
40
  0.00250000
41
  0.60000000
1
Endtiefe
50
  0.00000000
72
2
73
1
11
  0.11690000
21
 -0.14850000
31
  0.00000000
0
TEXT
8
DC
62
7
10
  0.12190000
20
 -0.15250000
30
  0.00000000
40
  0.00250000
41
  0.60000000
1
Station1+857.000 Achse  und
50
  0.00000000
72
1
73
1
11
  0.12190000
21
 -0.15250000
31
  0.00000000
0
TEXT
8
DC
62
7
10
  0.12190000
20
 -0.15650000
30
  0.00000000
40
  0.00250000
41
  0.60000000
1
0+038.000 nach links
50
  0.00000000
72
1
73
1
11
  0.12190000
21
 -0.15650000
31
  0.00000000
0
LINE
8
DC
6
CONTINUOUS
62
7
10
  0.11690000
20
 -0.04500000
30
  0.00000000
11
  0.12690000
21
 -0.04500000
31
  0.00000000
0
LINE
8
DC
6
CONTINUOUS
62
7
10
  0.12690000
20
 -0.04500000
30
  0.00000000
11
  0.12690000
21
 -0.14500000
31
  0.00000000
0
LINE
8
DC
6
CONTINUOUS
62
7
10
  0.12690000
20
 -0.14500000
30
  0.00000000
11
  0.11690000
21
 -0.14500000
31
  0.00000000
0
LINE
8
DC
6
CONTINUOUS
62
7
10
  0.11690000
20
 -0.14500000
30
  0.00000000
11
  0.11690000
21
 -0.04500000
31
  0.00000000
0
TEXT
8
DC
62
7
10
  0.12190000
20
 -0.03600000
30
  0.00000000
40
  0.00500000
41
  0.60000000
1
BS 7/22
50
  0.00000000
72
1
73
0
11
  0.12190000
21
 -0.03600000
31
  0.00000000
0
TEXT
8
DC
62
7
10
  0.12190000
20
 -0.04100000
30
  0.00000000
40
  0.00250000
41
  0.60000000
1
Ansatzpunkt:GOK
50
  0.00000000
72
1
73
0
11
  0.12190000
21
 -0.04100000
31
  0.00000000
0
LINE
8
DC
6
CONTINUOUS
62
7
10
  0.03470000
20
 -0.04500000
30
  0.00000000
11
  0.05110000
21
 -0.04500000
31
  0.00000000
0
LINE
8
DC
6
CONTINUOUS
62
7
10
  0.03610000
20
 -0.04500000
30
  0.00000000
11
  0.03470000
21
 -0.04210000
31
  0.00000000
0
LINE
8
DC
6
CONTINUOUS
62
7
10
  0.03470000
20
 -0.04210000
30
  0.00000000
11
  0.03760000
21
 -0.04210000
31
  0.00000000
0
LINE
8
DC
6
CONTINUOUS
62
7
10
  0.03760000
20
 -0.04210000
30
  0.00000000
11
  0.03610000
21
 -0.04500000
31
  0.00000000
0
TEXT
8
DC
62
7
10
  0.03890000
20
 -0.04300000
30
  0.00000000
40
  0.00250000
41
  0.60000000
1
   0.00m
50
  0.00000000
72
0
73
0
11
  0.03890000
21
 -0.04300000
31
  0.00000000
0
LINE
8
DC
6
CONTINUOUS
62
7
10
  0.03470000
20
 -0.06500000
30
  0.00000000
11
  0.05110000
21
 -0.06500000
31
  0.00000000
0
LINE
8
DC
6
CONTINUOUS
62
7
10
  0.03610000
20
 -0.06500000
30
  0.00000000
11
  0.03470000
21
 -0.06210000
31
  0.00000000
0
LINE
8
DC
6
CONTINUOUS
62
7
10
  0.03470000
20
 -0.06210000
30
  0.00000000
11
  0.03760000
21
 -0.06210000
31
  0.00000000
0
LINE
8
DC
6
CONTINUOUS
62
7
10
  0.03760000
20
 -0.06210000
30
  0.00000000
11
  0.03610000
21
 -0.06500000
31
  0.00000000
0
TEXT
8
DC
62
7
10
  0.03890000
20
 -0.06300000
30
  0.00000000
40
  0.00250000
41
  0.60000000
1
  -1.00m
50
  0.00000000
72
0
73
0
11
  0.03890000
21
 -0.06300000
31
  0.00000000
0
LINE
8
DC
6
CONTINUOUS
62
7
10
  0.03470000
20
 -0.08500000
30
  0.00000000
11
  0.05110000
21
 -0.08500000
31
  0.00000000
0
LINE
8
DC
6
CONTINUOUS
62
7
10
  0.03610000
20
 -0.08500000
30
  0.00000000
11
  0.03470000
21
 -0.08210000
31
  0.00000000
0
LINE
8
DC
6
CONTINUOUS
62
7
10
  0.03470000
20
 -0.08210000
30
  0.00000000
11
  0.03760000
21
 -0.08210000
31
  0.00000000
0
LINE
8
DC
6
CONTINUOUS
62
7
10
  0.03760000
20
 -0.08210000
30
  0.00000000
11
  0.03610000
21
 -0.08500000
31
  0.00000000
0
TEXT
8
DC
62
7
10
  0.03890000
20
 -0.08300000
30
  0.00000000
40
  0.00250000
41
  0.60000000
1
  -2.00m
50
  0.00000000
72
0
73
0
11
  0.03890000
21
 -0.08300000
31
  0.00000000
0
LINE
8
DC
6
CONTINUOUS
62
7
10
  0.03470000
20
 -0.10500000
30
  0.00000000
11
  0.05110000
21
 -0.10500000
31
  0.00000000
0
LINE
8
DC
6
CONTINUOUS
62
7
10
  0.03610000
20
 -0.10500000
30
  0.00000000
11
  0.03470000
21
 -0.10210000
31
  0.00000000
0
LINE
8
DC
6
CONTINUOUS
62
7
10
  0.03470000
20
 -0.10210000
30
  0.00000000
11
  0.03760000
21
 -0.10210000
31
  0.00000000
0
LINE
8
DC
6
CONTINUOUS
62
7
10
  0.03760000
20
 -0.10210000
30
  0.00000000
11
  0.03610000
21
 -0.10500000
31
  0.00000000
0
TEXT
8
DC
62
7
10
  0.03890000
20
 -0.10300000
30
  0.00000000
40
  0.00250000
41
  0.60000000
1
  -3.00m
50
  0.00000000
72
0
73
0
11
  0.03890000
21
 -0.10300000
31
  0.00000000
0
LINE
8
DC
6
CONTINUOUS
62
7
10
  0.03470000
20
 -0.12500000
30
  0.00000000
11
  0.05110000
21
 -0.12500000
31
  0.00000000
0
LINE
8
DC
6
CONTINUOUS
62
7
10
  0.03610000
20
 -0.12500000
30
  0.00000000
11
  0.03470000
21
 -0.12210000
31
  0.00000000
0
LINE
8
DC
6
CONTINUOUS
62
7
10
  0.03470000
20
 -0.12210000
30
  0.00000000
11
  0.03760000
21
 -0.12210000
31
  0.00000000
0
LINE
8
DC
6
CONTINUOUS
62
7
10
  0.03760000
20
 -0.12210000
30
  0.00000000
11
  0.03610000
21
 -0.12500000
31
  0.00000000
0
TEXT
8
DC
62
7
10
  0.03890000
20
 -0.12300000
30
  0.00000000
40
  0.00250000
41
  0.60000000
1
  -4.00m
50
  0.00000000
72
0
73
0
11
  0.03890000
21
 -0.12300000
31
  0.00000000
0
LINE
8
DC
6
CONTINUOUS
62
7
10
  0.03470000
20
 -0.14500000
30
  0.00000000
11
  0.05110000
21
 -0.14500000
31
  0.00000000
0
LINE
8
DC
6
CONTINUOUS
62
7
10
  0.03610000
20
 -0.14500000
30
  0.00000000
11
  0.03470000
21
 -0.14210000
31
  0.00000000
0
LINE
8
DC
6
CONTINUOUS
62
7
10
  0.03470000
20
 -0.14210000
30
  0.00000000
11
  0.03760000
21
 -0.14210000
31
  0.00000000
0
LINE
8
DC
6
CONTINUOUS
62
7
10
  0.03760000
20
 -0.14210000
30
  0.00000000
11
  0.03610000
21
 -0.14500000
31
  0.00000000
0
TEXT
8
DC
62
7
10
  0.03890000
20
 -0.14300000
30
  0.00000000
40
  0.00250000
41
  0.60000000
1
  -5.00m
50
  0.00000000
72
0
73
0
11
  0.03890000
21
 -0.14300000
31
  0.00000000
0
LINE
8
DC
6
CONTINUOUS
62
7
10
  0.03470000
20
 -0.16500000
30
  0.00000000
11
  0.05110000
21
 -0.16500000
31
  0.00000000
0
LINE
8
DC
6
CONTINUOUS
62
7
10
  0.03610000
20
 -0.16500000
30
  0.00000000
11
  0.03470000
21
 -0.16210000
31
  0.00000000
0
LINE
8
DC
6
CONTINUOUS
62
7
10
  0.03470000
20
 -0.16210000
30
  0.00000000
11
  0.03760000
21
 -0.16210000
31
  0.00000000
0
LINE
8
DC
6
CONTINUOUS
62
7
10
  0.03760000
20
 -0.16210000
30
  0.00000000
11
  0.03610000
21
 -0.16500000
31
  0.00000000
0
TEXT
8
DC
62
7
10
  0.03890000
20
 -0.16300000
30
  0.00000000
40
  0.00250000
41
  0.60000000
1
  -6.00m
50
  0.00000000
72
0
73
0
11
  0.03890000
21
 -0.16300000
31
  0.00000000
0
ENDSEC
0
EOF
