0
SECTION
2
HEADER
9
$EXTMIN
10
  0.0000
20
  0.0000
30
  0.0000
9
$EXTMAX
10
  0.2090
20
  0.2960
30
  0.0000
9
$LIMMIN
10
  0.0000
20
  0.0000
9
$LIMMAX
10
  0.2090
20
  0.2960
0
ENDSEC
0
SECTION
2
TABLES
0
TABLE
2
LTYPE
70
5
0
LTYPE
2
CONTINUOUS
70
64
3
CONTINUOUS
72
65
73
2
40
0
0
LTYPE
2
GESTRICHELT
70
64
3
GESTRICHELT
72
65
73
2
40
0.00125
49
0.000875
49
-0.000375
0
LTYPE
2
PUNKT
70
64
3
PUNKT
72
65
73
2
40
0.000625
49
0.000125
49
-0.0005
0
LTYPE
2
STRICHPUNKT
70
64
3
STRICHPUNKT
72
65
73
4
40
0.00175
49
0.000875
49
-0.000375
49
0.000125
49
-0.000375
0
LTYPE
2
GETRENNT
70
64
3
GETRENNT
72
65
73
6
40
0.00225
49
0.000875
49
-0.000375
49
0.000125
49
-0.000375
49
0.000125
49
-0.000375
0
ENDTAB
0
TABLE
2
LAYER
70
2
0
LAYER
2
Rahmen
70
0
62
7
6
CONTINUOUS
0
LAYER
2
DC
70
0
62
7
6
CONTINUOUS
0
ENDTAB
0
ENDSEC
0
SECTION
2
ENTITIES
0
LINE
8
Rahmen
6
CONTINUOUS
62
7
10
  0.00020000
20
 -0.00020000
30
  0.00000000
11
  0.20880000
21
 -0.00020000
31
  0.00000000
0
LINE
8
Rahmen
6
CONTINUOUS
62
7
10
  0.20880000
20
 -0.00020000
30
  0.00000000
11
  0.20880000
21
 -0.29580000
31
  0.00000000
0
LINE
8
Rahmen
6
CONTINUOUS
62
7
10
  0.20880000
20
 -0.29580000
30
  0.00000000
11
  0.00020000
21
 -0.29580000
31
  0.00000000
0
LINE
8
Rahmen
6
CONTINUOUS
62
7
10
  0.00020000
20
 -0.29580000
30
  0.00000000
11
  0.00020000
21
 -0.00020000
31
  0.00000000
0
LINE
8
Rahmen
6
CONTINUOUS
62
7
10
  0.00020000
20
 -0.14790000
30
  0.00000000
11
  0.01020000
21
 -0.14790000
31
  0.00000000
0
SOLID
8
Rahmen
62
255
10
  0.20430000
20
 -0.29530000
30
  0.00000000
11
  0.20830000
21
 -0.29530000
31
  0.00000000
12
  0.20430000
22
 -0.29130000
32
  0.00000000
13
  0.20830000
23
 -0.29130000
33
  0.00000000
0
LINE
8
Rahmen
6
CONTINUOUS
62
7
10
  0.20430000
20
 -0.29530000
30
  0.00000000
11
  0.20830000
21
 -0.29530000
31
  0.00000000
0
LINE
8
Rahmen
6
CONTINUOUS
62
7
10
  0.20830000
20
 -0.29530000
30
  0.00000000
11
  0.20830000
21
 -0.29130000
31
  0.00000000
0
LINE
8
Rahmen
6
CONTINUOUS
62
7
10
  0.20830000
20
 -0.29130000
30
  0.00000000
11
  0.20430000
21
 -0.29130000
31
  0.00000000
0
LINE
8
Rahmen
6
CONTINUOUS
62
7
10
  0.20430000
20
 -0.29130000
30
  0.00000000
11
  0.20430000
21
 -0.29530000
31
  0.00000000
0
TEXT
8
Rahmen
62
7
10
  0.20630000
20
 -0.29450000
30
  0.00000000
40
  0.00191667
41
  0.60000000
1
DC
50
  0.00000000
72
1
73
1
11
  0.20630000
21
 -0.29450000
31
  0.00000000
0
LINE
8
Rahmen
6
CONTINUOUS
62
7
10
  0.02000000
20
 -0.00500000
30
  0.00000000
11
  0.20400000
21
 -0.00500000
31
  0.00000000
0
LINE
8
Rahmen
6
CONTINUOUS
62
7
10
  0.20400000
20
 -0.00500000
30
  0.00000000
11
  0.20400000
21
 -0.29100000
31
  0.00000000
0
LINE
8
Rahmen
6
CONTINUOUS
62
7
10
  0.20400000
20
 -0.29100000
30
  0.00000000
11
  0.02000000
21
 -0.29100000
31
  0.00000000
0
LINE
8
Rahmen
6
CONTINUOUS
62
7
10
  0.02000000
20
 -0.29100000
30
  0.00000000
11
  0.02000000
21
 -0.00500000
31
  0.00000000
0
LINE
8
Rahmen
6
CONTINUOUS
62
7
10
  0.02000000
20
 -0.00500000
30
  0.00000000
11
  0.09000000
21
 -0.00500000
31
  0.00000000
0
LINE
8
Rahmen
6
CONTINUOUS
62
7
10
  0.02000000
20
 -0.01000000
30
  0.00000000
11
  0.09000000
21
 -0.01000000
31
  0.00000000
0
LINE
8
Rahmen
6
CONTINUOUS
62
7
10
  0.02000000
20
 -0.00500000
30
  0.00000000
11
  0.02000000
21
 -0.01000000
31
  0.00000000
0
LINE
8
Rahmen
6
CONTINUOUS
62
7
10
  0.09000000
20
 -0.00500000
30
  0.00000000
11
  0.09000000
21
 -0.01000000
31
  0.00000000
0
TEXT
8
Rahmen
62
7
10
  0.02100000
20
 -0.00970000
30
  0.00000000
40
  0.00300000
41
  0.60000000
1
Ingenieurbüro TBV GmbH
50
  0.00000000
72
0
73
1
11
  0.02100000
21
 -0.00970000
31
  0.00000000
0
LINE
8
Rahmen
6
CONTINUOUS
62
7
10
  0.09000000
20
 -0.00500000
30
  0.00000000
11
  0.20400000
21
 -0.00500000
31
  0.00000000
0
LINE
8
Rahmen
6
CONTINUOUS
62
7
10
  0.09000000
20
 -0.01000000
30
  0.00000000
11
  0.20400000
21
 -0.01000000
31
  0.00000000
0
LINE
8
Rahmen
6
CONTINUOUS
62
7
10
  0.09000000
20
 -0.00500000
30
  0.00000000
11
  0.09000000
21
 -0.01000000
31
  0.00000000
0
LINE
8
Rahmen
6
CONTINUOUS
62
7
10
  0.20400000
20
 -0.00500000
30
  0.00000000
11
  0.20400000
21
 -0.01000000
31
  0.00000000
0
TEXT
8
Rahmen
62
7
10
  0.09100000
20
 -0.00970000
30
  0.00000000
40
  0.00300000
41
  0.60000000
1
Projekt     :
50
  0.00000000
72
0
73
1
11
  0.09100000
21
 -0.00970000
31
  0.00000000
0
TEXT
8
Rahmen
62
7
10
  0.11100000
20
 -0.00970000
30
  0.00000000
40
  0.00300000
41
  0.60000000
1
Neuverlegung VBL SW-Kanal Söhesten-Stößwitz
50
  0.00000000
72
0
73
1
11
  0.11100000
21
 -0.00970000
31
  0.00000000
0
LINE
8
Rahmen
6
CONTINUOUS
62
7
10
  0.02000000
20
 -0.01000000
30
  0.00000000
11
  0.09000000
21
 -0.01000000
31
  0.00000000
0
LINE
8
Rahmen
6
CONTINUOUS
62
7
10
  0.02000000
20
 -0.01500000
30
  0.00000000
11
  0.09000000
21
 -0.01500000
31
  0.00000000
0
LINE
8
Rahmen
6
CONTINUOUS
62
7
10
  0.02000000
20
 -0.01000000
30
  0.00000000
11
  0.02000000
21
 -0.01500000
31
  0.00000000
0
LINE
8
Rahmen
6
CONTINUOUS
62
7
10
  0.09000000
20
 -0.01000000
30
  0.00000000
11
  0.09000000
21
 -0.01500000
31
  0.00000000
0
TEXT
8
Rahmen
62
7
10
  0.02100000
20
 -0.01470000
30
  0.00000000
40
  0.00300000
41
  0.60000000
1
Baenschstraße 6
50
  0.00000000
72
0
73
1
11
  0.02100000
21
 -0.01470000
31
  0.00000000
0
LINE
8
Rahmen
6
CONTINUOUS
62
7
10
  0.09000000
20
 -0.01000000
30
  0.00000000
11
  0.20400000
21
 -0.01000000
31
  0.00000000
0
LINE
8
Rahmen
6
CONTINUOUS
62
7
10
  0.09000000
20
 -0.01500000
30
  0.00000000
11
  0.20400000
21
 -0.01500000
31
  0.00000000
0
LINE
8
Rahmen
6
CONTINUOUS
62
7
10
  0.09000000
20
 -0.01000000
30
  0.00000000
11
  0.09000000
21
 -0.01500000
31
  0.00000000
0
LINE
8
Rahmen
6
CONTINUOUS
62
7
10
  0.20400000
20
 -0.01000000
30
  0.00000000
11
  0.20400000
21
 -0.01500000
31
  0.00000000
0
TEXT
8
Rahmen
62
7
10
  0.09100000
20
 -0.01470000
30
  0.00000000
40
  0.00300000
41
  0.60000000
1
Projektnr.:
50
  0.00000000
72
0
73
1
11
  0.09100000
21
 -0.01470000
31
  0.00000000
0
TEXT
8
Rahmen
62
7
10
  0.11100000
20
 -0.01470000
30
  0.00000000
40
  0.00300000
41
  0.60000000
1
22/12068.1
50
  0.00000000
72
0
73
1
11
  0.11100000
21
 -0.01470000
31
  0.00000000
0
LINE
8
Rahmen
6
CONTINUOUS
62
7
10
  0.02000000
20
 -0.01500000
30
  0.00000000
11
  0.09000000
21
 -0.01500000
31
  0.00000000
0
LINE
8
Rahmen
6
CONTINUOUS
62
7
10
  0.02000000
20
 -0.02000000
30
  0.00000000
11
  0.09000000
21
 -0.02000000
31
  0.00000000
0
LINE
8
Rahmen
6
CONTINUOUS
62
7
10
  0.02000000
20
 -0.01500000
30
  0.00000000
11
  0.02000000
21
 -0.02000000
31
  0.00000000
0
LINE
8
Rahmen
6
CONTINUOUS
62
7
10
  0.09000000
20
 -0.01500000
30
  0.00000000
11
  0.09000000
21
 -0.02000000
31
  0.00000000
0
TEXT
8
Rahmen
62
7
10
  0.02100000
20
 -0.01970000
30
  0.00000000
40
  0.00300000
41
  0.60000000
1
06712 Zeitz
50
  0.00000000
72
0
73
1
11
  0.02100000
21
 -0.01970000
31
  0.00000000
0
LINE
8
Rahmen
6
CONTINUOUS
62
7
10
  0.09000000
20
 -0.01500000
30
  0.00000000
11
  0.20400000
21
 -0.01500000
31
  0.00000000
0
LINE
8
Rahmen
6
CONTINUOUS
62
7
10
  0.09000000
20
 -0.02000000
30
  0.00000000
11
  0.20400000
21
 -0.02000000
31
  0.00000000
0
LINE
8
Rahmen
6
CONTINUOUS
62
7
10
  0.09000000
20
 -0.01500000
30
  0.00000000
11
  0.09000000
21
 -0.02000000
31
  0.00000000
0
LINE
8
Rahmen
6
CONTINUOUS
62
7
10
  0.20400000
20
 -0.01500000
30
  0.00000000
11
  0.20400000
21
 -0.02000000
31
  0.00000000
0
TEXT
8
Rahmen
62
7
10
  0.09100000
20
 -0.01970000
30
  0.00000000
40
  0.00300000
41
  0.60000000
1
Anlage     :
50
  0.00000000
72
0
73
1
11
  0.09100000
21
 -0.01970000
31
  0.00000000
0
TEXT
8
Rahmen
62
7
10
  0.11100000
20
 -0.01970000
30
  0.00000000
40
  0.00300000
41
  0.60000000
1
Bereich 1: VS Kreischau-Stößwitz
50
  0.00000000
72
0
73
1
11
  0.11100000
21
 -0.01970000
31
  0.00000000
0
LINE
8
Rahmen
6
CONTINUOUS
62
7
10
  0.02000000
20
 -0.02000000
30
  0.00000000
11
  0.09000000
21
 -0.02000000
31
  0.00000000
0
LINE
8
Rahmen
6
CONTINUOUS
62
7
10
  0.02000000
20
 -0.02500000
30
  0.00000000
11
  0.09000000
21
 -0.02500000
31
  0.00000000
0
LINE
8
Rahmen
6
CONTINUOUS
62
7
10
  0.02000000
20
 -0.02000000
30
  0.00000000
11
  0.02000000
21
 -0.02500000
31
  0.00000000
0
LINE
8
Rahmen
6
CONTINUOUS
62
7
10
  0.09000000
20
 -0.02000000
30
  0.00000000
11
  0.09000000
21
 -0.02500000
31
  0.00000000
0
TEXT
8
Rahmen
62
7
10
  0.02100000
20
 -0.02470000
30
  0.00000000
40
  0.00300000
41
  0.60000000
1
Tel: 03441 215737
50
  0.00000000
72
0
73
1
11
  0.02100000
21
 -0.02470000
31
  0.00000000
0
LINE
8
Rahmen
6
CONTINUOUS
62
7
10
  0.09000000
20
 -0.02000000
30
  0.00000000
11
  0.20400000
21
 -0.02000000
31
  0.00000000
0
LINE
8
Rahmen
6
CONTINUOUS
62
7
10
  0.09000000
20
 -0.02500000
30
  0.00000000
11
  0.20400000
21
 -0.02500000
31
  0.00000000
0
LINE
8
Rahmen
6
CONTINUOUS
62
7
10
  0.09000000
20
 -0.02000000
30
  0.00000000
11
  0.09000000
21
 -0.02500000
31
  0.00000000
0
LINE
8
Rahmen
6
CONTINUOUS
62
7
10
  0.20400000
20
 -0.02000000
30
  0.00000000
11
  0.20400000
21
 -0.02500000
31
  0.00000000
0
TEXT
8
Rahmen
62
7
10
  0.09100000
20
 -0.02470000
30
  0.00000000
40
  0.00300000
41
  0.60000000
1
Maßstab  :
50
  0.00000000
72
0
73
1
11
  0.09100000
21
 -0.02470000
31
  0.00000000
0
TEXT
8
Rahmen
62
7
10
  0.11100000
20
 -0.02470000
30
  0.00000000
40
  0.00300000
41
  0.60000000
1
1: 50
50
  0.00000000
72
0
73
1
11
  0.11100000
21
 -0.02470000
31
  0.00000000
0
TEXT
8
Rahmen
62
7
10
  0.02100000
20
 -0.27570000
30
  0.00000000
40
  0.00300000
41
  0.60000000
1
Bemerkung
50
  0.00000000
72
0
73
1
11
  0.02100000
21
 -0.27570000
31
  0.00000000
0
LINE
8
Rahmen
6
CONTINUOUS
62
7
10
  0.02000000
20
 -0.00500000
30
  0.00000000
11
  0.09000000
21
 -0.00500000
31
  0.00000000
0
LINE
8
Rahmen
6
CONTINUOUS
62
7
10
  0.02000000
20
 -0.01000000
30
  0.00000000
11
  0.09000000
21
 -0.01000000
31
  0.00000000
0
LINE
8
Rahmen
6
CONTINUOUS
62
7
10
  0.02000000
20
 -0.00500000
30
  0.00000000
11
  0.02000000
21
 -0.01000000
31
  0.00000000
0
LINE
8
Rahmen
6
CONTINUOUS
62
7
10
  0.09000000
20
 -0.00500000
30
  0.00000000
11
  0.09000000
21
 -0.01000000
31
  0.00000000
0
LINE
8
Rahmen
6
CONTINUOUS
62
7
10
  0.09000000
20
 -0.00500000
30
  0.00000000
11
  0.20400000
21
 -0.00500000
31
  0.00000000
0
LINE
8
Rahmen
6
CONTINUOUS
62
7
10
  0.09000000
20
 -0.01000000
30
  0.00000000
11
  0.20400000
21
 -0.01000000
31
  0.00000000
0
LINE
8
Rahmen
6
CONTINUOUS
62
7
10
  0.09000000
20
 -0.00500000
30
  0.00000000
11
  0.09000000
21
 -0.01000000
31
  0.00000000
0
LINE
8
Rahmen
6
CONTINUOUS
62
7
10
  0.20400000
20
 -0.00500000
30
  0.00000000
11
  0.20400000
21
 -0.01000000
31
  0.00000000
0
LINE
8
Rahmen
6
CONTINUOUS
62
7
10
  0.02000000
20
 -0.01000000
30
  0.00000000
11
  0.09000000
21
 -0.01000000
31
  0.00000000
0
LINE
8
Rahmen
6
CONTINUOUS
62
7
10
  0.02000000
20
 -0.01500000
30
  0.00000000
11
  0.09000000
21
 -0.01500000
31
  0.00000000
0
LINE
8
Rahmen
6
CONTINUOUS
62
7
10
  0.02000000
20
 -0.01000000
30
  0.00000000
11
  0.02000000
21
 -0.01500000
31
  0.00000000
0
LINE
8
Rahmen
6
CONTINUOUS
62
7
10
  0.09000000
20
 -0.01000000
30
  0.00000000
11
  0.09000000
21
 -0.01500000
31
  0.00000000
0
LINE
8
Rahmen
6
CONTINUOUS
62
7
10
  0.09000000
20
 -0.01000000
30
  0.00000000
11
  0.20400000
21
 -0.01000000
31
  0.00000000
0
LINE
8
Rahmen
6
CONTINUOUS
62
7
10
  0.09000000
20
 -0.01500000
30
  0.00000000
11
  0.20400000
21
 -0.01500000
31
  0.00000000
0
LINE
8
Rahmen
6
CONTINUOUS
62
7
10
  0.09000000
20
 -0.01000000
30
  0.00000000
11
  0.09000000
21
 -0.01500000
31
  0.00000000
0
LINE
8
Rahmen
6
CONTINUOUS
62
7
10
  0.20400000
20
 -0.01000000
30
  0.00000000
11
  0.20400000
21
 -0.01500000
31
  0.00000000
0
LINE
8
Rahmen
6
CONTINUOUS
62
7
10
  0.02000000
20
 -0.01500000
30
  0.00000000
11
  0.09000000
21
 -0.01500000
31
  0.00000000
0
LINE
8
Rahmen
6
CONTINUOUS
62
7
10
  0.02000000
20
 -0.02000000
30
  0.00000000
11
  0.09000000
21
 -0.02000000
31
  0.00000000
0
LINE
8
Rahmen
6
CONTINUOUS
62
7
10
  0.02000000
20
 -0.01500000
30
  0.00000000
11
  0.02000000
21
 -0.02000000
31
  0.00000000
0
LINE
8
Rahmen
6
CONTINUOUS
62
7
10
  0.09000000
20
 -0.01500000
30
  0.00000000
11
  0.09000000
21
 -0.02000000
31
  0.00000000
0
LINE
8
Rahmen
6
CONTINUOUS
62
7
10
  0.09000000
20
 -0.01500000
30
  0.00000000
11
  0.20400000
21
 -0.01500000
31
  0.00000000
0
LINE
8
Rahmen
6
CONTINUOUS
62
7
10
  0.09000000
20
 -0.02000000
30
  0.00000000
11
  0.20400000
21
 -0.02000000
31
  0.00000000
0
LINE
8
Rahmen
6
CONTINUOUS
62
7
10
  0.09000000
20
 -0.01500000
30
  0.00000000
11
  0.09000000
21
 -0.02000000
31
  0.00000000
0
LINE
8
Rahmen
6
CONTINUOUS
62
7
10
  0.20400000
20
 -0.01500000
30
  0.00000000
11
  0.20400000
21
 -0.02000000
31
  0.00000000
0
LINE
8
Rahmen
6
CONTINUOUS
62
7
10
  0.02000000
20
 -0.02000000
30
  0.00000000
11
  0.09000000
21
 -0.02000000
31
  0.00000000
0
LINE
8
Rahmen
6
CONTINUOUS
62
7
10
  0.02000000
20
 -0.02500000
30
  0.00000000
11
  0.09000000
21
 -0.02500000
31
  0.00000000
0
LINE
8
Rahmen
6
CONTINUOUS
62
7
10
  0.02000000
20
 -0.02000000
30
  0.00000000
11
  0.02000000
21
 -0.02500000
31
  0.00000000
0
LINE
8
Rahmen
6
CONTINUOUS
62
7
10
  0.09000000
20
 -0.02000000
30
  0.00000000
11
  0.09000000
21
 -0.02500000
31
  0.00000000
0
LINE
8
Rahmen
6
CONTINUOUS
62
7
10
  0.09000000
20
 -0.02000000
30
  0.00000000
11
  0.20400000
21
 -0.02000000
31
  0.00000000
0
LINE
8
Rahmen
6
CONTINUOUS
62
7
10
  0.09000000
20
 -0.02500000
30
  0.00000000
11
  0.20400000
21
 -0.02500000
31
  0.00000000
0
LINE
8
Rahmen
6
CONTINUOUS
62
7
10
  0.09000000
20
 -0.02000000
30
  0.00000000
11
  0.09000000
21
 -0.02500000
31
  0.00000000
0
LINE
8
Rahmen
6
CONTINUOUS
62
7
10
  0.20400000
20
 -0.02000000
30
  0.00000000
11
  0.20400000
21
 -0.02500000
31
  0.00000000
0
LINE
8
Rahmen
6
CONTINUOUS
62
7
10
  0.02000000
20
 -0.27100000
30
  0.00000000
11
  0.20400000
21
 -0.27100000
31
  0.00000000
0
LINE
8
Rahmen
6
CONTINUOUS
62
7
10
  0.02000000
20
 -0.00500000
30
  0.00000000
11
  0.20400000
21
 -0.00500000
31
  0.00000000
0
LINE
8
Rahmen
6
CONTINUOUS
62
7
10
  0.20400000
20
 -0.00500000
30
  0.00000000
11
  0.20400000
21
 -0.29100000
31
  0.00000000
0
LINE
8
Rahmen
6
CONTINUOUS
62
7
10
  0.20400000
20
 -0.29100000
30
  0.00000000
11
  0.02000000
21
 -0.29100000
31
  0.00000000
0
LINE
8
Rahmen
6
CONTINUOUS
62
7
10
  0.02000000
20
 -0.29100000
30
  0.00000000
11
  0.02000000
21
 -0.00500000
31
  0.00000000
0
TEXT
8
DC
62
7
10
  0.09550000
20
 -0.14690000
30
  0.00000000
40
  0.00250000
41
  0.60000000
1
Kein Wasser
50
  0.00000000
72
2
73
0
11
  0.09550000
21
 -0.14690000
31
  0.00000000
0
TEXT
8
DC
62
7
10
  0.09550000
20
 -0.15100000
30
  0.00000000
40
  0.00250000
41
  0.60000000
1
(24.11.2022)
50
  0.00000000
72
2
73
0
11
  0.09550000
21
 -0.15100000
31
  0.00000000
0
LINE
8
DC
6
CONTINUOUS
62
7
10
  0.11690000
20
 -0.04500000
30
  0.00000000
11
  0.11590000
21
 -0.04500000
31
  0.00000000
0
LINE
8
DC
6
CONTINUOUS
62
7
10
  0.10650000
20
 -0.04500000
30
  0.00000000
11
  0.11590000
21
 -0.04500000
31
  0.00000000
0
TEXT
8
DC
62
7
10
  0.11590000
20
 -0.04450000
30
  0.00000000
40
  0.00250000
41
  0.60000000
1
    0.00m
50
  0.00000000
72
2
73
0
11
  0.11590000
21
 -0.04450000
31
  0.00000000
0
LINE
8
DC
6
CONTINUOUS
62
7
10
  0.12850000
20
 -0.04500000
30
  0.00000000
11
  0.12850000
21
 -0.04530000
31
  0.00000000
0
LINE
8
DC
6
CONTINUOUS
62
7
10
  0.12850000
20
 -0.04530000
30
  0.00000000
11
  0.12880000
21
 -0.04560000
31
  0.00000000
0
LINE
8
DC
6
CONTINUOUS
62
7
10
  0.12880000
20
 -0.04560000
30
  0.00000000
11
  0.12910000
21
 -0.04590000
31
  0.00000000
0
LINE
8
DC
6
CONTINUOUS
62
7
10
  0.12910000
20
 -0.04590000
30
  0.00000000
11
  0.12920000
21
 -0.04620000
31
  0.00000000
0
LINE
8
DC
6
CONTINUOUS
62
7
10
  0.12920000
20
 -0.04620000
30
  0.00000000
11
  0.12910000
21
 -0.04650000
31
  0.00000000
0
LINE
8
DC
6
CONTINUOUS
62
7
10
  0.12910000
20
 -0.04650000
30
  0.00000000
11
  0.12880000
21
 -0.04680000
31
  0.00000000
0
LINE
8
DC
6
CONTINUOUS
62
7
10
  0.12880000
20
 -0.04680000
30
  0.00000000
11
  0.12850000
21
 -0.04710000
31
  0.00000000
0
LINE
8
DC
6
CONTINUOUS
62
7
10
  0.12850000
20
 -0.04710000
30
  0.00000000
11
  0.12820000
21
 -0.04740000
31
  0.00000000
0
LINE
8
DC
6
CONTINUOUS
62
7
10
  0.12820000
20
 -0.04740000
30
  0.00000000
11
  0.12790000
21
 -0.04770000
31
  0.00000000
0
LINE
8
DC
6
CONTINUOUS
62
7
10
  0.12790000
20
 -0.04770000
30
  0.00000000
11
  0.12780000
21
 -0.04800000
31
  0.00000000
0
LINE
8
DC
6
CONTINUOUS
62
7
10
  0.12780000
20
 -0.04800000
30
  0.00000000
11
  0.12790000
21
 -0.04830000
31
  0.00000000
0
LINE
8
DC
6
CONTINUOUS
62
7
10
  0.12790000
20
 -0.04830000
30
  0.00000000
11
  0.12820000
21
 -0.04860000
31
  0.00000000
0
LINE
8
DC
6
CONTINUOUS
62
7
10
  0.12820000
20
 -0.04860000
30
  0.00000000
11
  0.12850000
21
 -0.04890000
31
  0.00000000
0
LINE
8
DC
6
CONTINUOUS
62
7
10
  0.12850000
20
 -0.04890000
30
  0.00000000
11
  0.12880000
21
 -0.04920000
31
  0.00000000
0
LINE
8
DC
6
CONTINUOUS
62
7
10
  0.12880000
20
 -0.04920000
30
  0.00000000
11
  0.12910000
21
 -0.04950000
31
  0.00000000
0
LINE
8
DC
6
CONTINUOUS
62
7
10
  0.12910000
20
 -0.04950000
30
  0.00000000
11
  0.12920000
21
 -0.04980000
31
  0.00000000
0
LINE
8
DC
6
CONTINUOUS
62
7
10
  0.12920000
20
 -0.04980000
30
  0.00000000
11
  0.12910000
21
 -0.05010000
31
  0.00000000
0
LINE
8
DC
6
CONTINUOUS
62
7
10
  0.12910000
20
 -0.05010000
30
  0.00000000
11
  0.12880000
21
 -0.05040000
31
  0.00000000
0
LINE
8
DC
6
CONTINUOUS
62
7
10
  0.12880000
20
 -0.05040000
30
  0.00000000
11
  0.12850000
21
 -0.05070000
31
  0.00000000
0
LINE
8
DC
6
CONTINUOUS
62
7
10
  0.12850000
20
 -0.05070000
30
  0.00000000
11
  0.12820000
21
 -0.05100000
31
  0.00000000
0
LINE
8
DC
6
CONTINUOUS
62
7
10
  0.12820000
20
 -0.05100000
30
  0.00000000
11
  0.12790000
21
 -0.05130000
31
  0.00000000
0
LINE
8
DC
6
CONTINUOUS
62
7
10
  0.12790000
20
 -0.05130000
30
  0.00000000
11
  0.12780000
21
 -0.05160000
31
  0.00000000
0
LINE
8
DC
6
CONTINUOUS
62
7
10
  0.12780000
20
 -0.05160000
30
  0.00000000
11
  0.12790000
21
 -0.05190000
31
  0.00000000
0
LINE
8
DC
6
CONTINUOUS
62
7
10
  0.12790000
20
 -0.05190000
30
  0.00000000
11
  0.12820000
21
 -0.05220000
31
  0.00000000
0
LINE
8
DC
6
CONTINUOUS
62
7
10
  0.12820000
20
 -0.05220000
30
  0.00000000
11
  0.12850000
21
 -0.05250000
31
  0.00000000
0
LINE
8
DC
6
CONTINUOUS
62
7
10
  0.12850000
20
 -0.05250000
30
  0.00000000
11
  0.12880000
21
 -0.05280000
31
  0.00000000
0
LINE
8
DC
6
CONTINUOUS
62
7
10
  0.12880000
20
 -0.05280000
30
  0.00000000
11
  0.12910000
21
 -0.05310000
31
  0.00000000
0
LINE
8
DC
6
CONTINUOUS
62
7
10
  0.12910000
20
 -0.05310000
30
  0.00000000
11
  0.12920000
21
 -0.05340000
31
  0.00000000
0
LINE
8
DC
6
CONTINUOUS
62
7
10
  0.12920000
20
 -0.05340000
30
  0.00000000
11
  0.12910000
21
 -0.05370000
31
  0.00000000
0
LINE
8
DC
6
CONTINUOUS
62
7
10
  0.12910000
20
 -0.05370000
30
  0.00000000
11
  0.12880000
21
 -0.05400000
31
  0.00000000
0
LINE
8
DC
6
CONTINUOUS
62
7
10
  0.12880000
20
 -0.05400000
30
  0.00000000
11
  0.12850000
21
 -0.05430000
31
  0.00000000
0
LINE
8
DC
6
CONTINUOUS
62
7
10
  0.12850000
20
 -0.05430000
30
  0.00000000
11
  0.12820000
21
 -0.05460000
31
  0.00000000
0
LINE
8
DC
6
CONTINUOUS
62
7
10
  0.12820000
20
 -0.05460000
30
  0.00000000
11
  0.12790000
21
 -0.05490000
31
  0.00000000
0
LINE
8
DC
6
CONTINUOUS
62
7
10
  0.12790000
20
 -0.05490000
30
  0.00000000
11
  0.12780000
21
 -0.05520000
31
  0.00000000
0
LINE
8
DC
6
CONTINUOUS
62
7
10
  0.12780000
20
 -0.05520000
30
  0.00000000
11
  0.12790000
21
 -0.05550000
31
  0.00000000
0
LINE
8
DC
6
CONTINUOUS
62
7
10
  0.12790000
20
 -0.05550000
30
  0.00000000
11
  0.12820000
21
 -0.05580000
31
  0.00000000
0
LINE
8
DC
6
CONTINUOUS
62
7
10
  0.12820000
20
 -0.05580000
30
  0.00000000
11
  0.12850000
21
 -0.05610000
31
  0.00000000
0
LINE
8
DC
6
CONTINUOUS
62
7
10
  0.12850000
20
 -0.05610000
30
  0.00000000
11
  0.12880000
21
 -0.05640000
31
  0.00000000
0
LINE
8
DC
6
CONTINUOUS
62
7
10
  0.12880000
20
 -0.05640000
30
  0.00000000
11
  0.12910000
21
 -0.05670000
31
  0.00000000
0
LINE
8
DC
6
CONTINUOUS
62
7
10
  0.12910000
20
 -0.05670000
30
  0.00000000
11
  0.12920000
21
 -0.05700000
31
  0.00000000
0
LINE
8
DC
6
CONTINUOUS
62
7
10
  0.12920000
20
 -0.05700000
30
  0.00000000
11
  0.12910000
21
 -0.05730000
31
  0.00000000
0
LINE
8
DC
6
CONTINUOUS
62
7
10
  0.12910000
20
 -0.05730000
30
  0.00000000
11
  0.12880000
21
 -0.05760000
31
  0.00000000
0
LINE
8
DC
6
CONTINUOUS
62
7
10
  0.12880000
20
 -0.05760000
30
  0.00000000
11
  0.12850000
21
 -0.05790000
31
  0.00000000
0
LINE
8
DC
6
CONTINUOUS
62
7
10
  0.12850000
20
 -0.05790000
30
  0.00000000
11
  0.12820000
21
 -0.05820000
31
  0.00000000
0
LINE
8
DC
6
CONTINUOUS
62
7
10
  0.12820000
20
 -0.05820000
30
  0.00000000
11
  0.12790000
21
 -0.05850000
31
  0.00000000
0
LINE
8
DC
6
CONTINUOUS
62
7
10
  0.12790000
20
 -0.05850000
30
  0.00000000
11
  0.12780000
21
 -0.05880000
31
  0.00000000
0
LINE
8
DC
6
CONTINUOUS
62
7
10
  0.12780000
20
 -0.05880000
30
  0.00000000
11
  0.12790000
21
 -0.05910000
31
  0.00000000
0
LINE
8
DC
6
CONTINUOUS
62
7
10
  0.12790000
20
 -0.05910000
30
  0.00000000
11
  0.12820000
21
 -0.05940000
31
  0.00000000
0
LINE
8
DC
6
CONTINUOUS
62
7
10
  0.12820000
20
 -0.05940000
30
  0.00000000
11
  0.12850000
21
 -0.05970000
31
  0.00000000
0
LINE
8
DC
6
CONTINUOUS
62
7
10
  0.12850000
20
 -0.05970000
30
  0.00000000
11
  0.12880000
21
 -0.06000000
31
  0.00000000
0
LINE
8
DC
6
CONTINUOUS
62
7
10
  0.12880000
20
 -0.06000000
30
  0.00000000
11
  0.12910000
21
 -0.06030000
31
  0.00000000
0
LINE
8
DC
6
CONTINUOUS
62
7
10
  0.12910000
20
 -0.06030000
30
  0.00000000
11
  0.12920000
21
 -0.06060000
31
  0.00000000
0
LINE
8
DC
6
CONTINUOUS
62
7
10
  0.12920000
20
 -0.06060000
30
  0.00000000
11
  0.12910000
21
 -0.06090000
31
  0.00000000
0
LINE
8
DC
6
CONTINUOUS
62
7
10
  0.12910000
20
 -0.06090000
30
  0.00000000
11
  0.12880000
21
 -0.06120000
31
  0.00000000
0
LINE
8
DC
6
CONTINUOUS
62
7
10
  0.12880000
20
 -0.06120000
30
  0.00000000
11
  0.12850000
21
 -0.06150000
31
  0.00000000
0
LINE
8
DC
6
CONTINUOUS
62
7
10
  0.12850000
20
 -0.06150000
30
  0.00000000
11
  0.12820000
21
 -0.06180000
31
  0.00000000
0
LINE
8
DC
6
CONTINUOUS
62
7
10
  0.12820000
20
 -0.06180000
30
  0.00000000
11
  0.12790000
21
 -0.06210000
31
  0.00000000
0
LINE
8
DC
6
CONTINUOUS
62
7
10
  0.12790000
20
 -0.06210000
30
  0.00000000
11
  0.12780000
21
 -0.06240000
31
  0.00000000
0
LINE
8
DC
6
CONTINUOUS
62
7
10
  0.12780000
20
 -0.06240000
30
  0.00000000
11
  0.12790000
21
 -0.06270000
31
  0.00000000
0
LINE
8
DC
6
CONTINUOUS
62
7
10
  0.12790000
20
 -0.06270000
30
  0.00000000
11
  0.12820000
21
 -0.06300000
31
  0.00000000
0
LINE
8
DC
6
CONTINUOUS
62
7
10
  0.12820000
20
 -0.06300000
30
  0.00000000
11
  0.12850000
21
 -0.06330000
31
  0.00000000
0
LINE
8
DC
6
CONTINUOUS
62
7
10
  0.12850000
20
 -0.06330000
30
  0.00000000
11
  0.12880000
21
 -0.06360000
31
  0.00000000
0
LINE
8
DC
6
CONTINUOUS
62
7
10
  0.12880000
20
 -0.06360000
30
  0.00000000
11
  0.12910000
21
 -0.06390000
31
  0.00000000
0
LINE
8
DC
6
CONTINUOUS
62
7
10
  0.12910000
20
 -0.06390000
30
  0.00000000
11
  0.12920000
21
 -0.06420000
31
  0.00000000
0
LINE
8
DC
6
CONTINUOUS
62
7
10
  0.12920000
20
 -0.06420000
30
  0.00000000
11
  0.12910000
21
 -0.06450000
31
  0.00000000
0
LINE
8
DC
6
CONTINUOUS
62
7
10
  0.12910000
20
 -0.06450000
30
  0.00000000
11
  0.12880000
21
 -0.06480000
31
  0.00000000
0
LINE
8
DC
6
CONTINUOUS
62
7
10
  0.12880000
20
 -0.06480000
30
  0.00000000
11
  0.12850000
21
 -0.06500000
31
  0.00000000
0
LINE
8
DC
6
GESTRICHELT
62
7
10
  0.13010000
20
 -0.04500000
30
  0.00000000
11
  0.13010000
21
 -0.06500000
31
  0.00000000
0
SOLID
8
DC
62
255
10
  0.11690000
20
 -0.04500000
30
  0.00000000
11
  0.12200000
21
 -0.04500000
31
  0.00000000
12
  0.11690000
22
 -0.06510000
32
  0.00000000
13
  0.12200000
23
 -0.06510000
33
  0.00000000
0
LINE
8
DC
6
CONTINUOUS
62
7
10
  0.11690000
20
 -0.04500000
30
  0.00000000
11
  0.12200000
21
 -0.04500000
31
  0.00000000
0
LINE
8
DC
6
CONTINUOUS
62
7
10
  0.12200000
20
 -0.04500000
30
  0.00000000
11
  0.12200000
21
 -0.06510000
31
  0.00000000
0
LINE
8
DC
6
CONTINUOUS
62
7
10
  0.12200000
20
 -0.06510000
30
  0.00000000
11
  0.11690000
21
 -0.06510000
31
  0.00000000
0
LINE
8
DC
6
CONTINUOUS
62
7
10
  0.11690000
20
 -0.06510000
30
  0.00000000
11
  0.11690000
21
 -0.04500000
31
  0.00000000
0
SOLID
8
DC
62
30
10
  0.12200000
20
 -0.04500000
30
  0.00000000
11
  0.12700000
21
 -0.04500000
31
  0.00000000
12
  0.12200000
22
 -0.06510000
32
  0.00000000
13
  0.12700000
23
 -0.06510000
33
  0.00000000
0
LINE
8
DC
6
CONTINUOUS
62
7
10
  0.12200000
20
 -0.04500000
30
  0.00000000
11
  0.12700000
21
 -0.04500000
31
  0.00000000
0
LINE
8
DC
6
CONTINUOUS
62
7
10
  0.12700000
20
 -0.04500000
30
  0.00000000
11
  0.12700000
21
 -0.06510000
31
  0.00000000
0
LINE
8
DC
6
CONTINUOUS
62
7
10
  0.12700000
20
 -0.06510000
30
  0.00000000
11
  0.12200000
21
 -0.06510000
31
  0.00000000
0
LINE
8
DC
6
CONTINUOUS
62
7
10
  0.12200000
20
 -0.06510000
30
  0.00000000
11
  0.12200000
21
 -0.04500000
31
  0.00000000
0
TEXT
8
DC
62
7
10
  0.11940000
20
 -0.04520000
30
  0.00000000
40
  0.00325000
41
  0.60000000
1
A
50
  0.00000000
72
1
73
3
11
  0.11940000
21
 -0.04520000
31
  0.00000000
0
TEXT
8
DC
62
7
10
  0.11850000
20
 -0.05100000
30
  0.00000000
40
  0.00216667
41
  0.60000000
1
M
50
  0.00000000
72
1
73
3
11
  0.11850000
21
 -0.05100000
31
  0.00000000
0
TEXT
8
DC
62
7
10
  0.12090000
20
 -0.05100000
30
  0.00000000
40
  0.00216667
41
  0.60000000
1
u
50
  0.00000000
72
1
73
3
11
  0.12090000
21
 -0.05100000
31
  0.00000000
0
TEXT
8
DC
62
7
10
  0.11940000
20
 -0.05520000
30
  0.00000000
40
  0.00325000
41
  0.60000000
1
A
50
  0.00000000
72
1
73
3
11
  0.11940000
21
 -0.05520000
31
  0.00000000
0
TEXT
8
DC
62
7
10
  0.11850000
20
 -0.06100000
30
  0.00000000
40
  0.00216667
41
  0.60000000
1
M
50
  0.00000000
72
1
73
3
11
  0.11850000
21
 -0.06100000
31
  0.00000000
0
TEXT
8
DC
62
7
10
  0.12090000
20
 -0.06100000
30
  0.00000000
40
  0.00216667
41
  0.60000000
1
u
50
  0.00000000
72
1
73
3
11
  0.12090000
21
 -0.06100000
31
  0.00000000
0
LINE
8
DC
6
CONTINUOUS
62
7
10
  0.12350000
20
 -0.04710000
30
  0.00000000
11
  0.12350000
21
 -0.04710000
31
  0.00000000
0
LINE
8
DC
6
CONTINUOUS
62
7
10
  0.12328206
20
 -0.04705000
30
  0.00000000
11
  0.12371794
21
 -0.04705000
31
  0.00000000
0
LINE
8
DC
6
CONTINUOUS
62
7
10
  0.12320000
20
 -0.04700000
30
  0.00000000
11
  0.12380000
21
 -0.04700000
31
  0.00000000
0
LINE
8
DC
6
CONTINUOUS
62
7
10
  0.12314293
20
 -0.04695000
30
  0.00000000
11
  0.12385707
21
 -0.04695000
31
  0.00000000
0
LINE
8
DC
6
CONTINUOUS
62
7
10
  0.12310000
20
 -0.04690000
30
  0.00000000
11
  0.12390000
21
 -0.04690000
31
  0.00000000
0
LINE
8
DC
6
CONTINUOUS
62
7
10
  0.12306699
20
 -0.04685000
30
  0.00000000
11
  0.12393301
21
 -0.04685000
31
  0.00000000
0
LINE
8
DC
6
CONTINUOUS
62
7
10
  0.12304174
20
 -0.04680000
30
  0.00000000
11
  0.12395826
21
 -0.04680000
31
  0.00000000
0
LINE
8
DC
6
CONTINUOUS
62
7
10
  0.12302303
20
 -0.04675000
30
  0.00000000
11
  0.12397697
21
 -0.04675000
31
  0.00000000
0
LINE
8
DC
6
CONTINUOUS
62
7
10
  0.12301010
20
 -0.04670000
30
  0.00000000
11
  0.12398990
21
 -0.04670000
31
  0.00000000
0
LINE
8
DC
6
CONTINUOUS
62
7
10
  0.12300251
20
 -0.04665000
30
  0.00000000
11
  0.12399749
21
 -0.04665000
31
  0.00000000
0
LINE
8
DC
6
CONTINUOUS
62
7
10
  0.12300000
20
 -0.04660000
30
  0.00000000
11
  0.12400000
21
 -0.04660000
31
  0.00000000
0
LINE
8
DC
6
CONTINUOUS
62
7
10
  0.12300251
20
 -0.04655000
30
  0.00000000
11
  0.12399749
21
 -0.04655000
31
  0.00000000
0
LINE
8
DC
6
CONTINUOUS
62
7
10
  0.12301010
20
 -0.04650000
30
  0.00000000
11
  0.12398990
21
 -0.04650000
31
  0.00000000
0
LINE
8
DC
6
CONTINUOUS
62
7
10
  0.12302303
20
 -0.04645000
30
  0.00000000
11
  0.12397697
21
 -0.04645000
31
  0.00000000
0
LINE
8
DC
6
CONTINUOUS
62
7
10
  0.12304174
20
 -0.04640000
30
  0.00000000
11
  0.12395826
21
 -0.04640000
31
  0.00000000
0
LINE
8
DC
6
CONTINUOUS
62
7
10
  0.12306699
20
 -0.04635000
30
  0.00000000
11
  0.12393301
21
 -0.04635000
31
  0.00000000
0
LINE
8
DC
6
CONTINUOUS
62
7
10
  0.12310000
20
 -0.04630000
30
  0.00000000
11
  0.12390000
21
 -0.04630000
31
  0.00000000
0
LINE
8
DC
6
CONTINUOUS
62
7
10
  0.12314293
20
 -0.04625000
30
  0.00000000
11
  0.12385707
21
 -0.04625000
31
  0.00000000
0
LINE
8
DC
6
CONTINUOUS
62
7
10
  0.12320000
20
 -0.04620000
30
  0.00000000
11
  0.12380000
21
 -0.04620000
31
  0.00000000
0
LINE
8
DC
6
CONTINUOUS
62
7
10
  0.12328206
20
 -0.04615000
30
  0.00000000
11
  0.12371794
21
 -0.04615000
31
  0.00000000
0
CIRCLE
8
DC
6
CONTINUOUS
62
7
10
  0.12350000
20
 -0.04660000
30
  0.00000000
40
  0.00050000
0
LINE
8
DC
6
CONTINUOUS
62
7
10
  0.12510000
20
 -0.04710000
30
  0.00000000
11
  0.12510000
21
 -0.04710000
31
  0.00000000
0
LINE
8
DC
6
CONTINUOUS
62
7
10
  0.12488206
20
 -0.04705000
30
  0.00000000
11
  0.12531794
21
 -0.04705000
31
  0.00000000
0
LINE
8
DC
6
CONTINUOUS
62
7
10
  0.12480000
20
 -0.04700000
30
  0.00000000
11
  0.12540000
21
 -0.04700000
31
  0.00000000
0
LINE
8
DC
6
CONTINUOUS
62
7
10
  0.12474293
20
 -0.04695000
30
  0.00000000
11
  0.12545707
21
 -0.04695000
31
  0.00000000
0
LINE
8
DC
6
CONTINUOUS
62
7
10
  0.12470000
20
 -0.04690000
30
  0.00000000
11
  0.12550000
21
 -0.04690000
31
  0.00000000
0
LINE
8
DC
6
CONTINUOUS
62
7
10
  0.12466699
20
 -0.04685000
30
  0.00000000
11
  0.12553301
21
 -0.04685000
31
  0.00000000
0
LINE
8
DC
6
CONTINUOUS
62
7
10
  0.12464174
20
 -0.04680000
30
  0.00000000
11
  0.12555826
21
 -0.04680000
31
  0.00000000
0
LINE
8
DC
6
CONTINUOUS
62
7
10
  0.12462303
20
 -0.04675000
30
  0.00000000
11
  0.12557697
21
 -0.04675000
31
  0.00000000
0
LINE
8
DC
6
CONTINUOUS
62
7
10
  0.12461010
20
 -0.04670000
30
  0.00000000
11
  0.12558990
21
 -0.04670000
31
  0.00000000
0
LINE
8
DC
6
CONTINUOUS
62
7
10
  0.12460251
20
 -0.04665000
30
  0.00000000
11
  0.12559749
21
 -0.04665000
31
  0.00000000
0
LINE
8
DC
6
CONTINUOUS
62
7
10
  0.12460000
20
 -0.04660000
30
  0.00000000
11
  0.12560000
21
 -0.04660000
31
  0.00000000
0
LINE
8
DC
6
CONTINUOUS
62
7
10
  0.12460251
20
 -0.04655000
30
  0.00000000
11
  0.12559749
21
 -0.04655000
31
  0.00000000
0
LINE
8
DC
6
CONTINUOUS
62
7
10
  0.12461010
20
 -0.04650000
30
  0.00000000
11
  0.12558990
21
 -0.04650000
31
  0.00000000
0
LINE
8
DC
6
CONTINUOUS
62
7
10
  0.12462303
20
 -0.04645000
30
  0.00000000
11
  0.12557697
21
 -0.04645000
31
  0.00000000
0
LINE
8
DC
6
CONTINUOUS
62
7
10
  0.12464174
20
 -0.04640000
30
  0.00000000
11
  0.12555826
21
 -0.04640000
31
  0.00000000
0
LINE
8
DC
6
CONTINUOUS
62
7
10
  0.12466699
20
 -0.04635000
30
  0.00000000
11
  0.12553301
21
 -0.04635000
31
  0.00000000
0
LINE
8
DC
6
CONTINUOUS
62
7
10
  0.12470000
20
 -0.04630000
30
  0.00000000
11
  0.12550000
21
 -0.04630000
31
  0.00000000
0
LINE
8
DC
6
CONTINUOUS
62
7
10
  0.12474293
20
 -0.04625000
30
  0.00000000
11
  0.12545707
21
 -0.04625000
31
  0.00000000
0
LINE
8
DC
6
CONTINUOUS
62
7
10
  0.12480000
20
 -0.04620000
30
  0.00000000
11
  0.12540000
21
 -0.04620000
31
  0.00000000
0
LINE
8
DC
6
CONTINUOUS
62
7
10
  0.12488206
20
 -0.04615000
30
  0.00000000
11
  0.12531794
21
 -0.04615000
31
  0.00000000
0
CIRCLE
8
DC
6
CONTINUOUS
62
7
10
  0.12510000
20
 -0.04660000
30
  0.00000000
40
  0.00050000
0
LINE
8
DC
6
CONTINUOUS
62
7
10
  0.12290000
20
 -0.04710000
30
  0.00000000
11
  0.12590000
21
 -0.04710000
31
  0.00000000
0
LINE
8
DC
6
CONTINUOUS
62
7
10
  0.12210000
20
 -0.04900000
30
  0.00000000
11
  0.12210000
21
 -0.04900000
31
  0.00000000
0
LINE
8
DC
6
CONTINUOUS
62
7
10
  0.12196771
20
 -0.04895000
30
  0.00000000
11
  0.12223229
21
 -0.04895000
31
  0.00000000
0
LINE
8
DC
6
CONTINUOUS
62
7
10
  0.12192679
20
 -0.04890000
30
  0.00000000
11
  0.12227321
21
 -0.04890000
31
  0.00000000
0
LINE
8
DC
6
CONTINUOUS
62
7
10
  0.12190635
20
 -0.04885000
30
  0.00000000
11
  0.12229365
21
 -0.04885000
31
  0.00000000
0
LINE
8
DC
6
CONTINUOUS
62
7
10
  0.12190000
20
 -0.04880000
30
  0.00000000
11
  0.12230000
21
 -0.04880000
31
  0.00000000
0
LINE
8
DC
6
CONTINUOUS
62
7
10
  0.12190635
20
 -0.04875000
30
  0.00000000
11
  0.12229365
21
 -0.04875000
31
  0.00000000
0
LINE
8
DC
6
CONTINUOUS
62
7
10
  0.12192679
20
 -0.04870000
30
  0.00000000
11
  0.12227321
21
 -0.04870000
31
  0.00000000
0
LINE
8
DC
6
CONTINUOUS
62
7
10
  0.12196771
20
 -0.04865000
30
  0.00000000
11
  0.12223229
21
 -0.04865000
31
  0.00000000
0
CIRCLE
8
DC
6
CONTINUOUS
62
7
10
  0.12210000
20
 -0.04880000
30
  0.00000000
40
  0.00020000
0
LINE
8
DC
6
CONTINUOUS
62
7
10
  0.12310000
20
 -0.04900000
30
  0.00000000
11
  0.12310000
21
 -0.04900000
31
  0.00000000
0
LINE
8
DC
6
CONTINUOUS
62
7
10
  0.12296771
20
 -0.04895000
30
  0.00000000
11
  0.12323229
21
 -0.04895000
31
  0.00000000
0
LINE
8
DC
6
CONTINUOUS
62
7
10
  0.12292679
20
 -0.04890000
30
  0.00000000
11
  0.12327321
21
 -0.04890000
31
  0.00000000
0
LINE
8
DC
6
CONTINUOUS
62
7
10
  0.12290635
20
 -0.04885000
30
  0.00000000
11
  0.12329365
21
 -0.04885000
31
  0.00000000
0
LINE
8
DC
6
CONTINUOUS
62
7
10
  0.12290000
20
 -0.04880000
30
  0.00000000
11
  0.12330000
21
 -0.04880000
31
  0.00000000
0
LINE
8
DC
6
CONTINUOUS
62
7
10
  0.12290635
20
 -0.04875000
30
  0.00000000
11
  0.12329365
21
 -0.04875000
31
  0.00000000
0
LINE
8
DC
6
CONTINUOUS
62
7
10
  0.12292679
20
 -0.04870000
30
  0.00000000
11
  0.12327321
21
 -0.04870000
31
  0.00000000
0
LINE
8
DC
6
CONTINUOUS
62
7
10
  0.12296771
20
 -0.04865000
30
  0.00000000
11
  0.12323229
21
 -0.04865000
31
  0.00000000
0
CIRCLE
8
DC
6
CONTINUOUS
62
7
10
  0.12310000
20
 -0.04880000
30
  0.00000000
40
  0.00020000
0
LINE
8
DC
6
CONTINUOUS
62
7
10
  0.12410000
20
 -0.04900000
30
  0.00000000
11
  0.12410000
21
 -0.04900000
31
  0.00000000
0
LINE
8
DC
6
CONTINUOUS
62
7
10
  0.12396771
20
 -0.04895000
30
  0.00000000
11
  0.12423229
21
 -0.04895000
31
  0.00000000
0
LINE
8
DC
6
CONTINUOUS
62
7
10
  0.12392679
20
 -0.04890000
30
  0.00000000
11
  0.12427321
21
 -0.04890000
31
  0.00000000
0
LINE
8
DC
6
CONTINUOUS
62
7
10
  0.12390635
20
 -0.04885000
30
  0.00000000
11
  0.12429365
21
 -0.04885000
31
  0.00000000
0
LINE
8
DC
6
CONTINUOUS
62
7
10
  0.12390000
20
 -0.04880000
30
  0.00000000
11
  0.12430000
21
 -0.04880000
31
  0.00000000
0
LINE
8
DC
6
CONTINUOUS
62
7
10
  0.12390635
20
 -0.04875000
30
  0.00000000
11
  0.12429365
21
 -0.04875000
31
  0.00000000
0
LINE
8
DC
6
CONTINUOUS
62
7
10
  0.12392679
20
 -0.04870000
30
  0.00000000
11
  0.12427321
21
 -0.04870000
31
  0.00000000
0
LINE
8
DC
6
CONTINUOUS
62
7
10
  0.12396771
20
 -0.04865000
30
  0.00000000
11
  0.12423229
21
 -0.04865000
31
  0.00000000
0
CIRCLE
8
DC
6
CONTINUOUS
62
7
10
  0.12410000
20
 -0.04880000
30
  0.00000000
40
  0.00020000
0
LINE
8
DC
6
CONTINUOUS
62
7
10
  0.12510000
20
 -0.04900000
30
  0.00000000
11
  0.12510000
21
 -0.04900000
31
  0.00000000
0
LINE
8
DC
6
CONTINUOUS
62
7
10
  0.12496771
20
 -0.04895000
30
  0.00000000
11
  0.12523229
21
 -0.04895000
31
  0.00000000
0
LINE
8
DC
6
CONTINUOUS
62
7
10
  0.12492679
20
 -0.04890000
30
  0.00000000
11
  0.12527321
21
 -0.04890000
31
  0.00000000
0
LINE
8
DC
6
CONTINUOUS
62
7
10
  0.12490635
20
 -0.04885000
30
  0.00000000
11
  0.12529365
21
 -0.04885000
31
  0.00000000
0
LINE
8
DC
6
CONTINUOUS
62
7
10
  0.12490000
20
 -0.04880000
30
  0.00000000
11
  0.12530000
21
 -0.04880000
31
  0.00000000
0
LINE
8
DC
6
CONTINUOUS
62
7
10
  0.12490635
20
 -0.04875000
30
  0.00000000
11
  0.12529365
21
 -0.04875000
31
  0.00000000
0
LINE
8
DC
6
CONTINUOUS
62
7
10
  0.12492679
20
 -0.04870000
30
  0.00000000
11
  0.12527321
21
 -0.04870000
31
  0.00000000
0
LINE
8
DC
6
CONTINUOUS
62
7
10
  0.12496771
20
 -0.04865000
30
  0.00000000
11
  0.12523229
21
 -0.04865000
31
  0.00000000
0
CIRCLE
8
DC
6
CONTINUOUS
62
7
10
  0.12510000
20
 -0.04880000
30
  0.00000000
40
  0.00020000
0
LINE
8
DC
6
CONTINUOUS
62
7
10
  0.12610000
20
 -0.04900000
30
  0.00000000
11
  0.12610000
21
 -0.04900000
31
  0.00000000
0
LINE
8
DC
6
CONTINUOUS
62
7
10
  0.12596771
20
 -0.04895000
30
  0.00000000
11
  0.12623229
21
 -0.04895000
31
  0.00000000
0
LINE
8
DC
6
CONTINUOUS
62
7
10
  0.12592679
20
 -0.04890000
30
  0.00000000
11
  0.12627321
21
 -0.04890000
31
  0.00000000
0
LINE
8
DC
6
CONTINUOUS
62
7
10
  0.12590635
20
 -0.04885000
30
  0.00000000
11
  0.12629365
21
 -0.04885000
31
  0.00000000
0
LINE
8
DC
6
CONTINUOUS
62
7
10
  0.12590000
20
 -0.04880000
30
  0.00000000
11
  0.12630000
21
 -0.04880000
31
  0.00000000
0
LINE
8
DC
6
CONTINUOUS
62
7
10
  0.12590635
20
 -0.04875000
30
  0.00000000
11
  0.12629365
21
 -0.04875000
31
  0.00000000
0
LINE
8
DC
6
CONTINUOUS
62
7
10
  0.12592679
20
 -0.04870000
30
  0.00000000
11
  0.12627321
21
 -0.04870000
31
  0.00000000
0
LINE
8
DC
6
CONTINUOUS
62
7
10
  0.12596771
20
 -0.04865000
30
  0.00000000
11
  0.12623229
21
 -0.04865000
31
  0.00000000
0
CIRCLE
8
DC
6
CONTINUOUS
62
7
10
  0.12610000
20
 -0.04880000
30
  0.00000000
40
  0.00020000
0
LINE
8
DC
6
CONTINUOUS
62
7
10
  0.12210000
20
 -0.05120000
30
  0.00000000
11
  0.12210000
21
 -0.05120000
31
  0.00000000
0
LINE
8
DC
6
CONTINUOUS
62
7
10
  0.12196771
20
 -0.05115000
30
  0.00000000
11
  0.12223229
21
 -0.05115000
31
  0.00000000
0
LINE
8
DC
6
CONTINUOUS
62
7
10
  0.12192679
20
 -0.05110000
30
  0.00000000
11
  0.12227321
21
 -0.05110000
31
  0.00000000
0
LINE
8
DC
6
CONTINUOUS
62
7
10
  0.12190635
20
 -0.05105000
30
  0.00000000
11
  0.12229365
21
 -0.05105000
31
  0.00000000
0
LINE
8
DC
6
CONTINUOUS
62
7
10
  0.12190000
20
 -0.05100000
30
  0.00000000
11
  0.12230000
21
 -0.05100000
31
  0.00000000
0
LINE
8
DC
6
CONTINUOUS
62
7
10
  0.12190635
20
 -0.05095000
30
  0.00000000
11
  0.12229365
21
 -0.05095000
31
  0.00000000
0
LINE
8
DC
6
CONTINUOUS
62
7
10
  0.12192679
20
 -0.05090000
30
  0.00000000
11
  0.12227321
21
 -0.05090000
31
  0.00000000
0
LINE
8
DC
6
CONTINUOUS
62
7
10
  0.12196771
20
 -0.05085000
30
  0.00000000
11
  0.12223229
21
 -0.05085000
31
  0.00000000
0
CIRCLE
8
DC
6
CONTINUOUS
62
7
10
  0.12210000
20
 -0.05100000
30
  0.00000000
40
  0.00020000
0
LINE
8
DC
6
CONTINUOUS
62
7
10
  0.12310000
20
 -0.05120000
30
  0.00000000
11
  0.12310000
21
 -0.05120000
31
  0.00000000
0
LINE
8
DC
6
CONTINUOUS
62
7
10
  0.12296771
20
 -0.05115000
30
  0.00000000
11
  0.12323229
21
 -0.05115000
31
  0.00000000
0
LINE
8
DC
6
CONTINUOUS
62
7
10
  0.12292679
20
 -0.05110000
30
  0.00000000
11
  0.12327321
21
 -0.05110000
31
  0.00000000
0
LINE
8
DC
6
CONTINUOUS
62
7
10
  0.12290635
20
 -0.05105000
30
  0.00000000
11
  0.12329365
21
 -0.05105000
31
  0.00000000
0
LINE
8
DC
6
CONTINUOUS
62
7
10
  0.12290000
20
 -0.05100000
30
  0.00000000
11
  0.12330000
21
 -0.05100000
31
  0.00000000
0
LINE
8
DC
6
CONTINUOUS
62
7
10
  0.12290635
20
 -0.05095000
30
  0.00000000
11
  0.12329365
21
 -0.05095000
31
  0.00000000
0
LINE
8
DC
6
CONTINUOUS
62
7
10
  0.12292679
20
 -0.05090000
30
  0.00000000
11
  0.12327321
21
 -0.05090000
31
  0.00000000
0
LINE
8
DC
6
CONTINUOUS
62
7
10
  0.12296771
20
 -0.05085000
30
  0.00000000
11
  0.12323229
21
 -0.05085000
31
  0.00000000
0
CIRCLE
8
DC
6
CONTINUOUS
62
7
10
  0.12310000
20
 -0.05100000
30
  0.00000000
40
  0.00020000
0
LINE
8
DC
6
CONTINUOUS
62
7
10
  0.12410000
20
 -0.05120000
30
  0.00000000
11
  0.12410000
21
 -0.05120000
31
  0.00000000
0
LINE
8
DC
6
CONTINUOUS
62
7
10
  0.12396771
20
 -0.05115000
30
  0.00000000
11
  0.12423229
21
 -0.05115000
31
  0.00000000
0
LINE
8
DC
6
CONTINUOUS
62
7
10
  0.12392679
20
 -0.05110000
30
  0.00000000
11
  0.12427321
21
 -0.05110000
31
  0.00000000
0
LINE
8
DC
6
CONTINUOUS
62
7
10
  0.12390635
20
 -0.05105000
30
  0.00000000
11
  0.12429365
21
 -0.05105000
31
  0.00000000
0
LINE
8
DC
6
CONTINUOUS
62
7
10
  0.12390000
20
 -0.05100000
30
  0.00000000
11
  0.12430000
21
 -0.05100000
31
  0.00000000
0
LINE
8
DC
6
CONTINUOUS
62
7
10
  0.12390635
20
 -0.05095000
30
  0.00000000
11
  0.12429365
21
 -0.05095000
31
  0.00000000
0
LINE
8
DC
6
CONTINUOUS
62
7
10
  0.12392679
20
 -0.05090000
30
  0.00000000
11
  0.12427321
21
 -0.05090000
31
  0.00000000
0
LINE
8
DC
6
CONTINUOUS
62
7
10
  0.12396771
20
 -0.05085000
30
  0.00000000
11
  0.12423229
21
 -0.05085000
31
  0.00000000
0
CIRCLE
8
DC
6
CONTINUOUS
62
7
10
  0.12410000
20
 -0.05100000
30
  0.00000000
40
  0.00020000
0
LINE
8
DC
6
CONTINUOUS
62
7
10
  0.12510000
20
 -0.05120000
30
  0.00000000
11
  0.12510000
21
 -0.05120000
31
  0.00000000
0
LINE
8
DC
6
CONTINUOUS
62
7
10
  0.12496771
20
 -0.05115000
30
  0.00000000
11
  0.12523229
21
 -0.05115000
31
  0.00000000
0
LINE
8
DC
6
CONTINUOUS
62
7
10
  0.12492679
20
 -0.05110000
30
  0.00000000
11
  0.12527321
21
 -0.05110000
31
  0.00000000
0
LINE
8
DC
6
CONTINUOUS
62
7
10
  0.12490635
20
 -0.05105000
30
  0.00000000
11
  0.12529365
21
 -0.05105000
31
  0.00000000
0
LINE
8
DC
6
CONTINUOUS
62
7
10
  0.12490000
20
 -0.05100000
30
  0.00000000
11
  0.12530000
21
 -0.05100000
31
  0.00000000
0
LINE
8
DC
6
CONTINUOUS
62
7
10
  0.12490635
20
 -0.05095000
30
  0.00000000
11
  0.12529365
21
 -0.05095000
31
  0.00000000
0
LINE
8
DC
6
CONTINUOUS
62
7
10
  0.12492679
20
 -0.05090000
30
  0.00000000
11
  0.12527321
21
 -0.05090000
31
  0.00000000
0
LINE
8
DC
6
CONTINUOUS
62
7
10
  0.12496771
20
 -0.05085000
30
  0.00000000
11
  0.12523229
21
 -0.05085000
31
  0.00000000
0
CIRCLE
8
DC
6
CONTINUOUS
62
7
10
  0.12510000
20
 -0.05100000
30
  0.00000000
40
  0.00020000
0
LINE
8
DC
6
CONTINUOUS
62
7
10
  0.12610000
20
 -0.05120000
30
  0.00000000
11
  0.12610000
21
 -0.05120000
31
  0.00000000
0
LINE
8
DC
6
CONTINUOUS
62
7
10
  0.12596771
20
 -0.05115000
30
  0.00000000
11
  0.12623229
21
 -0.05115000
31
  0.00000000
0
LINE
8
DC
6
CONTINUOUS
62
7
10
  0.12592679
20
 -0.05110000
30
  0.00000000
11
  0.12627321
21
 -0.05110000
31
  0.00000000
0
LINE
8
DC
6
CONTINUOUS
62
7
10
  0.12590635
20
 -0.05105000
30
  0.00000000
11
  0.12629365
21
 -0.05105000
31
  0.00000000
0
LINE
8
DC
6
CONTINUOUS
62
7
10
  0.12590000
20
 -0.05100000
30
  0.00000000
11
  0.12630000
21
 -0.05100000
31
  0.00000000
0
LINE
8
DC
6
CONTINUOUS
62
7
10
  0.12590635
20
 -0.05095000
30
  0.00000000
11
  0.12629365
21
 -0.05095000
31
  0.00000000
0
LINE
8
DC
6
CONTINUOUS
62
7
10
  0.12592679
20
 -0.05090000
30
  0.00000000
11
  0.12627321
21
 -0.05090000
31
  0.00000000
0
LINE
8
DC
6
CONTINUOUS
62
7
10
  0.12596771
20
 -0.05085000
30
  0.00000000
11
  0.12623229
21
 -0.05085000
31
  0.00000000
0
CIRCLE
8
DC
6
CONTINUOUS
62
7
10
  0.12610000
20
 -0.05100000
30
  0.00000000
40
  0.00020000
0
LINE
8
DC
6
CONTINUOUS
62
7
10
  0.12260000
20
 -0.05010000
30
  0.00000000
11
  0.12260000
21
 -0.05010000
31
  0.00000000
0
LINE
8
DC
6
CONTINUOUS
62
7
10
  0.12246771
20
 -0.05005000
30
  0.00000000
11
  0.12273229
21
 -0.05005000
31
  0.00000000
0
LINE
8
DC
6
CONTINUOUS
62
7
10
  0.12242679
20
 -0.05000000
30
  0.00000000
11
  0.12277321
21
 -0.05000000
31
  0.00000000
0
LINE
8
DC
6
CONTINUOUS
62
7
10
  0.12240635
20
 -0.04995000
30
  0.00000000
11
  0.12279365
21
 -0.04995000
31
  0.00000000
0
LINE
8
DC
6
CONTINUOUS
62
7
10
  0.12240000
20
 -0.04990000
30
  0.00000000
11
  0.12280000
21
 -0.04990000
31
  0.00000000
0
LINE
8
DC
6
CONTINUOUS
62
7
10
  0.12240635
20
 -0.04985000
30
  0.00000000
11
  0.12279365
21
 -0.04985000
31
  0.00000000
0
LINE
8
DC
6
CONTINUOUS
62
7
10
  0.12242679
20
 -0.04980000
30
  0.00000000
11
  0.12277321
21
 -0.04980000
31
  0.00000000
0
LINE
8
DC
6
CONTINUOUS
62
7
10
  0.12246771
20
 -0.04975000
30
  0.00000000
11
  0.12273229
21
 -0.04975000
31
  0.00000000
0
CIRCLE
8
DC
6
CONTINUOUS
62
7
10
  0.12260000
20
 -0.04990000
30
  0.00000000
40
  0.00020000
0
LINE
8
DC
6
CONTINUOUS
62
7
10
  0.12360000
20
 -0.05010000
30
  0.00000000
11
  0.12360000
21
 -0.05010000
31
  0.00000000
0
LINE
8
DC
6
CONTINUOUS
62
7
10
  0.12346771
20
 -0.05005000
30
  0.00000000
11
  0.12373229
21
 -0.05005000
31
  0.00000000
0
LINE
8
DC
6
CONTINUOUS
62
7
10
  0.12342679
20
 -0.05000000
30
  0.00000000
11
  0.12377321
21
 -0.05000000
31
  0.00000000
0
LINE
8
DC
6
CONTINUOUS
62
7
10
  0.12340635
20
 -0.04995000
30
  0.00000000
11
  0.12379365
21
 -0.04995000
31
  0.00000000
0
LINE
8
DC
6
CONTINUOUS
62
7
10
  0.12340000
20
 -0.04990000
30
  0.00000000
11
  0.12380000
21
 -0.04990000
31
  0.00000000
0
LINE
8
DC
6
CONTINUOUS
62
7
10
  0.12340635
20
 -0.04985000
30
  0.00000000
11
  0.12379365
21
 -0.04985000
31
  0.00000000
0
LINE
8
DC
6
CONTINUOUS
62
7
10
  0.12342679
20
 -0.04980000
30
  0.00000000
11
  0.12377321
21
 -0.04980000
31
  0.00000000
0
LINE
8
DC
6
CONTINUOUS
62
7
10
  0.12346771
20
 -0.04975000
30
  0.00000000
11
  0.12373229
21
 -0.04975000
31
  0.00000000
0
CIRCLE
8
DC
6
CONTINUOUS
62
7
10
  0.12360000
20
 -0.04990000
30
  0.00000000
40
  0.00020000
0
LINE
8
DC
6
CONTINUOUS
62
7
10
  0.12460000
20
 -0.05010000
30
  0.00000000
11
  0.12460000
21
 -0.05010000
31
  0.00000000
0
LINE
8
DC
6
CONTINUOUS
62
7
10
  0.12446771
20
 -0.05005000
30
  0.00000000
11
  0.12473229
21
 -0.05005000
31
  0.00000000
0
LINE
8
DC
6
CONTINUOUS
62
7
10
  0.12442679
20
 -0.05000000
30
  0.00000000
11
  0.12477321
21
 -0.05000000
31
  0.00000000
0
LINE
8
DC
6
CONTINUOUS
62
7
10
  0.12440635
20
 -0.04995000
30
  0.00000000
11
  0.12479365
21
 -0.04995000
31
  0.00000000
0
LINE
8
DC
6
CONTINUOUS
62
7
10
  0.12440000
20
 -0.04990000
30
  0.00000000
11
  0.12480000
21
 -0.04990000
31
  0.00000000
0
LINE
8
DC
6
CONTINUOUS
62
7
10
  0.12440635
20
 -0.04985000
30
  0.00000000
11
  0.12479365
21
 -0.04985000
31
  0.00000000
0
LINE
8
DC
6
CONTINUOUS
62
7
10
  0.12442679
20
 -0.04980000
30
  0.00000000
11
  0.12477321
21
 -0.04980000
31
  0.00000000
0
LINE
8
DC
6
CONTINUOUS
62
7
10
  0.12446771
20
 -0.04975000
30
  0.00000000
11
  0.12473229
21
 -0.04975000
31
  0.00000000
0
CIRCLE
8
DC
6
CONTINUOUS
62
7
10
  0.12460000
20
 -0.04990000
30
  0.00000000
40
  0.00020000
0
LINE
8
DC
6
CONTINUOUS
62
7
10
  0.12560000
20
 -0.05010000
30
  0.00000000
11
  0.12560000
21
 -0.05010000
31
  0.00000000
0
LINE
8
DC
6
CONTINUOUS
62
7
10
  0.12546771
20
 -0.05005000
30
  0.00000000
11
  0.12573229
21
 -0.05005000
31
  0.00000000
0
LINE
8
DC
6
CONTINUOUS
62
7
10
  0.12542679
20
 -0.05000000
30
  0.00000000
11
  0.12577321
21
 -0.05000000
31
  0.00000000
0
LINE
8
DC
6
CONTINUOUS
62
7
10
  0.12540635
20
 -0.04995000
30
  0.00000000
11
  0.12579365
21
 -0.04995000
31
  0.00000000
0
LINE
8
DC
6
CONTINUOUS
62
7
10
  0.12540000
20
 -0.04990000
30
  0.00000000
11
  0.12580000
21
 -0.04990000
31
  0.00000000
0
LINE
8
DC
6
CONTINUOUS
62
7
10
  0.12540635
20
 -0.04985000
30
  0.00000000
11
  0.12579365
21
 -0.04985000
31
  0.00000000
0
LINE
8
DC
6
CONTINUOUS
62
7
10
  0.12542679
20
 -0.04980000
30
  0.00000000
11
  0.12577321
21
 -0.04980000
31
  0.00000000
0
LINE
8
DC
6
CONTINUOUS
62
7
10
  0.12546771
20
 -0.04975000
30
  0.00000000
11
  0.12573229
21
 -0.04975000
31
  0.00000000
0
CIRCLE
8
DC
6
CONTINUOUS
62
7
10
  0.12560000
20
 -0.04990000
30
  0.00000000
40
  0.00020000
0
LINE
8
DC
6
CONTINUOUS
62
7
10
  0.12660000
20
 -0.05010000
30
  0.00000000
11
  0.12660000
21
 -0.05010000
31
  0.00000000
0
LINE
8
DC
6
CONTINUOUS
62
7
10
  0.12646771
20
 -0.05005000
30
  0.00000000
11
  0.12673229
21
 -0.05005000
31
  0.00000000
0
LINE
8
DC
6
CONTINUOUS
62
7
10
  0.12642679
20
 -0.05000000
30
  0.00000000
11
  0.12677321
21
 -0.05000000
31
  0.00000000
0
LINE
8
DC
6
CONTINUOUS
62
7
10
  0.12640635
20
 -0.04995000
30
  0.00000000
11
  0.12679365
21
 -0.04995000
31
  0.00000000
0
LINE
8
DC
6
CONTINUOUS
62
7
10
  0.12640000
20
 -0.04990000
30
  0.00000000
11
  0.12680000
21
 -0.04990000
31
  0.00000000
0
LINE
8
DC
6
CONTINUOUS
62
7
10
  0.12640635
20
 -0.04985000
30
  0.00000000
11
  0.12679365
21
 -0.04985000
31
  0.00000000
0
LINE
8
DC
6
CONTINUOUS
62
7
10
  0.12642679
20
 -0.04980000
30
  0.00000000
11
  0.12677321
21
 -0.04980000
31
  0.00000000
0
LINE
8
DC
6
CONTINUOUS
62
7
10
  0.12646771
20
 -0.04975000
30
  0.00000000
11
  0.12673229
21
 -0.04975000
31
  0.00000000
0
CIRCLE
8
DC
6
CONTINUOUS
62
7
10
  0.12660000
20
 -0.04990000
30
  0.00000000
40
  0.00020000
0
TEXT
8
DC
62
7
10
  0.12440000
20
 -0.05180000
30
  0.00000000
40
  0.00325000
41
  0.60000000
1
A
50
  0.00000000
72
1
73
3
11
  0.12440000
21
 -0.05180000
31
  0.00000000
0
TEXT
8
DC
62
7
10
  0.12350000
20
 -0.05760000
30
  0.00000000
40
  0.00216667
41
  0.60000000
1
M
50
  0.00000000
72
1
73
3
11
  0.12350000
21
 -0.05760000
31
  0.00000000
0
TEXT
8
DC
62
7
10
  0.12590000
20
 -0.05760000
30
  0.00000000
40
  0.00216667
41
  0.60000000
1
u
50
  0.00000000
72
1
73
3
11
  0.12590000
21
 -0.05760000
31
  0.00000000
0
LINE
8
DC
6
CONTINUOUS
62
7
10
  0.12350000
20
 -0.06370000
30
  0.00000000
11
  0.12350000
21
 -0.06370000
31
  0.00000000
0
LINE
8
DC
6
CONTINUOUS
62
7
10
  0.12328206
20
 -0.06365000
30
  0.00000000
11
  0.12371794
21
 -0.06365000
31
  0.00000000
0
LINE
8
DC
6
CONTINUOUS
62
7
10
  0.12320000
20
 -0.06360000
30
  0.00000000
11
  0.12380000
21
 -0.06360000
31
  0.00000000
0
LINE
8
DC
6
CONTINUOUS
62
7
10
  0.12314293
20
 -0.06355000
30
  0.00000000
11
  0.12385707
21
 -0.06355000
31
  0.00000000
0
LINE
8
DC
6
CONTINUOUS
62
7
10
  0.12310000
20
 -0.06350000
30
  0.00000000
11
  0.12390000
21
 -0.06350000
31
  0.00000000
0
LINE
8
DC
6
CONTINUOUS
62
7
10
  0.12306699
20
 -0.06345000
30
  0.00000000
11
  0.12393301
21
 -0.06345000
31
  0.00000000
0
LINE
8
DC
6
CONTINUOUS
62
7
10
  0.12304174
20
 -0.06340000
30
  0.00000000
11
  0.12395826
21
 -0.06340000
31
  0.00000000
0
LINE
8
DC
6
CONTINUOUS
62
7
10
  0.12302303
20
 -0.06335000
30
  0.00000000
11
  0.12397697
21
 -0.06335000
31
  0.00000000
0
LINE
8
DC
6
CONTINUOUS
62
7
10
  0.12301010
20
 -0.06330000
30
  0.00000000
11
  0.12398990
21
 -0.06330000
31
  0.00000000
0
LINE
8
DC
6
CONTINUOUS
62
7
10
  0.12300251
20
 -0.06325000
30
  0.00000000
11
  0.12399749
21
 -0.06325000
31
  0.00000000
0
LINE
8
DC
6
CONTINUOUS
62
7
10
  0.12300000
20
 -0.06320000
30
  0.00000000
11
  0.12400000
21
 -0.06320000
31
  0.00000000
0
LINE
8
DC
6
CONTINUOUS
62
7
10
  0.12300251
20
 -0.06315000
30
  0.00000000
11
  0.12399749
21
 -0.06315000
31
  0.00000000
0
LINE
8
DC
6
CONTINUOUS
62
7
10
  0.12301010
20
 -0.06310000
30
  0.00000000
11
  0.12398990
21
 -0.06310000
31
  0.00000000
0
LINE
8
DC
6
CONTINUOUS
62
7
10
  0.12302303
20
 -0.06305000
30
  0.00000000
11
  0.12397697
21
 -0.06305000
31
  0.00000000
0
LINE
8
DC
6
CONTINUOUS
62
7
10
  0.12304174
20
 -0.06300000
30
  0.00000000
11
  0.12395826
21
 -0.06300000
31
  0.00000000
0
LINE
8
DC
6
CONTINUOUS
62
7
10
  0.12306699
20
 -0.06295000
30
  0.00000000
11
  0.12393301
21
 -0.06295000
31
  0.00000000
0
LINE
8
DC
6
CONTINUOUS
62
7
10
  0.12310000
20
 -0.06290000
30
  0.00000000
11
  0.12390000
21
 -0.06290000
31
  0.00000000
0
LINE
8
DC
6
CONTINUOUS
62
7
10
  0.12314293
20
 -0.06285000
30
  0.00000000
11
  0.12385707
21
 -0.06285000
31
  0.00000000
0
LINE
8
DC
6
CONTINUOUS
62
7
10
  0.12320000
20
 -0.06280000
30
  0.00000000
11
  0.12380000
21
 -0.06280000
31
  0.00000000
0
LINE
8
DC
6
CONTINUOUS
62
7
10
  0.12328206
20
 -0.06275000
30
  0.00000000
11
  0.12371794
21
 -0.06275000
31
  0.00000000
0
CIRCLE
8
DC
6
CONTINUOUS
62
7
10
  0.12350000
20
 -0.06320000
30
  0.00000000
40
  0.00050000
0
LINE
8
DC
6
CONTINUOUS
62
7
10
  0.12510000
20
 -0.06370000
30
  0.00000000
11
  0.12510000
21
 -0.06370000
31
  0.00000000
0
LINE
8
DC
6
CONTINUOUS
62
7
10
  0.12488206
20
 -0.06365000
30
  0.00000000
11
  0.12531794
21
 -0.06365000
31
  0.00000000
0
LINE
8
DC
6
CONTINUOUS
62
7
10
  0.12480000
20
 -0.06360000
30
  0.00000000
11
  0.12540000
21
 -0.06360000
31
  0.00000000
0
LINE
8
DC
6
CONTINUOUS
62
7
10
  0.12474293
20
 -0.06355000
30
  0.00000000
11
  0.12545707
21
 -0.06355000
31
  0.00000000
0
LINE
8
DC
6
CONTINUOUS
62
7
10
  0.12470000
20
 -0.06350000
30
  0.00000000
11
  0.12550000
21
 -0.06350000
31
  0.00000000
0
LINE
8
DC
6
CONTINUOUS
62
7
10
  0.12466699
20
 -0.06345000
30
  0.00000000
11
  0.12553301
21
 -0.06345000
31
  0.00000000
0
LINE
8
DC
6
CONTINUOUS
62
7
10
  0.12464174
20
 -0.06340000
30
  0.00000000
11
  0.12555826
21
 -0.06340000
31
  0.00000000
0
LINE
8
DC
6
CONTINUOUS
62
7
10
  0.12462303
20
 -0.06335000
30
  0.00000000
11
  0.12557697
21
 -0.06335000
31
  0.00000000
0
LINE
8
DC
6
CONTINUOUS
62
7
10
  0.12461010
20
 -0.06330000
30
  0.00000000
11
  0.12558990
21
 -0.06330000
31
  0.00000000
0
LINE
8
DC
6
CONTINUOUS
62
7
10
  0.12460251
20
 -0.06325000
30
  0.00000000
11
  0.12559749
21
 -0.06325000
31
  0.00000000
0
LINE
8
DC
6
CONTINUOUS
62
7
10
  0.12460000
20
 -0.06320000
30
  0.00000000
11
  0.12560000
21
 -0.06320000
31
  0.00000000
0
LINE
8
DC
6
CONTINUOUS
62
7
10
  0.12460251
20
 -0.06315000
30
  0.00000000
11
  0.12559749
21
 -0.06315000
31
  0.00000000
0
LINE
8
DC
6
CONTINUOUS
62
7
10
  0.12461010
20
 -0.06310000
30
  0.00000000
11
  0.12558990
21
 -0.06310000
31
  0.00000000
0
LINE
8
DC
6
CONTINUOUS
62
7
10
  0.12462303
20
 -0.06305000
30
  0.00000000
11
  0.12557697
21
 -0.06305000
31
  0.00000000
0
LINE
8
DC
6
CONTINUOUS
62
7
10
  0.12464174
20
 -0.06300000
30
  0.00000000
11
  0.12555826
21
 -0.06300000
31
  0.00000000
0
LINE
8
DC
6
CONTINUOUS
62
7
10
  0.12466699
20
 -0.06295000
30
  0.00000000
11
  0.12553301
21
 -0.06295000
31
  0.00000000
0
LINE
8
DC
6
CONTINUOUS
62
7
10
  0.12470000
20
 -0.06290000
30
  0.00000000
11
  0.12550000
21
 -0.06290000
31
  0.00000000
0
LINE
8
DC
6
CONTINUOUS
62
7
10
  0.12474293
20
 -0.06285000
30
  0.00000000
11
  0.12545707
21
 -0.06285000
31
  0.00000000
0
LINE
8
DC
6
CONTINUOUS
62
7
10
  0.12480000
20
 -0.06280000
30
  0.00000000
11
  0.12540000
21
 -0.06280000
31
  0.00000000
0
LINE
8
DC
6
CONTINUOUS
62
7
10
  0.12488206
20
 -0.06275000
30
  0.00000000
11
  0.12531794
21
 -0.06275000
31
  0.00000000
0
CIRCLE
8
DC
6
CONTINUOUS
62
7
10
  0.12510000
20
 -0.06320000
30
  0.00000000
40
  0.00050000
0
LINE
8
DC
6
CONTINUOUS
62
7
10
  0.11690000
20
 -0.04500000
30
  0.00000000
11
  0.17390000
21
 -0.04500000
31
  0.00000000
0
LINE
8
DC
6
CONTINUOUS
62
7
10
  0.11690000
20
 -0.06500000
30
  0.00000000
11
  0.11590000
21
 -0.06500000
31
  0.00000000
0
LINE
8
DC
6
CONTINUOUS
62
7
10
  0.10650000
20
 -0.06500000
30
  0.00000000
11
  0.11590000
21
 -0.06500000
31
  0.00000000
0
TEXT
8
DC
62
7
10
  0.11590000
20
 -0.06450000
30
  0.00000000
40
  0.00250000
41
  0.60000000
1
    1.00m
50
  0.00000000
72
2
73
0
11
  0.11590000
21
 -0.06450000
31
  0.00000000
0
TEXT
8
DC
62
7
10
  0.13390000
20
 -0.04880000
30
  0.00000000
40
  0.00216667
41
  0.60000000
1
Auffüllung, Mutterboden, Ton, 
50
  0.00000000
72
0
73
1
11
  0.13390000
21
 -0.04880000
31
  0.00000000
0
TEXT
8
DC
62
7
10
  0.13390000
20
 -0.05190000
30
  0.00000000
40
  0.00216667
41
  0.60000000
1
stark schluffig, schwach 
50
  0.00000000
72
0
73
1
11
  0.13390000
21
 -0.05190000
31
  0.00000000
0
TEXT
8
DC
62
7
10
  0.13390000
20
 -0.05500000
30
  0.00000000
40
  0.00216667
41
  0.60000000
1
feinsandig, stark humos
50
  0.00000000
72
0
73
1
11
  0.13390000
21
 -0.05500000
31
  0.00000000
0
TEXT
8
DC
62
7
10
  0.13390000
20
 -0.05810000
30
  0.00000000
40
  0.00216667
41
  0.60000000
1
weich bis steif
50
  0.00000000
72
0
73
1
11
  0.13390000
21
 -0.05810000
31
  0.00000000
0
TEXT
8
DC
62
7
10
  0.13390000
20
 -0.06120000
30
  0.00000000
40
  0.00216667
41
  0.60000000
1
erdfeucht
50
  0.00000000
72
0
73
1
11
  0.13390000
21
 -0.06120000
31
  0.00000000
0
TEXT
8
DC
62
7
10
  0.13390000
20
 -0.06430000
30
  0.00000000
40
  0.00216667
41
  0.60000000
1
dunkelbraun
50
  0.00000000
72
0
73
1
11
  0.13390000
21
 -0.06430000
31
  0.00000000
0
CIRCLE
8
DC
6
CONTINUOUS
62
7
10
  0.18210000
20
 -0.05500000
30
  0.00000000
40
  0.00720000
0
TEXT
8
DC
62
7
10
  0.17680000
20
 -0.05700000
30
  0.00000000
40
  0.00250000
41
  0.60000000
1
[TLOH]
50
  0.00000000
72
0
73
1
11
  0.17680000
21
 -0.05700000
31
  0.00000000
0
LINE
8
DC
6
CONTINUOUS
62
7
10
  0.16770000
20
 -0.05190000
30
  0.00000000
11
  0.17390000
21
 -0.05190000
31
  0.00000000
0
LINE
8
DC
6
CONTINUOUS
62
7
10
  0.17390000
20
 -0.05190000
30
  0.00000000
11
  0.17390000
21
 -0.05810000
31
  0.00000000
0
LINE
8
DC
6
CONTINUOUS
62
7
10
  0.17390000
20
 -0.05810000
30
  0.00000000
11
  0.16770000
21
 -0.05810000
31
  0.00000000
0
LINE
8
DC
6
CONTINUOUS
62
7
10
  0.16770000
20
 -0.05810000
30
  0.00000000
11
  0.16770000
21
 -0.05190000
31
  0.00000000
0
TEXT
8
DC
62
7
10
  0.17080000
20
 -0.05700000
30
  0.00000000
40
  0.00250000
41
  0.60000000
1
4
50
  0.00000000
72
1
73
1
11
  0.17080000
21
 -0.05700000
31
  0.00000000
0
LINE
8
DC
6
GESTRICHELT
62
7
10
  0.12850000
20
 -0.06500000
30
  0.00000000
11
  0.12850000
21
 -0.07500000
31
  0.00000000
0
SOLID
8
DC
62
253
10
  0.11690000
20
 -0.06500000
30
  0.00000000
11
  0.12200000
21
 -0.06500000
31
  0.00000000
12
  0.11690000
22
 -0.07510000
32
  0.00000000
13
  0.12200000
23
 -0.07510000
33
  0.00000000
0
LINE
8
DC
6
CONTINUOUS
62
7
10
  0.11690000
20
 -0.06500000
30
  0.00000000
11
  0.12200000
21
 -0.06500000
31
  0.00000000
0
LINE
8
DC
6
CONTINUOUS
62
7
10
  0.12200000
20
 -0.06500000
30
  0.00000000
11
  0.12200000
21
 -0.07510000
31
  0.00000000
0
LINE
8
DC
6
CONTINUOUS
62
7
10
  0.12200000
20
 -0.07510000
30
  0.00000000
11
  0.11690000
21
 -0.07510000
31
  0.00000000
0
LINE
8
DC
6
CONTINUOUS
62
7
10
  0.11690000
20
 -0.07510000
30
  0.00000000
11
  0.11690000
21
 -0.06500000
31
  0.00000000
0
SOLID
8
DC
62
200
10
  0.12200000
20
 -0.06500000
30
  0.00000000
11
  0.12700000
21
 -0.06500000
31
  0.00000000
12
  0.12200000
22
 -0.07510000
32
  0.00000000
13
  0.12700000
23
 -0.07510000
33
  0.00000000
0
LINE
8
DC
6
CONTINUOUS
62
7
10
  0.12200000
20
 -0.06500000
30
  0.00000000
11
  0.12700000
21
 -0.06500000
31
  0.00000000
0
LINE
8
DC
6
CONTINUOUS
62
7
10
  0.12700000
20
 -0.06500000
30
  0.00000000
11
  0.12700000
21
 -0.07510000
31
  0.00000000
0
LINE
8
DC
6
CONTINUOUS
62
7
10
  0.12700000
20
 -0.07510000
30
  0.00000000
11
  0.12200000
21
 -0.07510000
31
  0.00000000
0
LINE
8
DC
6
CONTINUOUS
62
7
10
  0.12200000
20
 -0.07510000
30
  0.00000000
11
  0.12200000
21
 -0.06500000
31
  0.00000000
0
LINE
8
DC
6
CONTINUOUS
62
7
10
  0.11690000
20
 -0.06750000
30
  0.00000000
11
  0.11940000
21
 -0.06500000
31
  0.00000000
0
LINE
8
DC
6
CONTINUOUS
62
7
10
  0.11940000
20
 -0.07000000
30
  0.00000000
11
  0.12190000
21
 -0.06750000
31
  0.00000000
0
LINE
8
DC
6
CONTINUOUS
62
7
10
  0.11690000
20
 -0.07000000
30
  0.00000000
11
  0.12190000
21
 -0.06500000
31
  0.00000000
0
LINE
8
DC
6
CONTINUOUS
62
7
10
  0.11740000
20
 -0.07080000
30
  0.00000000
11
  0.12040000
21
 -0.07080000
31
  0.00000000
0
LINE
8
DC
6
CONTINUOUS
62
7
10
  0.11840000
20
 -0.07240000
30
  0.00000000
11
  0.12140000
21
 -0.07240000
31
  0.00000000
0
LINE
8
DC
6
CONTINUOUS
62
7
10
  0.11760000
20
 -0.07510000
30
  0.00000000
11
  0.11940000
21
 -0.07330000
31
  0.00000000
0
LINE
8
DC
6
CONTINUOUS
62
7
10
  0.12010000
20
 -0.07510000
30
  0.00000000
11
  0.12190000
21
 -0.07330000
31
  0.00000000
0
LINE
8
DC
6
CONTINUOUS
62
7
10
  0.12350000
20
 -0.06710000
30
  0.00000000
11
  0.12350000
21
 -0.06710000
31
  0.00000000
0
LINE
8
DC
6
CONTINUOUS
62
7
10
  0.12328206
20
 -0.06705000
30
  0.00000000
11
  0.12371794
21
 -0.06705000
31
  0.00000000
0
LINE
8
DC
6
CONTINUOUS
62
7
10
  0.12320000
20
 -0.06700000
30
  0.00000000
11
  0.12380000
21
 -0.06700000
31
  0.00000000
0
LINE
8
DC
6
CONTINUOUS
62
7
10
  0.12314293
20
 -0.06695000
30
  0.00000000
11
  0.12385707
21
 -0.06695000
31
  0.00000000
0
LINE
8
DC
6
CONTINUOUS
62
7
10
  0.12310000
20
 -0.06690000
30
  0.00000000
11
  0.12390000
21
 -0.06690000
31
  0.00000000
0
LINE
8
DC
6
CONTINUOUS
62
7
10
  0.12306699
20
 -0.06685000
30
  0.00000000
11
  0.12393301
21
 -0.06685000
31
  0.00000000
0
LINE
8
DC
6
CONTINUOUS
62
7
10
  0.12304174
20
 -0.06680000
30
  0.00000000
11
  0.12395826
21
 -0.06680000
31
  0.00000000
0
LINE
8
DC
6
CONTINUOUS
62
7
10
  0.12302303
20
 -0.06675000
30
  0.00000000
11
  0.12397697
21
 -0.06675000
31
  0.00000000
0
LINE
8
DC
6
CONTINUOUS
62
7
10
  0.12301010
20
 -0.06670000
30
  0.00000000
11
  0.12398990
21
 -0.06670000
31
  0.00000000
0
LINE
8
DC
6
CONTINUOUS
62
7
10
  0.12300251
20
 -0.06665000
30
  0.00000000
11
  0.12399749
21
 -0.06665000
31
  0.00000000
0
LINE
8
DC
6
CONTINUOUS
62
7
10
  0.12300000
20
 -0.06660000
30
  0.00000000
11
  0.12400000
21
 -0.06660000
31
  0.00000000
0
LINE
8
DC
6
CONTINUOUS
62
7
10
  0.12300251
20
 -0.06655000
30
  0.00000000
11
  0.12399749
21
 -0.06655000
31
  0.00000000
0
LINE
8
DC
6
CONTINUOUS
62
7
10
  0.12301010
20
 -0.06650000
30
  0.00000000
11
  0.12398990
21
 -0.06650000
31
  0.00000000
0
LINE
8
DC
6
CONTINUOUS
62
7
10
  0.12302303
20
 -0.06645000
30
  0.00000000
11
  0.12397697
21
 -0.06645000
31
  0.00000000
0
LINE
8
DC
6
CONTINUOUS
62
7
10
  0.12304174
20
 -0.06640000
30
  0.00000000
11
  0.12395826
21
 -0.06640000
31
  0.00000000
0
LINE
8
DC
6
CONTINUOUS
62
7
10
  0.12306699
20
 -0.06635000
30
  0.00000000
11
  0.12393301
21
 -0.06635000
31
  0.00000000
0
LINE
8
DC
6
CONTINUOUS
62
7
10
  0.12310000
20
 -0.06630000
30
  0.00000000
11
  0.12390000
21
 -0.06630000
31
  0.00000000
0
LINE
8
DC
6
CONTINUOUS
62
7
10
  0.12314293
20
 -0.06625000
30
  0.00000000
11
  0.12385707
21
 -0.06625000
31
  0.00000000
0
LINE
8
DC
6
CONTINUOUS
62
7
10
  0.12320000
20
 -0.06620000
30
  0.00000000
11
  0.12380000
21
 -0.06620000
31
  0.00000000
0
LINE
8
DC
6
CONTINUOUS
62
7
10
  0.12328206
20
 -0.06615000
30
  0.00000000
11
  0.12371794
21
 -0.06615000
31
  0.00000000
0
CIRCLE
8
DC
6
CONTINUOUS
62
7
10
  0.12350000
20
 -0.06660000
30
  0.00000000
40
  0.00050000
0
LINE
8
DC
6
CONTINUOUS
62
7
10
  0.12510000
20
 -0.06710000
30
  0.00000000
11
  0.12510000
21
 -0.06710000
31
  0.00000000
0
LINE
8
DC
6
CONTINUOUS
62
7
10
  0.12488206
20
 -0.06705000
30
  0.00000000
11
  0.12531794
21
 -0.06705000
31
  0.00000000
0
LINE
8
DC
6
CONTINUOUS
62
7
10
  0.12480000
20
 -0.06700000
30
  0.00000000
11
  0.12540000
21
 -0.06700000
31
  0.00000000
0
LINE
8
DC
6
CONTINUOUS
62
7
10
  0.12474293
20
 -0.06695000
30
  0.00000000
11
  0.12545707
21
 -0.06695000
31
  0.00000000
0
LINE
8
DC
6
CONTINUOUS
62
7
10
  0.12470000
20
 -0.06690000
30
  0.00000000
11
  0.12550000
21
 -0.06690000
31
  0.00000000
0
LINE
8
DC
6
CONTINUOUS
62
7
10
  0.12466699
20
 -0.06685000
30
  0.00000000
11
  0.12553301
21
 -0.06685000
31
  0.00000000
0
LINE
8
DC
6
CONTINUOUS
62
7
10
  0.12464174
20
 -0.06680000
30
  0.00000000
11
  0.12555826
21
 -0.06680000
31
  0.00000000
0
LINE
8
DC
6
CONTINUOUS
62
7
10
  0.12462303
20
 -0.06675000
30
  0.00000000
11
  0.12557697
21
 -0.06675000
31
  0.00000000
0
LINE
8
DC
6
CONTINUOUS
62
7
10
  0.12461010
20
 -0.06670000
30
  0.00000000
11
  0.12558990
21
 -0.06670000
31
  0.00000000
0
LINE
8
DC
6
CONTINUOUS
62
7
10
  0.12460251
20
 -0.06665000
30
  0.00000000
11
  0.12559749
21
 -0.06665000
31
  0.00000000
0
LINE
8
DC
6
CONTINUOUS
62
7
10
  0.12460000
20
 -0.06660000
30
  0.00000000
11
  0.12560000
21
 -0.06660000
31
  0.00000000
0
LINE
8
DC
6
CONTINUOUS
62
7
10
  0.12460251
20
 -0.06655000
30
  0.00000000
11
  0.12559749
21
 -0.06655000
31
  0.00000000
0
LINE
8
DC
6
CONTINUOUS
62
7
10
  0.12461010
20
 -0.06650000
30
  0.00000000
11
  0.12558990
21
 -0.06650000
31
  0.00000000
0
LINE
8
DC
6
CONTINUOUS
62
7
10
  0.12462303
20
 -0.06645000
30
  0.00000000
11
  0.12557697
21
 -0.06645000
31
  0.00000000
0
LINE
8
DC
6
CONTINUOUS
62
7
10
  0.12464174
20
 -0.06640000
30
  0.00000000
11
  0.12555826
21
 -0.06640000
31
  0.00000000
0
LINE
8
DC
6
CONTINUOUS
62
7
10
  0.12466699
20
 -0.06635000
30
  0.00000000
11
  0.12553301
21
 -0.06635000
31
  0.00000000
0
LINE
8
DC
6
CONTINUOUS
62
7
10
  0.12470000
20
 -0.06630000
30
  0.00000000
11
  0.12550000
21
 -0.06630000
31
  0.00000000
0
LINE
8
DC
6
CONTINUOUS
62
7
10
  0.12474293
20
 -0.06625000
30
  0.00000000
11
  0.12545707
21
 -0.06625000
31
  0.00000000
0
LINE
8
DC
6
CONTINUOUS
62
7
10
  0.12480000
20
 -0.06620000
30
  0.00000000
11
  0.12540000
21
 -0.06620000
31
  0.00000000
0
LINE
8
DC
6
CONTINUOUS
62
7
10
  0.12488206
20
 -0.06615000
30
  0.00000000
11
  0.12531794
21
 -0.06615000
31
  0.00000000
0
CIRCLE
8
DC
6
CONTINUOUS
62
7
10
  0.12510000
20
 -0.06660000
30
  0.00000000
40
  0.00050000
0
LINE
8
DC
6
CONTINUOUS
62
7
10
  0.12290000
20
 -0.06710000
30
  0.00000000
11
  0.12590000
21
 -0.06710000
31
  0.00000000
0
LINE
8
DC
6
CONTINUOUS
62
7
10
  0.12210000
20
 -0.06900000
30
  0.00000000
11
  0.12210000
21
 -0.06900000
31
  0.00000000
0
LINE
8
DC
6
CONTINUOUS
62
7
10
  0.12196771
20
 -0.06895000
30
  0.00000000
11
  0.12223229
21
 -0.06895000
31
  0.00000000
0
LINE
8
DC
6
CONTINUOUS
62
7
10
  0.12192679
20
 -0.06890000
30
  0.00000000
11
  0.12227321
21
 -0.06890000
31
  0.00000000
0
LINE
8
DC
6
CONTINUOUS
62
7
10
  0.12190635
20
 -0.06885000
30
  0.00000000
11
  0.12229365
21
 -0.06885000
31
  0.00000000
0
LINE
8
DC
6
CONTINUOUS
62
7
10
  0.12190000
20
 -0.06880000
30
  0.00000000
11
  0.12230000
21
 -0.06880000
31
  0.00000000
0
LINE
8
DC
6
CONTINUOUS
62
7
10
  0.12190635
20
 -0.06875000
30
  0.00000000
11
  0.12229365
21
 -0.06875000
31
  0.00000000
0
LINE
8
DC
6
CONTINUOUS
62
7
10
  0.12192679
20
 -0.06870000
30
  0.00000000
11
  0.12227321
21
 -0.06870000
31
  0.00000000
0
LINE
8
DC
6
CONTINUOUS
62
7
10
  0.12196771
20
 -0.06865000
30
  0.00000000
11
  0.12223229
21
 -0.06865000
31
  0.00000000
0
CIRCLE
8
DC
6
CONTINUOUS
62
7
10
  0.12210000
20
 -0.06880000
30
  0.00000000
40
  0.00020000
0
LINE
8
DC
6
CONTINUOUS
62
7
10
  0.12310000
20
 -0.06900000
30
  0.00000000
11
  0.12310000
21
 -0.06900000
31
  0.00000000
0
LINE
8
DC
6
CONTINUOUS
62
7
10
  0.12296771
20
 -0.06895000
30
  0.00000000
11
  0.12323229
21
 -0.06895000
31
  0.00000000
0
LINE
8
DC
6
CONTINUOUS
62
7
10
  0.12292679
20
 -0.06890000
30
  0.00000000
11
  0.12327321
21
 -0.06890000
31
  0.00000000
0
LINE
8
DC
6
CONTINUOUS
62
7
10
  0.12290635
20
 -0.06885000
30
  0.00000000
11
  0.12329365
21
 -0.06885000
31
  0.00000000
0
LINE
8
DC
6
CONTINUOUS
62
7
10
  0.12290000
20
 -0.06880000
30
  0.00000000
11
  0.12330000
21
 -0.06880000
31
  0.00000000
0
LINE
8
DC
6
CONTINUOUS
62
7
10
  0.12290635
20
 -0.06875000
30
  0.00000000
11
  0.12329365
21
 -0.06875000
31
  0.00000000
0
LINE
8
DC
6
CONTINUOUS
62
7
10
  0.12292679
20
 -0.06870000
30
  0.00000000
11
  0.12327321
21
 -0.06870000
31
  0.00000000
0
LINE
8
DC
6
CONTINUOUS
62
7
10
  0.12296771
20
 -0.06865000
30
  0.00000000
11
  0.12323229
21
 -0.06865000
31
  0.00000000
0
CIRCLE
8
DC
6
CONTINUOUS
62
7
10
  0.12310000
20
 -0.06880000
30
  0.00000000
40
  0.00020000
0
LINE
8
DC
6
CONTINUOUS
62
7
10
  0.12410000
20
 -0.06900000
30
  0.00000000
11
  0.12410000
21
 -0.06900000
31
  0.00000000
0
LINE
8
DC
6
CONTINUOUS
62
7
10
  0.12396771
20
 -0.06895000
30
  0.00000000
11
  0.12423229
21
 -0.06895000
31
  0.00000000
0
LINE
8
DC
6
CONTINUOUS
62
7
10
  0.12392679
20
 -0.06890000
30
  0.00000000
11
  0.12427321
21
 -0.06890000
31
  0.00000000
0
LINE
8
DC
6
CONTINUOUS
62
7
10
  0.12390635
20
 -0.06885000
30
  0.00000000
11
  0.12429365
21
 -0.06885000
31
  0.00000000
0
LINE
8
DC
6
CONTINUOUS
62
7
10
  0.12390000
20
 -0.06880000
30
  0.00000000
11
  0.12430000
21
 -0.06880000
31
  0.00000000
0
LINE
8
DC
6
CONTINUOUS
62
7
10
  0.12390635
20
 -0.06875000
30
  0.00000000
11
  0.12429365
21
 -0.06875000
31
  0.00000000
0
LINE
8
DC
6
CONTINUOUS
62
7
10
  0.12392679
20
 -0.06870000
30
  0.00000000
11
  0.12427321
21
 -0.06870000
31
  0.00000000
0
LINE
8
DC
6
CONTINUOUS
62
7
10
  0.12396771
20
 -0.06865000
30
  0.00000000
11
  0.12423229
21
 -0.06865000
31
  0.00000000
0
CIRCLE
8
DC
6
CONTINUOUS
62
7
10
  0.12410000
20
 -0.06880000
30
  0.00000000
40
  0.00020000
0
LINE
8
DC
6
CONTINUOUS
62
7
10
  0.12510000
20
 -0.06900000
30
  0.00000000
11
  0.12510000
21
 -0.06900000
31
  0.00000000
0
LINE
8
DC
6
CONTINUOUS
62
7
10
  0.12496771
20
 -0.06895000
30
  0.00000000
11
  0.12523229
21
 -0.06895000
31
  0.00000000
0
LINE
8
DC
6
CONTINUOUS
62
7
10
  0.12492679
20
 -0.06890000
30
  0.00000000
11
  0.12527321
21
 -0.06890000
31
  0.00000000
0
LINE
8
DC
6
CONTINUOUS
62
7
10
  0.12490635
20
 -0.06885000
30
  0.00000000
11
  0.12529365
21
 -0.06885000
31
  0.00000000
0
LINE
8
DC
6
CONTINUOUS
62
7
10
  0.12490000
20
 -0.06880000
30
  0.00000000
11
  0.12530000
21
 -0.06880000
31
  0.00000000
0
LINE
8
DC
6
CONTINUOUS
62
7
10
  0.12490635
20
 -0.06875000
30
  0.00000000
11
  0.12529365
21
 -0.06875000
31
  0.00000000
0
LINE
8
DC
6
CONTINUOUS
62
7
10
  0.12492679
20
 -0.06870000
30
  0.00000000
11
  0.12527321
21
 -0.06870000
31
  0.00000000
0
LINE
8
DC
6
CONTINUOUS
62
7
10
  0.12496771
20
 -0.06865000
30
  0.00000000
11
  0.12523229
21
 -0.06865000
31
  0.00000000
0
CIRCLE
8
DC
6
CONTINUOUS
62
7
10
  0.12510000
20
 -0.06880000
30
  0.00000000
40
  0.00020000
0
LINE
8
DC
6
CONTINUOUS
62
7
10
  0.12610000
20
 -0.06900000
30
  0.00000000
11
  0.12610000
21
 -0.06900000
31
  0.00000000
0
LINE
8
DC
6
CONTINUOUS
62
7
10
  0.12596771
20
 -0.06895000
30
  0.00000000
11
  0.12623229
21
 -0.06895000
31
  0.00000000
0
LINE
8
DC
6
CONTINUOUS
62
7
10
  0.12592679
20
 -0.06890000
30
  0.00000000
11
  0.12627321
21
 -0.06890000
31
  0.00000000
0
LINE
8
DC
6
CONTINUOUS
62
7
10
  0.12590635
20
 -0.06885000
30
  0.00000000
11
  0.12629365
21
 -0.06885000
31
  0.00000000
0
LINE
8
DC
6
CONTINUOUS
62
7
10
  0.12590000
20
 -0.06880000
30
  0.00000000
11
  0.12630000
21
 -0.06880000
31
  0.00000000
0
LINE
8
DC
6
CONTINUOUS
62
7
10
  0.12590635
20
 -0.06875000
30
  0.00000000
11
  0.12629365
21
 -0.06875000
31
  0.00000000
0
LINE
8
DC
6
CONTINUOUS
62
7
10
  0.12592679
20
 -0.06870000
30
  0.00000000
11
  0.12627321
21
 -0.06870000
31
  0.00000000
0
LINE
8
DC
6
CONTINUOUS
62
7
10
  0.12596771
20
 -0.06865000
30
  0.00000000
11
  0.12623229
21
 -0.06865000
31
  0.00000000
0
CIRCLE
8
DC
6
CONTINUOUS
62
7
10
  0.12610000
20
 -0.06880000
30
  0.00000000
40
  0.00020000
0
LINE
8
DC
6
CONTINUOUS
62
7
10
  0.12210000
20
 -0.07120000
30
  0.00000000
11
  0.12210000
21
 -0.07120000
31
  0.00000000
0
LINE
8
DC
6
CONTINUOUS
62
7
10
  0.12196771
20
 -0.07115000
30
  0.00000000
11
  0.12223229
21
 -0.07115000
31
  0.00000000
0
LINE
8
DC
6
CONTINUOUS
62
7
10
  0.12192679
20
 -0.07110000
30
  0.00000000
11
  0.12227321
21
 -0.07110000
31
  0.00000000
0
LINE
8
DC
6
CONTINUOUS
62
7
10
  0.12190635
20
 -0.07105000
30
  0.00000000
11
  0.12229365
21
 -0.07105000
31
  0.00000000
0
LINE
8
DC
6
CONTINUOUS
62
7
10
  0.12190000
20
 -0.07100000
30
  0.00000000
11
  0.12230000
21
 -0.07100000
31
  0.00000000
0
LINE
8
DC
6
CONTINUOUS
62
7
10
  0.12190635
20
 -0.07095000
30
  0.00000000
11
  0.12229365
21
 -0.07095000
31
  0.00000000
0
LINE
8
DC
6
CONTINUOUS
62
7
10
  0.12192679
20
 -0.07090000
30
  0.00000000
11
  0.12227321
21
 -0.07090000
31
  0.00000000
0
LINE
8
DC
6
CONTINUOUS
62
7
10
  0.12196771
20
 -0.07085000
30
  0.00000000
11
  0.12223229
21
 -0.07085000
31
  0.00000000
0
CIRCLE
8
DC
6
CONTINUOUS
62
7
10
  0.12210000
20
 -0.07100000
30
  0.00000000
40
  0.00020000
0
LINE
8
DC
6
CONTINUOUS
62
7
10
  0.12310000
20
 -0.07120000
30
  0.00000000
11
  0.12310000
21
 -0.07120000
31
  0.00000000
0
LINE
8
DC
6
CONTINUOUS
62
7
10
  0.12296771
20
 -0.07115000
30
  0.00000000
11
  0.12323229
21
 -0.07115000
31
  0.00000000
0
LINE
8
DC
6
CONTINUOUS
62
7
10
  0.12292679
20
 -0.07110000
30
  0.00000000
11
  0.12327321
21
 -0.07110000
31
  0.00000000
0
LINE
8
DC
6
CONTINUOUS
62
7
10
  0.12290635
20
 -0.07105000
30
  0.00000000
11
  0.12329365
21
 -0.07105000
31
  0.00000000
0
LINE
8
DC
6
CONTINUOUS
62
7
10
  0.12290000
20
 -0.07100000
30
  0.00000000
11
  0.12330000
21
 -0.07100000
31
  0.00000000
0
LINE
8
DC
6
CONTINUOUS
62
7
10
  0.12290635
20
 -0.07095000
30
  0.00000000
11
  0.12329365
21
 -0.07095000
31
  0.00000000
0
LINE
8
DC
6
CONTINUOUS
62
7
10
  0.12292679
20
 -0.07090000
30
  0.00000000
11
  0.12327321
21
 -0.07090000
31
  0.00000000
0
LINE
8
DC
6
CONTINUOUS
62
7
10
  0.12296771
20
 -0.07085000
30
  0.00000000
11
  0.12323229
21
 -0.07085000
31
  0.00000000
0
CIRCLE
8
DC
6
CONTINUOUS
62
7
10
  0.12310000
20
 -0.07100000
30
  0.00000000
40
  0.00020000
0
LINE
8
DC
6
CONTINUOUS
62
7
10
  0.12410000
20
 -0.07120000
30
  0.00000000
11
  0.12410000
21
 -0.07120000
31
  0.00000000
0
LINE
8
DC
6
CONTINUOUS
62
7
10
  0.12396771
20
 -0.07115000
30
  0.00000000
11
  0.12423229
21
 -0.07115000
31
  0.00000000
0
LINE
8
DC
6
CONTINUOUS
62
7
10
  0.12392679
20
 -0.07110000
30
  0.00000000
11
  0.12427321
21
 -0.07110000
31
  0.00000000
0
LINE
8
DC
6
CONTINUOUS
62
7
10
  0.12390635
20
 -0.07105000
30
  0.00000000
11
  0.12429365
21
 -0.07105000
31
  0.00000000
0
LINE
8
DC
6
CONTINUOUS
62
7
10
  0.12390000
20
 -0.07100000
30
  0.00000000
11
  0.12430000
21
 -0.07100000
31
  0.00000000
0
LINE
8
DC
6
CONTINUOUS
62
7
10
  0.12390635
20
 -0.07095000
30
  0.00000000
11
  0.12429365
21
 -0.07095000
31
  0.00000000
0
LINE
8
DC
6
CONTINUOUS
62
7
10
  0.12392679
20
 -0.07090000
30
  0.00000000
11
  0.12427321
21
 -0.07090000
31
  0.00000000
0
LINE
8
DC
6
CONTINUOUS
62
7
10
  0.12396771
20
 -0.07085000
30
  0.00000000
11
  0.12423229
21
 -0.07085000
31
  0.00000000
0
CIRCLE
8
DC
6
CONTINUOUS
62
7
10
  0.12410000
20
 -0.07100000
30
  0.00000000
40
  0.00020000
0
LINE
8
DC
6
CONTINUOUS
62
7
10
  0.12510000
20
 -0.07120000
30
  0.00000000
11
  0.12510000
21
 -0.07120000
31
  0.00000000
0
LINE
8
DC
6
CONTINUOUS
62
7
10
  0.12496771
20
 -0.07115000
30
  0.00000000
11
  0.12523229
21
 -0.07115000
31
  0.00000000
0
LINE
8
DC
6
CONTINUOUS
62
7
10
  0.12492679
20
 -0.07110000
30
  0.00000000
11
  0.12527321
21
 -0.07110000
31
  0.00000000
0
LINE
8
DC
6
CONTINUOUS
62
7
10
  0.12490635
20
 -0.07105000
30
  0.00000000
11
  0.12529365
21
 -0.07105000
31
  0.00000000
0
LINE
8
DC
6
CONTINUOUS
62
7
10
  0.12490000
20
 -0.07100000
30
  0.00000000
11
  0.12530000
21
 -0.07100000
31
  0.00000000
0
LINE
8
DC
6
CONTINUOUS
62
7
10
  0.12490635
20
 -0.07095000
30
  0.00000000
11
  0.12529365
21
 -0.07095000
31
  0.00000000
0
LINE
8
DC
6
CONTINUOUS
62
7
10
  0.12492679
20
 -0.07090000
30
  0.00000000
11
  0.12527321
21
 -0.07090000
31
  0.00000000
0
LINE
8
DC
6
CONTINUOUS
62
7
10
  0.12496771
20
 -0.07085000
30
  0.00000000
11
  0.12523229
21
 -0.07085000
31
  0.00000000
0
CIRCLE
8
DC
6
CONTINUOUS
62
7
10
  0.12510000
20
 -0.07100000
30
  0.00000000
40
  0.00020000
0
LINE
8
DC
6
CONTINUOUS
62
7
10
  0.12610000
20
 -0.07120000
30
  0.00000000
11
  0.12610000
21
 -0.07120000
31
  0.00000000
0
LINE
8
DC
6
CONTINUOUS
62
7
10
  0.12596771
20
 -0.07115000
30
  0.00000000
11
  0.12623229
21
 -0.07115000
31
  0.00000000
0
LINE
8
DC
6
CONTINUOUS
62
7
10
  0.12592679
20
 -0.07110000
30
  0.00000000
11
  0.12627321
21
 -0.07110000
31
  0.00000000
0
LINE
8
DC
6
CONTINUOUS
62
7
10
  0.12590635
20
 -0.07105000
30
  0.00000000
11
  0.12629365
21
 -0.07105000
31
  0.00000000
0
LINE
8
DC
6
CONTINUOUS
62
7
10
  0.12590000
20
 -0.07100000
30
  0.00000000
11
  0.12630000
21
 -0.07100000
31
  0.00000000
0
LINE
8
DC
6
CONTINUOUS
62
7
10
  0.12590635
20
 -0.07095000
30
  0.00000000
11
  0.12629365
21
 -0.07095000
31
  0.00000000
0
LINE
8
DC
6
CONTINUOUS
62
7
10
  0.12592679
20
 -0.07090000
30
  0.00000000
11
  0.12627321
21
 -0.07090000
31
  0.00000000
0
LINE
8
DC
6
CONTINUOUS
62
7
10
  0.12596771
20
 -0.07085000
30
  0.00000000
11
  0.12623229
21
 -0.07085000
31
  0.00000000
0
CIRCLE
8
DC
6
CONTINUOUS
62
7
10
  0.12610000
20
 -0.07100000
30
  0.00000000
40
  0.00020000
0
LINE
8
DC
6
CONTINUOUS
62
7
10
  0.12260000
20
 -0.07010000
30
  0.00000000
11
  0.12260000
21
 -0.07010000
31
  0.00000000
0
LINE
8
DC
6
CONTINUOUS
62
7
10
  0.12246771
20
 -0.07005000
30
  0.00000000
11
  0.12273229
21
 -0.07005000
31
  0.00000000
0
LINE
8
DC
6
CONTINUOUS
62
7
10
  0.12242679
20
 -0.07000000
30
  0.00000000
11
  0.12277321
21
 -0.07000000
31
  0.00000000
0
LINE
8
DC
6
CONTINUOUS
62
7
10
  0.12240635
20
 -0.06995000
30
  0.00000000
11
  0.12279365
21
 -0.06995000
31
  0.00000000
0
LINE
8
DC
6
CONTINUOUS
62
7
10
  0.12240000
20
 -0.06990000
30
  0.00000000
11
  0.12280000
21
 -0.06990000
31
  0.00000000
0
LINE
8
DC
6
CONTINUOUS
62
7
10
  0.12240635
20
 -0.06985000
30
  0.00000000
11
  0.12279365
21
 -0.06985000
31
  0.00000000
0
LINE
8
DC
6
CONTINUOUS
62
7
10
  0.12242679
20
 -0.06980000
30
  0.00000000
11
  0.12277321
21
 -0.06980000
31
  0.00000000
0
LINE
8
DC
6
CONTINUOUS
62
7
10
  0.12246771
20
 -0.06975000
30
  0.00000000
11
  0.12273229
21
 -0.06975000
31
  0.00000000
0
CIRCLE
8
DC
6
CONTINUOUS
62
7
10
  0.12260000
20
 -0.06990000
30
  0.00000000
40
  0.00020000
0
LINE
8
DC
6
CONTINUOUS
62
7
10
  0.12360000
20
 -0.07010000
30
  0.00000000
11
  0.12360000
21
 -0.07010000
31
  0.00000000
0
LINE
8
DC
6
CONTINUOUS
62
7
10
  0.12346771
20
 -0.07005000
30
  0.00000000
11
  0.12373229
21
 -0.07005000
31
  0.00000000
0
LINE
8
DC
6
CONTINUOUS
62
7
10
  0.12342679
20
 -0.07000000
30
  0.00000000
11
  0.12377321
21
 -0.07000000
31
  0.00000000
0
LINE
8
DC
6
CONTINUOUS
62
7
10
  0.12340635
20
 -0.06995000
30
  0.00000000
11
  0.12379365
21
 -0.06995000
31
  0.00000000
0
LINE
8
DC
6
CONTINUOUS
62
7
10
  0.12340000
20
 -0.06990000
30
  0.00000000
11
  0.12380000
21
 -0.06990000
31
  0.00000000
0
LINE
8
DC
6
CONTINUOUS
62
7
10
  0.12340635
20
 -0.06985000
30
  0.00000000
11
  0.12379365
21
 -0.06985000
31
  0.00000000
0
LINE
8
DC
6
CONTINUOUS
62
7
10
  0.12342679
20
 -0.06980000
30
  0.00000000
11
  0.12377321
21
 -0.06980000
31
  0.00000000
0
LINE
8
DC
6
CONTINUOUS
62
7
10
  0.12346771
20
 -0.06975000
30
  0.00000000
11
  0.12373229
21
 -0.06975000
31
  0.00000000
0
CIRCLE
8
DC
6
CONTINUOUS
62
7
10
  0.12360000
20
 -0.06990000
30
  0.00000000
40
  0.00020000
0
LINE
8
DC
6
CONTINUOUS
62
7
10
  0.12460000
20
 -0.07010000
30
  0.00000000
11
  0.12460000
21
 -0.07010000
31
  0.00000000
0
LINE
8
DC
6
CONTINUOUS
62
7
10
  0.12446771
20
 -0.07005000
30
  0.00000000
11
  0.12473229
21
 -0.07005000
31
  0.00000000
0
LINE
8
DC
6
CONTINUOUS
62
7
10
  0.12442679
20
 -0.07000000
30
  0.00000000
11
  0.12477321
21
 -0.07000000
31
  0.00000000
0
LINE
8
DC
6
CONTINUOUS
62
7
10
  0.12440635
20
 -0.06995000
30
  0.00000000
11
  0.12479365
21
 -0.06995000
31
  0.00000000
0
LINE
8
DC
6
CONTINUOUS
62
7
10
  0.12440000
20
 -0.06990000
30
  0.00000000
11
  0.12480000
21
 -0.06990000
31
  0.00000000
0
LINE
8
DC
6
CONTINUOUS
62
7
10
  0.12440635
20
 -0.06985000
30
  0.00000000
11
  0.12479365
21
 -0.06985000
31
  0.00000000
0
LINE
8
DC
6
CONTINUOUS
62
7
10
  0.12442679
20
 -0.06980000
30
  0.00000000
11
  0.12477321
21
 -0.06980000
31
  0.00000000
0
LINE
8
DC
6
CONTINUOUS
62
7
10
  0.12446771
20
 -0.06975000
30
  0.00000000
11
  0.12473229
21
 -0.06975000
31
  0.00000000
0
CIRCLE
8
DC
6
CONTINUOUS
62
7
10
  0.12460000
20
 -0.06990000
30
  0.00000000
40
  0.00020000
0
LINE
8
DC
6
CONTINUOUS
62
7
10
  0.12560000
20
 -0.07010000
30
  0.00000000
11
  0.12560000
21
 -0.07010000
31
  0.00000000
0
LINE
8
DC
6
CONTINUOUS
62
7
10
  0.12546771
20
 -0.07005000
30
  0.00000000
11
  0.12573229
21
 -0.07005000
31
  0.00000000
0
LINE
8
DC
6
CONTINUOUS
62
7
10
  0.12542679
20
 -0.07000000
30
  0.00000000
11
  0.12577321
21
 -0.07000000
31
  0.00000000
0
LINE
8
DC
6
CONTINUOUS
62
7
10
  0.12540635
20
 -0.06995000
30
  0.00000000
11
  0.12579365
21
 -0.06995000
31
  0.00000000
0
LINE
8
DC
6
CONTINUOUS
62
7
10
  0.12540000
20
 -0.06990000
30
  0.00000000
11
  0.12580000
21
 -0.06990000
31
  0.00000000
0
LINE
8
DC
6
CONTINUOUS
62
7
10
  0.12540635
20
 -0.06985000
30
  0.00000000
11
  0.12579365
21
 -0.06985000
31
  0.00000000
0
LINE
8
DC
6
CONTINUOUS
62
7
10
  0.12542679
20
 -0.06980000
30
  0.00000000
11
  0.12577321
21
 -0.06980000
31
  0.00000000
0
LINE
8
DC
6
CONTINUOUS
62
7
10
  0.12546771
20
 -0.06975000
30
  0.00000000
11
  0.12573229
21
 -0.06975000
31
  0.00000000
0
CIRCLE
8
DC
6
CONTINUOUS
62
7
10
  0.12560000
20
 -0.06990000
30
  0.00000000
40
  0.00020000
0
LINE
8
DC
6
CONTINUOUS
62
7
10
  0.12660000
20
 -0.07010000
30
  0.00000000
11
  0.12660000
21
 -0.07010000
31
  0.00000000
0
LINE
8
DC
6
CONTINUOUS
62
7
10
  0.12646771
20
 -0.07005000
30
  0.00000000
11
  0.12673229
21
 -0.07005000
31
  0.00000000
0
LINE
8
DC
6
CONTINUOUS
62
7
10
  0.12642679
20
 -0.07000000
30
  0.00000000
11
  0.12677321
21
 -0.07000000
31
  0.00000000
0
LINE
8
DC
6
CONTINUOUS
62
7
10
  0.12640635
20
 -0.06995000
30
  0.00000000
11
  0.12679365
21
 -0.06995000
31
  0.00000000
0
LINE
8
DC
6
CONTINUOUS
62
7
10
  0.12640000
20
 -0.06990000
30
  0.00000000
11
  0.12680000
21
 -0.06990000
31
  0.00000000
0
LINE
8
DC
6
CONTINUOUS
62
7
10
  0.12640635
20
 -0.06985000
30
  0.00000000
11
  0.12679365
21
 -0.06985000
31
  0.00000000
0
LINE
8
DC
6
CONTINUOUS
62
7
10
  0.12642679
20
 -0.06980000
30
  0.00000000
11
  0.12677321
21
 -0.06980000
31
  0.00000000
0
LINE
8
DC
6
CONTINUOUS
62
7
10
  0.12646771
20
 -0.06975000
30
  0.00000000
11
  0.12673229
21
 -0.06975000
31
  0.00000000
0
CIRCLE
8
DC
6
CONTINUOUS
62
7
10
  0.12660000
20
 -0.06990000
30
  0.00000000
40
  0.00020000
0
LINE
8
DC
6
CONTINUOUS
62
7
10
  0.12190000
20
 -0.07410000
30
  0.00000000
11
  0.12440000
21
 -0.07160000
31
  0.00000000
0
LINE
8
DC
6
CONTINUOUS
62
7
10
  0.12590000
20
 -0.07510000
30
  0.00000000
11
  0.12690000
21
 -0.07410000
31
  0.00000000
0
LINE
8
DC
6
CONTINUOUS
62
7
10
  0.12340000
20
 -0.07510000
30
  0.00000000
11
  0.12690000
21
 -0.07160000
31
  0.00000000
0
LINE
8
DC
6
CONTINUOUS
62
7
10
  0.11690000
20
 -0.06500000
30
  0.00000000
11
  0.17390000
21
 -0.06500000
31
  0.00000000
0
LINE
8
DC
6
CONTINUOUS
62
7
10
  0.11690000
20
 -0.07500000
30
  0.00000000
11
  0.11590000
21
 -0.07500000
31
  0.00000000
0
LINE
8
DC
6
CONTINUOUS
62
7
10
  0.10650000
20
 -0.07500000
30
  0.00000000
11
  0.11590000
21
 -0.07500000
31
  0.00000000
0
TEXT
8
DC
62
7
10
  0.11590000
20
 -0.07450000
30
  0.00000000
40
  0.00250000
41
  0.60000000
1
    1.50m
50
  0.00000000
72
2
73
0
11
  0.11590000
21
 -0.07450000
31
  0.00000000
0
TEXT
8
DC
62
7
10
  0.13390000
20
 -0.06860000
30
  0.00000000
40
  0.00216667
41
  0.60000000
1
Verwitterungslehm, Ton, stark 
50
  0.00000000
72
0
73
1
11
  0.13390000
21
 -0.06860000
31
  0.00000000
0
TEXT
8
DC
62
7
10
  0.13390000
20
 -0.07170000
30
  0.00000000
40
  0.00216667
41
  0.60000000
1
schluffig, schwach feinsandig
50
  0.00000000
72
0
73
1
11
  0.13390000
21
 -0.07170000
31
  0.00000000
0
TEXT
8
DC
62
7
10
  0.13390000
20
 -0.07480000
30
  0.00000000
40
  0.00216667
41
  0.60000000
1
steif
50
  0.00000000
72
0
73
1
11
  0.13390000
21
 -0.07480000
31
  0.00000000
0
TEXT
8
DC
62
7
10
  0.13390000
20
 -0.07790000
30
  0.00000000
40
  0.00216667
41
  0.60000000
1
erdfeucht
50
  0.00000000
72
0
73
1
11
  0.13390000
21
 -0.07790000
31
  0.00000000
0
TEXT
8
DC
62
7
10
  0.13390000
20
 -0.08100000
30
  0.00000000
40
  0.00216667
41
  0.60000000
1
hellbraun
50
  0.00000000
72
0
73
1
11
  0.13390000
21
 -0.08100000
31
  0.00000000
0
CIRCLE
8
DC
6
CONTINUOUS
62
7
10
  0.18210000
20
 -0.07300000
30
  0.00000000
40
  0.00720000
0
TEXT
8
DC
62
7
10
  0.18010000
20
 -0.07500000
30
  0.00000000
40
  0.00250000
41
  0.60000000
1
TL
50
  0.00000000
72
0
73
1
11
  0.18010000
21
 -0.07500000
31
  0.00000000
0
LINE
8
DC
6
CONTINUOUS
62
7
10
  0.16770000
20
 -0.06990000
30
  0.00000000
11
  0.17390000
21
 -0.06990000
31
  0.00000000
0
LINE
8
DC
6
CONTINUOUS
62
7
10
  0.17390000
20
 -0.06990000
30
  0.00000000
11
  0.17390000
21
 -0.07610000
31
  0.00000000
0
LINE
8
DC
6
CONTINUOUS
62
7
10
  0.17390000
20
 -0.07610000
30
  0.00000000
11
  0.16770000
21
 -0.07610000
31
  0.00000000
0
LINE
8
DC
6
CONTINUOUS
62
7
10
  0.16770000
20
 -0.07610000
30
  0.00000000
11
  0.16770000
21
 -0.06990000
31
  0.00000000
0
TEXT
8
DC
62
7
10
  0.17080000
20
 -0.07500000
30
  0.00000000
40
  0.00250000
41
  0.60000000
1
4
50
  0.00000000
72
1
73
1
11
  0.17080000
21
 -0.07500000
31
  0.00000000
0
LINE
8
DC
6
CONTINUOUS
62
7
10
  0.12800000
20
 -0.07630000
30
  0.00000000
11
  0.12800000
21
 -0.07630000
31
  0.00000000
0
LINE
8
DC
6
CONTINUOUS
62
7
10
  0.12783417
20
 -0.07625000
30
  0.00000000
11
  0.12816583
21
 -0.07625000
31
  0.00000000
0
LINE
8
DC
6
CONTINUOUS
62
7
10
  0.12777639
20
 -0.07620000
30
  0.00000000
11
  0.12822361
21
 -0.07620000
31
  0.00000000
0
LINE
8
DC
6
CONTINUOUS
62
7
10
  0.12774019
20
 -0.07615000
30
  0.00000000
11
  0.12825981
21
 -0.07615000
31
  0.00000000
0
LINE
8
DC
6
CONTINUOUS
62
7
10
  0.12771716
20
 -0.07610000
30
  0.00000000
11
  0.12828284
21
 -0.07610000
31
  0.00000000
0
LINE
8
DC
6
CONTINUOUS
62
7
10
  0.12770420
20
 -0.07605000
30
  0.00000000
11
  0.12829580
21
 -0.07605000
31
  0.00000000
0
LINE
8
DC
6
CONTINUOUS
62
7
10
  0.12770000
20
 -0.07600000
30
  0.00000000
11
  0.12830000
21
 -0.07600000
31
  0.00000000
0
LINE
8
DC
6
CONTINUOUS
62
7
10
  0.12770420
20
 -0.07595000
30
  0.00000000
11
  0.12829580
21
 -0.07595000
31
  0.00000000
0
LINE
8
DC
6
CONTINUOUS
62
7
10
  0.12771716
20
 -0.07590000
30
  0.00000000
11
  0.12828284
21
 -0.07590000
31
  0.00000000
0
LINE
8
DC
6
CONTINUOUS
62
7
10
  0.12774019
20
 -0.07585000
30
  0.00000000
11
  0.12825981
21
 -0.07585000
31
  0.00000000
0
LINE
8
DC
6
CONTINUOUS
62
7
10
  0.12777639
20
 -0.07580000
30
  0.00000000
11
  0.12822361
21
 -0.07580000
31
  0.00000000
0
LINE
8
DC
6
CONTINUOUS
62
7
10
  0.12783417
20
 -0.07575000
30
  0.00000000
11
  0.12816583
21
 -0.07575000
31
  0.00000000
0
CIRCLE
8
DC
6
CONTINUOUS
62
7
10
  0.12800000
20
 -0.07600000
30
  0.00000000
40
  0.00030000
0
LINE
8
DC
6
CONTINUOUS
62
7
10
  0.12800000
20
 -0.07830000
30
  0.00000000
11
  0.12800000
21
 -0.07830000
31
  0.00000000
0
LINE
8
DC
6
CONTINUOUS
62
7
10
  0.12783417
20
 -0.07825000
30
  0.00000000
11
  0.12816583
21
 -0.07825000
31
  0.00000000
0
LINE
8
DC
6
CONTINUOUS
62
7
10
  0.12777639
20
 -0.07820000
30
  0.00000000
11
  0.12822361
21
 -0.07820000
31
  0.00000000
0
LINE
8
DC
6
CONTINUOUS
62
7
10
  0.12774019
20
 -0.07815000
30
  0.00000000
11
  0.12825981
21
 -0.07815000
31
  0.00000000
0
LINE
8
DC
6
CONTINUOUS
62
7
10
  0.12771716
20
 -0.07810000
30
  0.00000000
11
  0.12828284
21
 -0.07810000
31
  0.00000000
0
LINE
8
DC
6
CONTINUOUS
62
7
10
  0.12770420
20
 -0.07805000
30
  0.00000000
11
  0.12829580
21
 -0.07805000
31
  0.00000000
0
LINE
8
DC
6
CONTINUOUS
62
7
10
  0.12770000
20
 -0.07800000
30
  0.00000000
11
  0.12830000
21
 -0.07800000
31
  0.00000000
0
LINE
8
DC
6
CONTINUOUS
62
7
10
  0.12770420
20
 -0.07795000
30
  0.00000000
11
  0.12829580
21
 -0.07795000
31
  0.00000000
0
LINE
8
DC
6
CONTINUOUS
62
7
10
  0.12771716
20
 -0.07790000
30
  0.00000000
11
  0.12828284
21
 -0.07790000
31
  0.00000000
0
LINE
8
DC
6
CONTINUOUS
62
7
10
  0.12774019
20
 -0.07785000
30
  0.00000000
11
  0.12825981
21
 -0.07785000
31
  0.00000000
0
LINE
8
DC
6
CONTINUOUS
62
7
10
  0.12777639
20
 -0.07780000
30
  0.00000000
11
  0.12822361
21
 -0.07780000
31
  0.00000000
0
LINE
8
DC
6
CONTINUOUS
62
7
10
  0.12783417
20
 -0.07775000
30
  0.00000000
11
  0.12816583
21
 -0.07775000
31
  0.00000000
0
CIRCLE
8
DC
6
CONTINUOUS
62
7
10
  0.12800000
20
 -0.07800000
30
  0.00000000
40
  0.00030000
0
LINE
8
DC
6
CONTINUOUS
62
7
10
  0.12800000
20
 -0.08030000
30
  0.00000000
11
  0.12800000
21
 -0.08030000
31
  0.00000000
0
LINE
8
DC
6
CONTINUOUS
62
7
10
  0.12783417
20
 -0.08025000
30
  0.00000000
11
  0.12816583
21
 -0.08025000
31
  0.00000000
0
LINE
8
DC
6
CONTINUOUS
62
7
10
  0.12777639
20
 -0.08020000
30
  0.00000000
11
  0.12822361
21
 -0.08020000
31
  0.00000000
0
LINE
8
DC
6
CONTINUOUS
62
7
10
  0.12774019
20
 -0.08015000
30
  0.00000000
11
  0.12825981
21
 -0.08015000
31
  0.00000000
0
LINE
8
DC
6
CONTINUOUS
62
7
10
  0.12771716
20
 -0.08010000
30
  0.00000000
11
  0.12828284
21
 -0.08010000
31
  0.00000000
0
LINE
8
DC
6
CONTINUOUS
62
7
10
  0.12770420
20
 -0.08005000
30
  0.00000000
11
  0.12829580
21
 -0.08005000
31
  0.00000000
0
LINE
8
DC
6
CONTINUOUS
62
7
10
  0.12770000
20
 -0.08000000
30
  0.00000000
11
  0.12830000
21
 -0.08000000
31
  0.00000000
0
LINE
8
DC
6
CONTINUOUS
62
7
10
  0.12770420
20
 -0.07995000
30
  0.00000000
11
  0.12829580
21
 -0.07995000
31
  0.00000000
0
LINE
8
DC
6
CONTINUOUS
62
7
10
  0.12771716
20
 -0.07990000
30
  0.00000000
11
  0.12828284
21
 -0.07990000
31
  0.00000000
0
LINE
8
DC
6
CONTINUOUS
62
7
10
  0.12774019
20
 -0.07985000
30
  0.00000000
11
  0.12825981
21
 -0.07985000
31
  0.00000000
0
LINE
8
DC
6
CONTINUOUS
62
7
10
  0.12777639
20
 -0.07980000
30
  0.00000000
11
  0.12822361
21
 -0.07980000
31
  0.00000000
0
LINE
8
DC
6
CONTINUOUS
62
7
10
  0.12783417
20
 -0.07975000
30
  0.00000000
11
  0.12816583
21
 -0.07975000
31
  0.00000000
0
CIRCLE
8
DC
6
CONTINUOUS
62
7
10
  0.12800000
20
 -0.08000000
30
  0.00000000
40
  0.00030000
0
LINE
8
DC
6
CONTINUOUS
62
7
10
  0.12800000
20
 -0.08230000
30
  0.00000000
11
  0.12800000
21
 -0.08230000
31
  0.00000000
0
LINE
8
DC
6
CONTINUOUS
62
7
10
  0.12783417
20
 -0.08225000
30
  0.00000000
11
  0.12816583
21
 -0.08225000
31
  0.00000000
0
LINE
8
DC
6
CONTINUOUS
62
7
10
  0.12777639
20
 -0.08220000
30
  0.00000000
11
  0.12822361
21
 -0.08220000
31
  0.00000000
0
LINE
8
DC
6
CONTINUOUS
62
7
10
  0.12774019
20
 -0.08215000
30
  0.00000000
11
  0.12825981
21
 -0.08215000
31
  0.00000000
0
LINE
8
DC
6
CONTINUOUS
62
7
10
  0.12771716
20
 -0.08210000
30
  0.00000000
11
  0.12828284
21
 -0.08210000
31
  0.00000000
0
LINE
8
DC
6
CONTINUOUS
62
7
10
  0.12770420
20
 -0.08205000
30
  0.00000000
11
  0.12829580
21
 -0.08205000
31
  0.00000000
0
LINE
8
DC
6
CONTINUOUS
62
7
10
  0.12770000
20
 -0.08200000
30
  0.00000000
11
  0.12830000
21
 -0.08200000
31
  0.00000000
0
LINE
8
DC
6
CONTINUOUS
62
7
10
  0.12770420
20
 -0.08195000
30
  0.00000000
11
  0.12829580
21
 -0.08195000
31
  0.00000000
0
LINE
8
DC
6
CONTINUOUS
62
7
10
  0.12771716
20
 -0.08190000
30
  0.00000000
11
  0.12828284
21
 -0.08190000
31
  0.00000000
0
LINE
8
DC
6
CONTINUOUS
62
7
10
  0.12774019
20
 -0.08185000
30
  0.00000000
11
  0.12825981
21
 -0.08185000
31
  0.00000000
0
LINE
8
DC
6
CONTINUOUS
62
7
10
  0.12777639
20
 -0.08180000
30
  0.00000000
11
  0.12822361
21
 -0.08180000
31
  0.00000000
0
LINE
8
DC
6
CONTINUOUS
62
7
10
  0.12783417
20
 -0.08175000
30
  0.00000000
11
  0.12816583
21
 -0.08175000
31
  0.00000000
0
CIRCLE
8
DC
6
CONTINUOUS
62
7
10
  0.12800000
20
 -0.08200000
30
  0.00000000
40
  0.00030000
0
LINE
8
DC
6
CONTINUOUS
62
7
10
  0.12800000
20
 -0.08430000
30
  0.00000000
11
  0.12800000
21
 -0.08430000
31
  0.00000000
0
LINE
8
DC
6
CONTINUOUS
62
7
10
  0.12783417
20
 -0.08425000
30
  0.00000000
11
  0.12816583
21
 -0.08425000
31
  0.00000000
0
LINE
8
DC
6
CONTINUOUS
62
7
10
  0.12777639
20
 -0.08420000
30
  0.00000000
11
  0.12822361
21
 -0.08420000
31
  0.00000000
0
LINE
8
DC
6
CONTINUOUS
62
7
10
  0.12774019
20
 -0.08415000
30
  0.00000000
11
  0.12825981
21
 -0.08415000
31
  0.00000000
0
LINE
8
DC
6
CONTINUOUS
62
7
10
  0.12771716
20
 -0.08410000
30
  0.00000000
11
  0.12828284
21
 -0.08410000
31
  0.00000000
0
LINE
8
DC
6
CONTINUOUS
62
7
10
  0.12770420
20
 -0.08405000
30
  0.00000000
11
  0.12829580
21
 -0.08405000
31
  0.00000000
0
LINE
8
DC
6
CONTINUOUS
62
7
10
  0.12770000
20
 -0.08400000
30
  0.00000000
11
  0.12830000
21
 -0.08400000
31
  0.00000000
0
LINE
8
DC
6
CONTINUOUS
62
7
10
  0.12770420
20
 -0.08395000
30
  0.00000000
11
  0.12829580
21
 -0.08395000
31
  0.00000000
0
LINE
8
DC
6
CONTINUOUS
62
7
10
  0.12771716
20
 -0.08390000
30
  0.00000000
11
  0.12828284
21
 -0.08390000
31
  0.00000000
0
LINE
8
DC
6
CONTINUOUS
62
7
10
  0.12774019
20
 -0.08385000
30
  0.00000000
11
  0.12825981
21
 -0.08385000
31
  0.00000000
0
LINE
8
DC
6
CONTINUOUS
62
7
10
  0.12777639
20
 -0.08380000
30
  0.00000000
11
  0.12822361
21
 -0.08380000
31
  0.00000000
0
LINE
8
DC
6
CONTINUOUS
62
7
10
  0.12783417
20
 -0.08375000
30
  0.00000000
11
  0.12816583
21
 -0.08375000
31
  0.00000000
0
CIRCLE
8
DC
6
CONTINUOUS
62
7
10
  0.12800000
20
 -0.08400000
30
  0.00000000
40
  0.00030000
0
LINE
8
DC
6
CONTINUOUS
62
7
10
  0.12800000
20
 -0.08630000
30
  0.00000000
11
  0.12800000
21
 -0.08630000
31
  0.00000000
0
LINE
8
DC
6
CONTINUOUS
62
7
10
  0.12783417
20
 -0.08625000
30
  0.00000000
11
  0.12816583
21
 -0.08625000
31
  0.00000000
0
LINE
8
DC
6
CONTINUOUS
62
7
10
  0.12777639
20
 -0.08620000
30
  0.00000000
11
  0.12822361
21
 -0.08620000
31
  0.00000000
0
LINE
8
DC
6
CONTINUOUS
62
7
10
  0.12774019
20
 -0.08615000
30
  0.00000000
11
  0.12825981
21
 -0.08615000
31
  0.00000000
0
LINE
8
DC
6
CONTINUOUS
62
7
10
  0.12771716
20
 -0.08610000
30
  0.00000000
11
  0.12828284
21
 -0.08610000
31
  0.00000000
0
LINE
8
DC
6
CONTINUOUS
62
7
10
  0.12770420
20
 -0.08605000
30
  0.00000000
11
  0.12829580
21
 -0.08605000
31
  0.00000000
0
LINE
8
DC
6
CONTINUOUS
62
7
10
  0.12770000
20
 -0.08600000
30
  0.00000000
11
  0.12830000
21
 -0.08600000
31
  0.00000000
0
LINE
8
DC
6
CONTINUOUS
62
7
10
  0.12770420
20
 -0.08595000
30
  0.00000000
11
  0.12829580
21
 -0.08595000
31
  0.00000000
0
LINE
8
DC
6
CONTINUOUS
62
7
10
  0.12771716
20
 -0.08590000
30
  0.00000000
11
  0.12828284
21
 -0.08590000
31
  0.00000000
0
LINE
8
DC
6
CONTINUOUS
62
7
10
  0.12774019
20
 -0.08585000
30
  0.00000000
11
  0.12825981
21
 -0.08585000
31
  0.00000000
0
LINE
8
DC
6
CONTINUOUS
62
7
10
  0.12777639
20
 -0.08580000
30
  0.00000000
11
  0.12822361
21
 -0.08580000
31
  0.00000000
0
LINE
8
DC
6
CONTINUOUS
62
7
10
  0.12783417
20
 -0.08575000
30
  0.00000000
11
  0.12816583
21
 -0.08575000
31
  0.00000000
0
CIRCLE
8
DC
6
CONTINUOUS
62
7
10
  0.12800000
20
 -0.08600000
30
  0.00000000
40
  0.00030000
0
LINE
8
DC
6
CONTINUOUS
62
7
10
  0.12800000
20
 -0.08830000
30
  0.00000000
11
  0.12800000
21
 -0.08830000
31
  0.00000000
0
LINE
8
DC
6
CONTINUOUS
62
7
10
  0.12783417
20
 -0.08825000
30
  0.00000000
11
  0.12816583
21
 -0.08825000
31
  0.00000000
0
LINE
8
DC
6
CONTINUOUS
62
7
10
  0.12777639
20
 -0.08820000
30
  0.00000000
11
  0.12822361
21
 -0.08820000
31
  0.00000000
0
LINE
8
DC
6
CONTINUOUS
62
7
10
  0.12774019
20
 -0.08815000
30
  0.00000000
11
  0.12825981
21
 -0.08815000
31
  0.00000000
0
LINE
8
DC
6
CONTINUOUS
62
7
10
  0.12771716
20
 -0.08810000
30
  0.00000000
11
  0.12828284
21
 -0.08810000
31
  0.00000000
0
LINE
8
DC
6
CONTINUOUS
62
7
10
  0.12770420
20
 -0.08805000
30
  0.00000000
11
  0.12829580
21
 -0.08805000
31
  0.00000000
0
LINE
8
DC
6
CONTINUOUS
62
7
10
  0.12770000
20
 -0.08800000
30
  0.00000000
11
  0.12830000
21
 -0.08800000
31
  0.00000000
0
LINE
8
DC
6
CONTINUOUS
62
7
10
  0.12770420
20
 -0.08795000
30
  0.00000000
11
  0.12829580
21
 -0.08795000
31
  0.00000000
0
LINE
8
DC
6
CONTINUOUS
62
7
10
  0.12771716
20
 -0.08790000
30
  0.00000000
11
  0.12828284
21
 -0.08790000
31
  0.00000000
0
LINE
8
DC
6
CONTINUOUS
62
7
10
  0.12774019
20
 -0.08785000
30
  0.00000000
11
  0.12825981
21
 -0.08785000
31
  0.00000000
0
LINE
8
DC
6
CONTINUOUS
62
7
10
  0.12777639
20
 -0.08780000
30
  0.00000000
11
  0.12822361
21
 -0.08780000
31
  0.00000000
0
LINE
8
DC
6
CONTINUOUS
62
7
10
  0.12783417
20
 -0.08775000
30
  0.00000000
11
  0.12816583
21
 -0.08775000
31
  0.00000000
0
CIRCLE
8
DC
6
CONTINUOUS
62
7
10
  0.12800000
20
 -0.08800000
30
  0.00000000
40
  0.00030000
0
LINE
8
DC
6
CONTINUOUS
62
7
10
  0.12800000
20
 -0.09030000
30
  0.00000000
11
  0.12800000
21
 -0.09030000
31
  0.00000000
0
LINE
8
DC
6
CONTINUOUS
62
7
10
  0.12783417
20
 -0.09025000
30
  0.00000000
11
  0.12816583
21
 -0.09025000
31
  0.00000000
0
LINE
8
DC
6
CONTINUOUS
62
7
10
  0.12777639
20
 -0.09020000
30
  0.00000000
11
  0.12822361
21
 -0.09020000
31
  0.00000000
0
LINE
8
DC
6
CONTINUOUS
62
7
10
  0.12774019
20
 -0.09015000
30
  0.00000000
11
  0.12825981
21
 -0.09015000
31
  0.00000000
0
LINE
8
DC
6
CONTINUOUS
62
7
10
  0.12771716
20
 -0.09010000
30
  0.00000000
11
  0.12828284
21
 -0.09010000
31
  0.00000000
0
LINE
8
DC
6
CONTINUOUS
62
7
10
  0.12770420
20
 -0.09005000
30
  0.00000000
11
  0.12829580
21
 -0.09005000
31
  0.00000000
0
LINE
8
DC
6
CONTINUOUS
62
7
10
  0.12770000
20
 -0.09000000
30
  0.00000000
11
  0.12830000
21
 -0.09000000
31
  0.00000000
0
LINE
8
DC
6
CONTINUOUS
62
7
10
  0.12770420
20
 -0.08995000
30
  0.00000000
11
  0.12829580
21
 -0.08995000
31
  0.00000000
0
LINE
8
DC
6
CONTINUOUS
62
7
10
  0.12771716
20
 -0.08990000
30
  0.00000000
11
  0.12828284
21
 -0.08990000
31
  0.00000000
0
LINE
8
DC
6
CONTINUOUS
62
7
10
  0.12774019
20
 -0.08985000
30
  0.00000000
11
  0.12825981
21
 -0.08985000
31
  0.00000000
0
LINE
8
DC
6
CONTINUOUS
62
7
10
  0.12777639
20
 -0.08980000
30
  0.00000000
11
  0.12822361
21
 -0.08980000
31
  0.00000000
0
LINE
8
DC
6
CONTINUOUS
62
7
10
  0.12783417
20
 -0.08975000
30
  0.00000000
11
  0.12816583
21
 -0.08975000
31
  0.00000000
0
CIRCLE
8
DC
6
CONTINUOUS
62
7
10
  0.12800000
20
 -0.09000000
30
  0.00000000
40
  0.00030000
0
LINE
8
DC
6
CONTINUOUS
62
7
10
  0.12900000
20
 -0.07630000
30
  0.00000000
11
  0.12900000
21
 -0.07630000
31
  0.00000000
0
LINE
8
DC
6
CONTINUOUS
62
7
10
  0.12883417
20
 -0.07625000
30
  0.00000000
11
  0.12916583
21
 -0.07625000
31
  0.00000000
0
LINE
8
DC
6
CONTINUOUS
62
7
10
  0.12877639
20
 -0.07620000
30
  0.00000000
11
  0.12922361
21
 -0.07620000
31
  0.00000000
0
LINE
8
DC
6
CONTINUOUS
62
7
10
  0.12874019
20
 -0.07615000
30
  0.00000000
11
  0.12925981
21
 -0.07615000
31
  0.00000000
0
LINE
8
DC
6
CONTINUOUS
62
7
10
  0.12871716
20
 -0.07610000
30
  0.00000000
11
  0.12928284
21
 -0.07610000
31
  0.00000000
0
LINE
8
DC
6
CONTINUOUS
62
7
10
  0.12870420
20
 -0.07605000
30
  0.00000000
11
  0.12929580
21
 -0.07605000
31
  0.00000000
0
LINE
8
DC
6
CONTINUOUS
62
7
10
  0.12870000
20
 -0.07600000
30
  0.00000000
11
  0.12930000
21
 -0.07600000
31
  0.00000000
0
LINE
8
DC
6
CONTINUOUS
62
7
10
  0.12870420
20
 -0.07595000
30
  0.00000000
11
  0.12929580
21
 -0.07595000
31
  0.00000000
0
LINE
8
DC
6
CONTINUOUS
62
7
10
  0.12871716
20
 -0.07590000
30
  0.00000000
11
  0.12928284
21
 -0.07590000
31
  0.00000000
0
LINE
8
DC
6
CONTINUOUS
62
7
10
  0.12874019
20
 -0.07585000
30
  0.00000000
11
  0.12925981
21
 -0.07585000
31
  0.00000000
0
LINE
8
DC
6
CONTINUOUS
62
7
10
  0.12877639
20
 -0.07580000
30
  0.00000000
11
  0.12922361
21
 -0.07580000
31
  0.00000000
0
LINE
8
DC
6
CONTINUOUS
62
7
10
  0.12883417
20
 -0.07575000
30
  0.00000000
11
  0.12916583
21
 -0.07575000
31
  0.00000000
0
CIRCLE
8
DC
6
CONTINUOUS
62
7
10
  0.12900000
20
 -0.07600000
30
  0.00000000
40
  0.00030000
0
LINE
8
DC
6
CONTINUOUS
62
7
10
  0.12900000
20
 -0.07830000
30
  0.00000000
11
  0.12900000
21
 -0.07830000
31
  0.00000000
0
LINE
8
DC
6
CONTINUOUS
62
7
10
  0.12883417
20
 -0.07825000
30
  0.00000000
11
  0.12916583
21
 -0.07825000
31
  0.00000000
0
LINE
8
DC
6
CONTINUOUS
62
7
10
  0.12877639
20
 -0.07820000
30
  0.00000000
11
  0.12922361
21
 -0.07820000
31
  0.00000000
0
LINE
8
DC
6
CONTINUOUS
62
7
10
  0.12874019
20
 -0.07815000
30
  0.00000000
11
  0.12925981
21
 -0.07815000
31
  0.00000000
0
LINE
8
DC
6
CONTINUOUS
62
7
10
  0.12871716
20
 -0.07810000
30
  0.00000000
11
  0.12928284
21
 -0.07810000
31
  0.00000000
0
LINE
8
DC
6
CONTINUOUS
62
7
10
  0.12870420
20
 -0.07805000
30
  0.00000000
11
  0.12929580
21
 -0.07805000
31
  0.00000000
0
LINE
8
DC
6
CONTINUOUS
62
7
10
  0.12870000
20
 -0.07800000
30
  0.00000000
11
  0.12930000
21
 -0.07800000
31
  0.00000000
0
LINE
8
DC
6
CONTINUOUS
62
7
10
  0.12870420
20
 -0.07795000
30
  0.00000000
11
  0.12929580
21
 -0.07795000
31
  0.00000000
0
LINE
8
DC
6
CONTINUOUS
62
7
10
  0.12871716
20
 -0.07790000
30
  0.00000000
11
  0.12928284
21
 -0.07790000
31
  0.00000000
0
LINE
8
DC
6
CONTINUOUS
62
7
10
  0.12874019
20
 -0.07785000
30
  0.00000000
11
  0.12925981
21
 -0.07785000
31
  0.00000000
0
LINE
8
DC
6
CONTINUOUS
62
7
10
  0.12877639
20
 -0.07780000
30
  0.00000000
11
  0.12922361
21
 -0.07780000
31
  0.00000000
0
LINE
8
DC
6
CONTINUOUS
62
7
10
  0.12883417
20
 -0.07775000
30
  0.00000000
11
  0.12916583
21
 -0.07775000
31
  0.00000000
0
CIRCLE
8
DC
6
CONTINUOUS
62
7
10
  0.12900000
20
 -0.07800000
30
  0.00000000
40
  0.00030000
0
LINE
8
DC
6
CONTINUOUS
62
7
10
  0.12900000
20
 -0.08030000
30
  0.00000000
11
  0.12900000
21
 -0.08030000
31
  0.00000000
0
LINE
8
DC
6
CONTINUOUS
62
7
10
  0.12883417
20
 -0.08025000
30
  0.00000000
11
  0.12916583
21
 -0.08025000
31
  0.00000000
0
LINE
8
DC
6
CONTINUOUS
62
7
10
  0.12877639
20
 -0.08020000
30
  0.00000000
11
  0.12922361
21
 -0.08020000
31
  0.00000000
0
LINE
8
DC
6
CONTINUOUS
62
7
10
  0.12874019
20
 -0.08015000
30
  0.00000000
11
  0.12925981
21
 -0.08015000
31
  0.00000000
0
LINE
8
DC
6
CONTINUOUS
62
7
10
  0.12871716
20
 -0.08010000
30
  0.00000000
11
  0.12928284
21
 -0.08010000
31
  0.00000000
0
LINE
8
DC
6
CONTINUOUS
62
7
10
  0.12870420
20
 -0.08005000
30
  0.00000000
11
  0.12929580
21
 -0.08005000
31
  0.00000000
0
LINE
8
DC
6
CONTINUOUS
62
7
10
  0.12870000
20
 -0.08000000
30
  0.00000000
11
  0.12930000
21
 -0.08000000
31
  0.00000000
0
LINE
8
DC
6
CONTINUOUS
62
7
10
  0.12870420
20
 -0.07995000
30
  0.00000000
11
  0.12929580
21
 -0.07995000
31
  0.00000000
0
LINE
8
DC
6
CONTINUOUS
62
7
10
  0.12871716
20
 -0.07990000
30
  0.00000000
11
  0.12928284
21
 -0.07990000
31
  0.00000000
0
LINE
8
DC
6
CONTINUOUS
62
7
10
  0.12874019
20
 -0.07985000
30
  0.00000000
11
  0.12925981
21
 -0.07985000
31
  0.00000000
0
LINE
8
DC
6
CONTINUOUS
62
7
10
  0.12877639
20
 -0.07980000
30
  0.00000000
11
  0.12922361
21
 -0.07980000
31
  0.00000000
0
LINE
8
DC
6
CONTINUOUS
62
7
10
  0.12883417
20
 -0.07975000
30
  0.00000000
11
  0.12916583
21
 -0.07975000
31
  0.00000000
0
CIRCLE
8
DC
6
CONTINUOUS
62
7
10
  0.12900000
20
 -0.08000000
30
  0.00000000
40
  0.00030000
0
LINE
8
DC
6
CONTINUOUS
62
7
10
  0.12900000
20
 -0.08230000
30
  0.00000000
11
  0.12900000
21
 -0.08230000
31
  0.00000000
0
LINE
8
DC
6
CONTINUOUS
62
7
10
  0.12883417
20
 -0.08225000
30
  0.00000000
11
  0.12916583
21
 -0.08225000
31
  0.00000000
0
LINE
8
DC
6
CONTINUOUS
62
7
10
  0.12877639
20
 -0.08220000
30
  0.00000000
11
  0.12922361
21
 -0.08220000
31
  0.00000000
0
LINE
8
DC
6
CONTINUOUS
62
7
10
  0.12874019
20
 -0.08215000
30
  0.00000000
11
  0.12925981
21
 -0.08215000
31
  0.00000000
0
LINE
8
DC
6
CONTINUOUS
62
7
10
  0.12871716
20
 -0.08210000
30
  0.00000000
11
  0.12928284
21
 -0.08210000
31
  0.00000000
0
LINE
8
DC
6
CONTINUOUS
62
7
10
  0.12870420
20
 -0.08205000
30
  0.00000000
11
  0.12929580
21
 -0.08205000
31
  0.00000000
0
LINE
8
DC
6
CONTINUOUS
62
7
10
  0.12870000
20
 -0.08200000
30
  0.00000000
11
  0.12930000
21
 -0.08200000
31
  0.00000000
0
LINE
8
DC
6
CONTINUOUS
62
7
10
  0.12870420
20
 -0.08195000
30
  0.00000000
11
  0.12929580
21
 -0.08195000
31
  0.00000000
0
LINE
8
DC
6
CONTINUOUS
62
7
10
  0.12871716
20
 -0.08190000
30
  0.00000000
11
  0.12928284
21
 -0.08190000
31
  0.00000000
0
LINE
8
DC
6
CONTINUOUS
62
7
10
  0.12874019
20
 -0.08185000
30
  0.00000000
11
  0.12925981
21
 -0.08185000
31
  0.00000000
0
LINE
8
DC
6
CONTINUOUS
62
7
10
  0.12877639
20
 -0.08180000
30
  0.00000000
11
  0.12922361
21
 -0.08180000
31
  0.00000000
0
LINE
8
DC
6
CONTINUOUS
62
7
10
  0.12883417
20
 -0.08175000
30
  0.00000000
11
  0.12916583
21
 -0.08175000
31
  0.00000000
0
CIRCLE
8
DC
6
CONTINUOUS
62
7
10
  0.12900000
20
 -0.08200000
30
  0.00000000
40
  0.00030000
0
LINE
8
DC
6
CONTINUOUS
62
7
10
  0.12900000
20
 -0.08430000
30
  0.00000000
11
  0.12900000
21
 -0.08430000
31
  0.00000000
0
LINE
8
DC
6
CONTINUOUS
62
7
10
  0.12883417
20
 -0.08425000
30
  0.00000000
11
  0.12916583
21
 -0.08425000
31
  0.00000000
0
LINE
8
DC
6
CONTINUOUS
62
7
10
  0.12877639
20
 -0.08420000
30
  0.00000000
11
  0.12922361
21
 -0.08420000
31
  0.00000000
0
LINE
8
DC
6
CONTINUOUS
62
7
10
  0.12874019
20
 -0.08415000
30
  0.00000000
11
  0.12925981
21
 -0.08415000
31
  0.00000000
0
LINE
8
DC
6
CONTINUOUS
62
7
10
  0.12871716
20
 -0.08410000
30
  0.00000000
11
  0.12928284
21
 -0.08410000
31
  0.00000000
0
LINE
8
DC
6
CONTINUOUS
62
7
10
  0.12870420
20
 -0.08405000
30
  0.00000000
11
  0.12929580
21
 -0.08405000
31
  0.00000000
0
LINE
8
DC
6
CONTINUOUS
62
7
10
  0.12870000
20
 -0.08400000
30
  0.00000000
11
  0.12930000
21
 -0.08400000
31
  0.00000000
0
LINE
8
DC
6
CONTINUOUS
62
7
10
  0.12870420
20
 -0.08395000
30
  0.00000000
11
  0.12929580
21
 -0.08395000
31
  0.00000000
0
LINE
8
DC
6
CONTINUOUS
62
7
10
  0.12871716
20
 -0.08390000
30
  0.00000000
11
  0.12928284
21
 -0.08390000
31
  0.00000000
0
LINE
8
DC
6
CONTINUOUS
62
7
10
  0.12874019
20
 -0.08385000
30
  0.00000000
11
  0.12925981
21
 -0.08385000
31
  0.00000000
0
LINE
8
DC
6
CONTINUOUS
62
7
10
  0.12877639
20
 -0.08380000
30
  0.00000000
11
  0.12922361
21
 -0.08380000
31
  0.00000000
0
LINE
8
DC
6
CONTINUOUS
62
7
10
  0.12883417
20
 -0.08375000
30
  0.00000000
11
  0.12916583
21
 -0.08375000
31
  0.00000000
0
CIRCLE
8
DC
6
CONTINUOUS
62
7
10
  0.12900000
20
 -0.08400000
30
  0.00000000
40
  0.00030000
0
LINE
8
DC
6
CONTINUOUS
62
7
10
  0.12900000
20
 -0.08630000
30
  0.00000000
11
  0.12900000
21
 -0.08630000
31
  0.00000000
0
LINE
8
DC
6
CONTINUOUS
62
7
10
  0.12883417
20
 -0.08625000
30
  0.00000000
11
  0.12916583
21
 -0.08625000
31
  0.00000000
0
LINE
8
DC
6
CONTINUOUS
62
7
10
  0.12877639
20
 -0.08620000
30
  0.00000000
11
  0.12922361
21
 -0.08620000
31
  0.00000000
0
LINE
8
DC
6
CONTINUOUS
62
7
10
  0.12874019
20
 -0.08615000
30
  0.00000000
11
  0.12925981
21
 -0.08615000
31
  0.00000000
0
LINE
8
DC
6
CONTINUOUS
62
7
10
  0.12871716
20
 -0.08610000
30
  0.00000000
11
  0.12928284
21
 -0.08610000
31
  0.00000000
0
LINE
8
DC
6
CONTINUOUS
62
7
10
  0.12870420
20
 -0.08605000
30
  0.00000000
11
  0.12929580
21
 -0.08605000
31
  0.00000000
0
LINE
8
DC
6
CONTINUOUS
62
7
10
  0.12870000
20
 -0.08600000
30
  0.00000000
11
  0.12930000
21
 -0.08600000
31
  0.00000000
0
LINE
8
DC
6
CONTINUOUS
62
7
10
  0.12870420
20
 -0.08595000
30
  0.00000000
11
  0.12929580
21
 -0.08595000
31
  0.00000000
0
LINE
8
DC
6
CONTINUOUS
62
7
10
  0.12871716
20
 -0.08590000
30
  0.00000000
11
  0.12928284
21
 -0.08590000
31
  0.00000000
0
LINE
8
DC
6
CONTINUOUS
62
7
10
  0.12874019
20
 -0.08585000
30
  0.00000000
11
  0.12925981
21
 -0.08585000
31
  0.00000000
0
LINE
8
DC
6
CONTINUOUS
62
7
10
  0.12877639
20
 -0.08580000
30
  0.00000000
11
  0.12922361
21
 -0.08580000
31
  0.00000000
0
LINE
8
DC
6
CONTINUOUS
62
7
10
  0.12883417
20
 -0.08575000
30
  0.00000000
11
  0.12916583
21
 -0.08575000
31
  0.00000000
0
CIRCLE
8
DC
6
CONTINUOUS
62
7
10
  0.12900000
20
 -0.08600000
30
  0.00000000
40
  0.00030000
0
LINE
8
DC
6
CONTINUOUS
62
7
10
  0.12900000
20
 -0.08830000
30
  0.00000000
11
  0.12900000
21
 -0.08830000
31
  0.00000000
0
LINE
8
DC
6
CONTINUOUS
62
7
10
  0.12883417
20
 -0.08825000
30
  0.00000000
11
  0.12916583
21
 -0.08825000
31
  0.00000000
0
LINE
8
DC
6
CONTINUOUS
62
7
10
  0.12877639
20
 -0.08820000
30
  0.00000000
11
  0.12922361
21
 -0.08820000
31
  0.00000000
0
LINE
8
DC
6
CONTINUOUS
62
7
10
  0.12874019
20
 -0.08815000
30
  0.00000000
11
  0.12925981
21
 -0.08815000
31
  0.00000000
0
LINE
8
DC
6
CONTINUOUS
62
7
10
  0.12871716
20
 -0.08810000
30
  0.00000000
11
  0.12928284
21
 -0.08810000
31
  0.00000000
0
LINE
8
DC
6
CONTINUOUS
62
7
10
  0.12870420
20
 -0.08805000
30
  0.00000000
11
  0.12929580
21
 -0.08805000
31
  0.00000000
0
LINE
8
DC
6
CONTINUOUS
62
7
10
  0.12870000
20
 -0.08800000
30
  0.00000000
11
  0.12930000
21
 -0.08800000
31
  0.00000000
0
LINE
8
DC
6
CONTINUOUS
62
7
10
  0.12870420
20
 -0.08795000
30
  0.00000000
11
  0.12929580
21
 -0.08795000
31
  0.00000000
0
LINE
8
DC
6
CONTINUOUS
62
7
10
  0.12871716
20
 -0.08790000
30
  0.00000000
11
  0.12928284
21
 -0.08790000
31
  0.00000000
0
LINE
8
DC
6
CONTINUOUS
62
7
10
  0.12874019
20
 -0.08785000
30
  0.00000000
11
  0.12925981
21
 -0.08785000
31
  0.00000000
0
LINE
8
DC
6
CONTINUOUS
62
7
10
  0.12877639
20
 -0.08780000
30
  0.00000000
11
  0.12922361
21
 -0.08780000
31
  0.00000000
0
LINE
8
DC
6
CONTINUOUS
62
7
10
  0.12883417
20
 -0.08775000
30
  0.00000000
11
  0.12916583
21
 -0.08775000
31
  0.00000000
0
CIRCLE
8
DC
6
CONTINUOUS
62
7
10
  0.12900000
20
 -0.08800000
30
  0.00000000
40
  0.00030000
0
LINE
8
DC
6
CONTINUOUS
62
7
10
  0.12900000
20
 -0.09030000
30
  0.00000000
11
  0.12900000
21
 -0.09030000
31
  0.00000000
0
LINE
8
DC
6
CONTINUOUS
62
7
10
  0.12883417
20
 -0.09025000
30
  0.00000000
11
  0.12916583
21
 -0.09025000
31
  0.00000000
0
LINE
8
DC
6
CONTINUOUS
62
7
10
  0.12877639
20
 -0.09020000
30
  0.00000000
11
  0.12922361
21
 -0.09020000
31
  0.00000000
0
LINE
8
DC
6
CONTINUOUS
62
7
10
  0.12874019
20
 -0.09015000
30
  0.00000000
11
  0.12925981
21
 -0.09015000
31
  0.00000000
0
LINE
8
DC
6
CONTINUOUS
62
7
10
  0.12871716
20
 -0.09010000
30
  0.00000000
11
  0.12928284
21
 -0.09010000
31
  0.00000000
0
LINE
8
DC
6
CONTINUOUS
62
7
10
  0.12870420
20
 -0.09005000
30
  0.00000000
11
  0.12929580
21
 -0.09005000
31
  0.00000000
0
LINE
8
DC
6
CONTINUOUS
62
7
10
  0.12870000
20
 -0.09000000
30
  0.00000000
11
  0.12930000
21
 -0.09000000
31
  0.00000000
0
LINE
8
DC
6
CONTINUOUS
62
7
10
  0.12870420
20
 -0.08995000
30
  0.00000000
11
  0.12929580
21
 -0.08995000
31
  0.00000000
0
LINE
8
DC
6
CONTINUOUS
62
7
10
  0.12871716
20
 -0.08990000
30
  0.00000000
11
  0.12928284
21
 -0.08990000
31
  0.00000000
0
LINE
8
DC
6
CONTINUOUS
62
7
10
  0.12874019
20
 -0.08985000
30
  0.00000000
11
  0.12925981
21
 -0.08985000
31
  0.00000000
0
LINE
8
DC
6
CONTINUOUS
62
7
10
  0.12877639
20
 -0.08980000
30
  0.00000000
11
  0.12922361
21
 -0.08980000
31
  0.00000000
0
LINE
8
DC
6
CONTINUOUS
62
7
10
  0.12883417
20
 -0.08975000
30
  0.00000000
11
  0.12916583
21
 -0.08975000
31
  0.00000000
0
CIRCLE
8
DC
6
CONTINUOUS
62
7
10
  0.12900000
20
 -0.09000000
30
  0.00000000
40
  0.00030000
0
SOLID
8
DC
62
30
10
  0.11690000
20
 -0.07500000
30
  0.00000000
11
  0.12700000
21
 -0.07500000
31
  0.00000000
12
  0.11690000
22
 -0.09110000
32
  0.00000000
13
  0.12700000
23
 -0.09110000
33
  0.00000000
0
LINE
8
DC
6
CONTINUOUS
62
7
10
  0.11690000
20
 -0.07500000
30
  0.00000000
11
  0.12700000
21
 -0.07500000
31
  0.00000000
0
LINE
8
DC
6
CONTINUOUS
62
7
10
  0.12700000
20
 -0.07500000
30
  0.00000000
11
  0.12700000
21
 -0.09110000
31
  0.00000000
0
LINE
8
DC
6
CONTINUOUS
62
7
10
  0.12700000
20
 -0.09110000
30
  0.00000000
11
  0.11690000
21
 -0.09110000
31
  0.00000000
0
LINE
8
DC
6
CONTINUOUS
62
7
10
  0.11690000
20
 -0.09110000
30
  0.00000000
11
  0.11690000
21
 -0.07500000
31
  0.00000000
0
LINE
8
DC
6
CONTINUOUS
62
7
10
  0.11840000
20
 -0.07620000
30
  0.00000000
11
  0.11840000
21
 -0.07620000
31
  0.00000000
0
LINE
8
DC
6
CONTINUOUS
62
7
10
  0.11823417
20
 -0.07615000
30
  0.00000000
11
  0.11856583
21
 -0.07615000
31
  0.00000000
0
LINE
8
DC
6
CONTINUOUS
62
7
10
  0.11817639
20
 -0.07610000
30
  0.00000000
11
  0.11862361
21
 -0.07610000
31
  0.00000000
0
LINE
8
DC
6
CONTINUOUS
62
7
10
  0.11814019
20
 -0.07605000
30
  0.00000000
11
  0.11865981
21
 -0.07605000
31
  0.00000000
0
LINE
8
DC
6
CONTINUOUS
62
7
10
  0.11811716
20
 -0.07600000
30
  0.00000000
11
  0.11868284
21
 -0.07600000
31
  0.00000000
0
LINE
8
DC
6
CONTINUOUS
62
7
10
  0.11810420
20
 -0.07595000
30
  0.00000000
11
  0.11869580
21
 -0.07595000
31
  0.00000000
0
LINE
8
DC
6
CONTINUOUS
62
7
10
  0.11810000
20
 -0.07590000
30
  0.00000000
11
  0.11870000
21
 -0.07590000
31
  0.00000000
0
LINE
8
DC
6
CONTINUOUS
62
7
10
  0.11810420
20
 -0.07585000
30
  0.00000000
11
  0.11869580
21
 -0.07585000
31
  0.00000000
0
LINE
8
DC
6
CONTINUOUS
62
7
10
  0.11811716
20
 -0.07580000
30
  0.00000000
11
  0.11868284
21
 -0.07580000
31
  0.00000000
0
LINE
8
DC
6
CONTINUOUS
62
7
10
  0.11814019
20
 -0.07575000
30
  0.00000000
11
  0.11865981
21
 -0.07575000
31
  0.00000000
0
LINE
8
DC
6
CONTINUOUS
62
7
10
  0.11817639
20
 -0.07570000
30
  0.00000000
11
  0.11862361
21
 -0.07570000
31
  0.00000000
0
LINE
8
DC
6
CONTINUOUS
62
7
10
  0.11823417
20
 -0.07565000
30
  0.00000000
11
  0.11856583
21
 -0.07565000
31
  0.00000000
0
CIRCLE
8
DC
6
CONTINUOUS
62
7
10
  0.11840000
20
 -0.07590000
30
  0.00000000
40
  0.00030000
0
LINE
8
DC
6
CONTINUOUS
62
7
10
  0.12040000
20
 -0.07750000
30
  0.00000000
11
  0.12040000
21
 -0.07750000
31
  0.00000000
0
LINE
8
DC
6
CONTINUOUS
62
7
10
  0.12026771
20
 -0.07745000
30
  0.00000000
11
  0.12053229
21
 -0.07745000
31
  0.00000000
0
LINE
8
DC
6
CONTINUOUS
62
7
10
  0.12022679
20
 -0.07740000
30
  0.00000000
11
  0.12057321
21
 -0.07740000
31
  0.00000000
0
LINE
8
DC
6
CONTINUOUS
62
7
10
  0.12020635
20
 -0.07735000
30
  0.00000000
11
  0.12059365
21
 -0.07735000
31
  0.00000000
0
LINE
8
DC
6
CONTINUOUS
62
7
10
  0.12020000
20
 -0.07730000
30
  0.00000000
11
  0.12060000
21
 -0.07730000
31
  0.00000000
0
LINE
8
DC
6
CONTINUOUS
62
7
10
  0.12020635
20
 -0.07725000
30
  0.00000000
11
  0.12059365
21
 -0.07725000
31
  0.00000000
0
LINE
8
DC
6
CONTINUOUS
62
7
10
  0.12022679
20
 -0.07720000
30
  0.00000000
11
  0.12057321
21
 -0.07720000
31
  0.00000000
0
LINE
8
DC
6
CONTINUOUS
62
7
10
  0.12026771
20
 -0.07715000
30
  0.00000000
11
  0.12053229
21
 -0.07715000
31
  0.00000000
0
CIRCLE
8
DC
6
CONTINUOUS
62
7
10
  0.12040000
20
 -0.07730000
30
  0.00000000
40
  0.00020000
0
LINE
8
DC
6
CONTINUOUS
62
7
10
  0.11840000
20
 -0.07730000
30
  0.00000000
11
  0.11850000
21
 -0.07730000
31
  0.00000000
0
LINE
8
DC
6
CONTINUOUS
62
7
10
  0.12040000
20
 -0.07590000
30
  0.00000000
11
  0.12050000
21
 -0.07590000
31
  0.00000000
0
LINE
8
DC
6
CONTINUOUS
62
7
10
  0.11840000
20
 -0.07960000
30
  0.00000000
11
  0.11840000
21
 -0.07960000
31
  0.00000000
0
LINE
8
DC
6
CONTINUOUS
62
7
10
  0.11820635
20
 -0.07955000
30
  0.00000000
11
  0.11859365
21
 -0.07955000
31
  0.00000000
0
LINE
8
DC
6
CONTINUOUS
62
7
10
  0.11813542
20
 -0.07950000
30
  0.00000000
11
  0.11866458
21
 -0.07950000
31
  0.00000000
0
LINE
8
DC
6
CONTINUOUS
62
7
10
  0.11808775
20
 -0.07945000
30
  0.00000000
11
  0.11871225
21
 -0.07945000
31
  0.00000000
0
LINE
8
DC
6
CONTINUOUS
62
7
10
  0.11805359
20
 -0.07940000
30
  0.00000000
11
  0.11874641
21
 -0.07940000
31
  0.00000000
0
LINE
8
DC
6
CONTINUOUS
62
7
10
  0.11802919
20
 -0.07935000
30
  0.00000000
11
  0.11877081
21
 -0.07935000
31
  0.00000000
0
LINE
8
DC
6
CONTINUOUS
62
7
10
  0.11801270
20
 -0.07930000
30
  0.00000000
11
  0.11878730
21
 -0.07930000
31
  0.00000000
0
LINE
8
DC
6
CONTINUOUS
62
7
10
  0.11800314
20
 -0.07925000
30
  0.00000000
11
  0.11879686
21
 -0.07925000
31
  0.00000000
0
LINE
8
DC
6
CONTINUOUS
62
7
10
  0.11800000
20
 -0.07920000
30
  0.00000000
11
  0.11880000
21
 -0.07920000
31
  0.00000000
0
LINE
8
DC
6
CONTINUOUS
62
7
10
  0.11800314
20
 -0.07915000
30
  0.00000000
11
  0.11879686
21
 -0.07915000
31
  0.00000000
0
LINE
8
DC
6
CONTINUOUS
62
7
10
  0.11801270
20
 -0.07910000
30
  0.00000000
11
  0.11878730
21
 -0.07910000
31
  0.00000000
0
LINE
8
DC
6
CONTINUOUS
62
7
10
  0.11802919
20
 -0.07905000
30
  0.00000000
11
  0.11877081
21
 -0.07905000
31
  0.00000000
0
LINE
8
DC
6
CONTINUOUS
62
7
10
  0.11805359
20
 -0.07900000
30
  0.00000000
11
  0.11874641
21
 -0.07900000
31
  0.00000000
0
LINE
8
DC
6
CONTINUOUS
62
7
10
  0.11808775
20
 -0.07895000
30
  0.00000000
11
  0.11871225
21
 -0.07895000
31
  0.00000000
0
LINE
8
DC
6
CONTINUOUS
62
7
10
  0.11813542
20
 -0.07890000
30
  0.00000000
11
  0.11866458
21
 -0.07890000
31
  0.00000000
0
LINE
8
DC
6
CONTINUOUS
62
7
10
  0.11820635
20
 -0.07885000
30
  0.00000000
11
  0.11859365
21
 -0.07885000
31
  0.00000000
0
CIRCLE
8
DC
6
CONTINUOUS
62
7
10
  0.11840000
20
 -0.07920000
30
  0.00000000
40
  0.00040000
0
LINE
8
DC
6
CONTINUOUS
62
7
10
  0.12040000
20
 -0.08100000
30
  0.00000000
11
  0.12040000
21
 -0.08100000
31
  0.00000000
0
LINE
8
DC
6
CONTINUOUS
62
7
10
  0.12020635
20
 -0.08095000
30
  0.00000000
11
  0.12059365
21
 -0.08095000
31
  0.00000000
0
LINE
8
DC
6
CONTINUOUS
62
7
10
  0.12013542
20
 -0.08090000
30
  0.00000000
11
  0.12066458
21
 -0.08090000
31
  0.00000000
0
LINE
8
DC
6
CONTINUOUS
62
7
10
  0.12008775
20
 -0.08085000
30
  0.00000000
11
  0.12071225
21
 -0.08085000
31
  0.00000000
0
LINE
8
DC
6
CONTINUOUS
62
7
10
  0.12005359
20
 -0.08080000
30
  0.00000000
11
  0.12074641
21
 -0.08080000
31
  0.00000000
0
LINE
8
DC
6
CONTINUOUS
62
7
10
  0.12002919
20
 -0.08075000
30
  0.00000000
11
  0.12077081
21
 -0.08075000
31
  0.00000000
0
LINE
8
DC
6
CONTINUOUS
62
7
10
  0.12001270
20
 -0.08070000
30
  0.00000000
11
  0.12078730
21
 -0.08070000
31
  0.00000000
0
LINE
8
DC
6
CONTINUOUS
62
7
10
  0.12000314
20
 -0.08065000
30
  0.00000000
11
  0.12079686
21
 -0.08065000
31
  0.00000000
0
LINE
8
DC
6
CONTINUOUS
62
7
10
  0.12000000
20
 -0.08060000
30
  0.00000000
11
  0.12080000
21
 -0.08060000
31
  0.00000000
0
LINE
8
DC
6
CONTINUOUS
62
7
10
  0.12000314
20
 -0.08055000
30
  0.00000000
11
  0.12079686
21
 -0.08055000
31
  0.00000000
0
LINE
8
DC
6
CONTINUOUS
62
7
10
  0.12001270
20
 -0.08050000
30
  0.00000000
11
  0.12078730
21
 -0.08050000
31
  0.00000000
0
LINE
8
DC
6
CONTINUOUS
62
7
10
  0.12002919
20
 -0.08045000
30
  0.00000000
11
  0.12077081
21
 -0.08045000
31
  0.00000000
0
LINE
8
DC
6
CONTINUOUS
62
7
10
  0.12005359
20
 -0.08040000
30
  0.00000000
11
  0.12074641
21
 -0.08040000
31
  0.00000000
0
LINE
8
DC
6
CONTINUOUS
62
7
10
  0.12008775
20
 -0.08035000
30
  0.00000000
11
  0.12071225
21
 -0.08035000
31
  0.00000000
0
LINE
8
DC
6
CONTINUOUS
62
7
10
  0.12013542
20
 -0.08030000
30
  0.00000000
11
  0.12066458
21
 -0.08030000
31
  0.00000000
0
LINE
8
DC
6
CONTINUOUS
62
7
10
  0.12020635
20
 -0.08025000
30
  0.00000000
11
  0.12059365
21
 -0.08025000
31
  0.00000000
0
CIRCLE
8
DC
6
CONTINUOUS
62
7
10
  0.12040000
20
 -0.08060000
30
  0.00000000
40
  0.00040000
0
LINE
8
DC
6
CONTINUOUS
62
7
10
  0.11840000
20
 -0.08280000
30
  0.00000000
11
  0.11840000
21
 -0.08280000
31
  0.00000000
0
LINE
8
DC
6
CONTINUOUS
62
7
10
  0.11823417
20
 -0.08275000
30
  0.00000000
11
  0.11856583
21
 -0.08275000
31
  0.00000000
0
LINE
8
DC
6
CONTINUOUS
62
7
10
  0.11817639
20
 -0.08270000
30
  0.00000000
11
  0.11862361
21
 -0.08270000
31
  0.00000000
0
LINE
8
DC
6
CONTINUOUS
62
7
10
  0.11814019
20
 -0.08265000
30
  0.00000000
11
  0.11865981
21
 -0.08265000
31
  0.00000000
0
LINE
8
DC
6
CONTINUOUS
62
7
10
  0.11811716
20
 -0.08260000
30
  0.00000000
11
  0.11868284
21
 -0.08260000
31
  0.00000000
0
LINE
8
DC
6
CONTINUOUS
62
7
10
  0.11810420
20
 -0.08255000
30
  0.00000000
11
  0.11869580
21
 -0.08255000
31
  0.00000000
0
LINE
8
DC
6
CONTINUOUS
62
7
10
  0.11810000
20
 -0.08250000
30
  0.00000000
11
  0.11870000
21
 -0.08250000
31
  0.00000000
0
LINE
8
DC
6
CONTINUOUS
62
7
10
  0.11810420
20
 -0.08245000
30
  0.00000000
11
  0.11869580
21
 -0.08245000
31
  0.00000000
0
LINE
8
DC
6
CONTINUOUS
62
7
10
  0.11811716
20
 -0.08240000
30
  0.00000000
11
  0.11868284
21
 -0.08240000
31
  0.00000000
0
LINE
8
DC
6
CONTINUOUS
62
7
10
  0.11814019
20
 -0.08235000
30
  0.00000000
11
  0.11865981
21
 -0.08235000
31
  0.00000000
0
LINE
8
DC
6
CONTINUOUS
62
7
10
  0.11817639
20
 -0.08230000
30
  0.00000000
11
  0.11862361
21
 -0.08230000
31
  0.00000000
0
LINE
8
DC
6
CONTINUOUS
62
7
10
  0.11823417
20
 -0.08225000
30
  0.00000000
11
  0.11856583
21
 -0.08225000
31
  0.00000000
0
CIRCLE
8
DC
6
CONTINUOUS
62
7
10
  0.11840000
20
 -0.08250000
30
  0.00000000
40
  0.00030000
0
LINE
8
DC
6
CONTINUOUS
62
7
10
  0.12040000
20
 -0.08410000
30
  0.00000000
11
  0.12040000
21
 -0.08410000
31
  0.00000000
0
LINE
8
DC
6
CONTINUOUS
62
7
10
  0.12026771
20
 -0.08405000
30
  0.00000000
11
  0.12053229
21
 -0.08405000
31
  0.00000000
0
LINE
8
DC
6
CONTINUOUS
62
7
10
  0.12022679
20
 -0.08400000
30
  0.00000000
11
  0.12057321
21
 -0.08400000
31
  0.00000000
0
LINE
8
DC
6
CONTINUOUS
62
7
10
  0.12020635
20
 -0.08395000
30
  0.00000000
11
  0.12059365
21
 -0.08395000
31
  0.00000000
0
LINE
8
DC
6
CONTINUOUS
62
7
10
  0.12020000
20
 -0.08390000
30
  0.00000000
11
  0.12060000
21
 -0.08390000
31
  0.00000000
0
LINE
8
DC
6
CONTINUOUS
62
7
10
  0.12020635
20
 -0.08385000
30
  0.00000000
11
  0.12059365
21
 -0.08385000
31
  0.00000000
0
LINE
8
DC
6
CONTINUOUS
62
7
10
  0.12022679
20
 -0.08380000
30
  0.00000000
11
  0.12057321
21
 -0.08380000
31
  0.00000000
0
LINE
8
DC
6
CONTINUOUS
62
7
10
  0.12026771
20
 -0.08375000
30
  0.00000000
11
  0.12053229
21
 -0.08375000
31
  0.00000000
0
CIRCLE
8
DC
6
CONTINUOUS
62
7
10
  0.12040000
20
 -0.08390000
30
  0.00000000
40
  0.00020000
0
LINE
8
DC
6
CONTINUOUS
62
7
10
  0.11840000
20
 -0.08390000
30
  0.00000000
11
  0.11850000
21
 -0.08390000
31
  0.00000000
0
LINE
8
DC
6
CONTINUOUS
62
7
10
  0.12040000
20
 -0.08250000
30
  0.00000000
11
  0.12050000
21
 -0.08250000
31
  0.00000000
0
LINE
8
DC
6
CONTINUOUS
62
7
10
  0.11840000
20
 -0.08620000
30
  0.00000000
11
  0.11840000
21
 -0.08620000
31
  0.00000000
0
LINE
8
DC
6
CONTINUOUS
62
7
10
  0.11820635
20
 -0.08615000
30
  0.00000000
11
  0.11859365
21
 -0.08615000
31
  0.00000000
0
LINE
8
DC
6
CONTINUOUS
62
7
10
  0.11813542
20
 -0.08610000
30
  0.00000000
11
  0.11866458
21
 -0.08610000
31
  0.00000000
0
LINE
8
DC
6
CONTINUOUS
62
7
10
  0.11808775
20
 -0.08605000
30
  0.00000000
11
  0.11871225
21
 -0.08605000
31
  0.00000000
0
LINE
8
DC
6
CONTINUOUS
62
7
10
  0.11805359
20
 -0.08600000
30
  0.00000000
11
  0.11874641
21
 -0.08600000
31
  0.00000000
0
LINE
8
DC
6
CONTINUOUS
62
7
10
  0.11802919
20
 -0.08595000
30
  0.00000000
11
  0.11877081
21
 -0.08595000
31
  0.00000000
0
LINE
8
DC
6
CONTINUOUS
62
7
10
  0.11801270
20
 -0.08590000
30
  0.00000000
11
  0.11878730
21
 -0.08590000
31
  0.00000000
0
LINE
8
DC
6
CONTINUOUS
62
7
10
  0.11800314
20
 -0.08585000
30
  0.00000000
11
  0.11879686
21
 -0.08585000
31
  0.00000000
0
LINE
8
DC
6
CONTINUOUS
62
7
10
  0.11800000
20
 -0.08580000
30
  0.00000000
11
  0.11880000
21
 -0.08580000
31
  0.00000000
0
LINE
8
DC
6
CONTINUOUS
62
7
10
  0.11800314
20
 -0.08575000
30
  0.00000000
11
  0.11879686
21
 -0.08575000
31
  0.00000000
0
LINE
8
DC
6
CONTINUOUS
62
7
10
  0.11801270
20
 -0.08570000
30
  0.00000000
11
  0.11878730
21
 -0.08570000
31
  0.00000000
0
LINE
8
DC
6
CONTINUOUS
62
7
10
  0.11802919
20
 -0.08565000
30
  0.00000000
11
  0.11877081
21
 -0.08565000
31
  0.00000000
0
LINE
8
DC
6
CONTINUOUS
62
7
10
  0.11805359
20
 -0.08560000
30
  0.00000000
11
  0.11874641
21
 -0.08560000
31
  0.00000000
0
LINE
8
DC
6
CONTINUOUS
62
7
10
  0.11808775
20
 -0.08555000
30
  0.00000000
11
  0.11871225
21
 -0.08555000
31
  0.00000000
0
LINE
8
DC
6
CONTINUOUS
62
7
10
  0.11813542
20
 -0.08550000
30
  0.00000000
11
  0.11866458
21
 -0.08550000
31
  0.00000000
0
LINE
8
DC
6
CONTINUOUS
62
7
10
  0.11820635
20
 -0.08545000
30
  0.00000000
11
  0.11859365
21
 -0.08545000
31
  0.00000000
0
CIRCLE
8
DC
6
CONTINUOUS
62
7
10
  0.11840000
20
 -0.08580000
30
  0.00000000
40
  0.00040000
0
LINE
8
DC
6
CONTINUOUS
62
7
10
  0.12040000
20
 -0.08760000
30
  0.00000000
11
  0.12040000
21
 -0.08760000
31
  0.00000000
0
LINE
8
DC
6
CONTINUOUS
62
7
10
  0.12020635
20
 -0.08755000
30
  0.00000000
11
  0.12059365
21
 -0.08755000
31
  0.00000000
0
LINE
8
DC
6
CONTINUOUS
62
7
10
  0.12013542
20
 -0.08750000
30
  0.00000000
11
  0.12066458
21
 -0.08750000
31
  0.00000000
0
LINE
8
DC
6
CONTINUOUS
62
7
10
  0.12008775
20
 -0.08745000
30
  0.00000000
11
  0.12071225
21
 -0.08745000
31
  0.00000000
0
LINE
8
DC
6
CONTINUOUS
62
7
10
  0.12005359
20
 -0.08740000
30
  0.00000000
11
  0.12074641
21
 -0.08740000
31
  0.00000000
0
LINE
8
DC
6
CONTINUOUS
62
7
10
  0.12002919
20
 -0.08735000
30
  0.00000000
11
  0.12077081
21
 -0.08735000
31
  0.00000000
0
LINE
8
DC
6
CONTINUOUS
62
7
10
  0.12001270
20
 -0.08730000
30
  0.00000000
11
  0.12078730
21
 -0.08730000
31
  0.00000000
0
LINE
8
DC
6
CONTINUOUS
62
7
10
  0.12000314
20
 -0.08725000
30
  0.00000000
11
  0.12079686
21
 -0.08725000
31
  0.00000000
0
LINE
8
DC
6
CONTINUOUS
62
7
10
  0.12000000
20
 -0.08720000
30
  0.00000000
11
  0.12080000
21
 -0.08720000
31
  0.00000000
0
LINE
8
DC
6
CONTINUOUS
62
7
10
  0.12000314
20
 -0.08715000
30
  0.00000000
11
  0.12079686
21
 -0.08715000
31
  0.00000000
0
LINE
8
DC
6
CONTINUOUS
62
7
10
  0.12001270
20
 -0.08710000
30
  0.00000000
11
  0.12078730
21
 -0.08710000
31
  0.00000000
0
LINE
8
DC
6
CONTINUOUS
62
7
10
  0.12002919
20
 -0.08705000
30
  0.00000000
11
  0.12077081
21
 -0.08705000
31
  0.00000000
0
LINE
8
DC
6
CONTINUOUS
62
7
10
  0.12005359
20
 -0.08700000
30
  0.00000000
11
  0.12074641
21
 -0.08700000
31
  0.00000000
0
LINE
8
DC
6
CONTINUOUS
62
7
10
  0.12008775
20
 -0.08695000
30
  0.00000000
11
  0.12071225
21
 -0.08695000
31
  0.00000000
0
LINE
8
DC
6
CONTINUOUS
62
7
10
  0.12013542
20
 -0.08690000
30
  0.00000000
11
  0.12066458
21
 -0.08690000
31
  0.00000000
0
LINE
8
DC
6
CONTINUOUS
62
7
10
  0.12020635
20
 -0.08685000
30
  0.00000000
11
  0.12059365
21
 -0.08685000
31
  0.00000000
0
CIRCLE
8
DC
6
CONTINUOUS
62
7
10
  0.12040000
20
 -0.08720000
30
  0.00000000
40
  0.00040000
0
LINE
8
DC
6
CONTINUOUS
62
7
10
  0.11840000
20
 -0.08940000
30
  0.00000000
11
  0.11840000
21
 -0.08940000
31
  0.00000000
0
LINE
8
DC
6
CONTINUOUS
62
7
10
  0.11823417
20
 -0.08935000
30
  0.00000000
11
  0.11856583
21
 -0.08935000
31
  0.00000000
0
LINE
8
DC
6
CONTINUOUS
62
7
10
  0.11817639
20
 -0.08930000
30
  0.00000000
11
  0.11862361
21
 -0.08930000
31
  0.00000000
0
LINE
8
DC
6
CONTINUOUS
62
7
10
  0.11814019
20
 -0.08925000
30
  0.00000000
11
  0.11865981
21
 -0.08925000
31
  0.00000000
0
LINE
8
DC
6
CONTINUOUS
62
7
10
  0.11811716
20
 -0.08920000
30
  0.00000000
11
  0.11868284
21
 -0.08920000
31
  0.00000000
0
LINE
8
DC
6
CONTINUOUS
62
7
10
  0.11810420
20
 -0.08915000
30
  0.00000000
11
  0.11869580
21
 -0.08915000
31
  0.00000000
0
LINE
8
DC
6
CONTINUOUS
62
7
10
  0.11810000
20
 -0.08910000
30
  0.00000000
11
  0.11870000
21
 -0.08910000
31
  0.00000000
0
LINE
8
DC
6
CONTINUOUS
62
7
10
  0.11810420
20
 -0.08905000
30
  0.00000000
11
  0.11869580
21
 -0.08905000
31
  0.00000000
0
LINE
8
DC
6
CONTINUOUS
62
7
10
  0.11811716
20
 -0.08900000
30
  0.00000000
11
  0.11868284
21
 -0.08900000
31
  0.00000000
0
LINE
8
DC
6
CONTINUOUS
62
7
10
  0.11814019
20
 -0.08895000
30
  0.00000000
11
  0.11865981
21
 -0.08895000
31
  0.00000000
0
LINE
8
DC
6
CONTINUOUS
62
7
10
  0.11817639
20
 -0.08890000
30
  0.00000000
11
  0.11862361
21
 -0.08890000
31
  0.00000000
0
LINE
8
DC
6
CONTINUOUS
62
7
10
  0.11823417
20
 -0.08885000
30
  0.00000000
11
  0.11856583
21
 -0.08885000
31
  0.00000000
0
CIRCLE
8
DC
6
CONTINUOUS
62
7
10
  0.11840000
20
 -0.08910000
30
  0.00000000
40
  0.00030000
0
LINE
8
DC
6
CONTINUOUS
62
7
10
  0.12040000
20
 -0.09070000
30
  0.00000000
11
  0.12040000
21
 -0.09070000
31
  0.00000000
0
LINE
8
DC
6
CONTINUOUS
62
7
10
  0.12026771
20
 -0.09065000
30
  0.00000000
11
  0.12053229
21
 -0.09065000
31
  0.00000000
0
LINE
8
DC
6
CONTINUOUS
62
7
10
  0.12022679
20
 -0.09060000
30
  0.00000000
11
  0.12057321
21
 -0.09060000
31
  0.00000000
0
LINE
8
DC
6
CONTINUOUS
62
7
10
  0.12020635
20
 -0.09055000
30
  0.00000000
11
  0.12059365
21
 -0.09055000
31
  0.00000000
0
LINE
8
DC
6
CONTINUOUS
62
7
10
  0.12020000
20
 -0.09050000
30
  0.00000000
11
  0.12060000
21
 -0.09050000
31
  0.00000000
0
LINE
8
DC
6
CONTINUOUS
62
7
10
  0.12020635
20
 -0.09045000
30
  0.00000000
11
  0.12059365
21
 -0.09045000
31
  0.00000000
0
LINE
8
DC
6
CONTINUOUS
62
7
10
  0.12022679
20
 -0.09040000
30
  0.00000000
11
  0.12057321
21
 -0.09040000
31
  0.00000000
0
LINE
8
DC
6
CONTINUOUS
62
7
10
  0.12026771
20
 -0.09035000
30
  0.00000000
11
  0.12053229
21
 -0.09035000
31
  0.00000000
0
CIRCLE
8
DC
6
CONTINUOUS
62
7
10
  0.12040000
20
 -0.09050000
30
  0.00000000
40
  0.00020000
0
LINE
8
DC
6
CONTINUOUS
62
7
10
  0.11840000
20
 -0.09050000
30
  0.00000000
11
  0.11850000
21
 -0.09050000
31
  0.00000000
0
LINE
8
DC
6
CONTINUOUS
62
7
10
  0.12040000
20
 -0.08910000
30
  0.00000000
11
  0.12050000
21
 -0.08910000
31
  0.00000000
0
CIRCLE
8
DC
6
CONTINUOUS
62
7
10
  0.12290000
20
 -0.07590000
30
  0.00000000
40
  0.00050000
0
CIRCLE
8
DC
6
CONTINUOUS
62
7
10
  0.12450000
20
 -0.07710000
30
  0.00000000
40
  0.00050000
0
CIRCLE
8
DC
6
CONTINUOUS
62
7
10
  0.12590000
20
 -0.07560000
30
  0.00000000
40
  0.00040000
0
LINE
8
DC
6
CONTINUOUS
62
7
10
  0.12290000
20
 -0.07590000
30
  0.00000000
11
  0.12300000
21
 -0.07590000
31
  0.00000000
0
LINE
8
DC
6
CONTINUOUS
62
7
10
  0.12340000
20
 -0.07950000
30
  0.00000000
11
  0.12340000
21
 -0.07950000
31
  0.00000000
0
LINE
8
DC
6
CONTINUOUS
62
7
10
  0.12323417
20
 -0.07945000
30
  0.00000000
11
  0.12356583
21
 -0.07945000
31
  0.00000000
0
LINE
8
DC
6
CONTINUOUS
62
7
10
  0.12317639
20
 -0.07940000
30
  0.00000000
11
  0.12362361
21
 -0.07940000
31
  0.00000000
0
LINE
8
DC
6
CONTINUOUS
62
7
10
  0.12314019
20
 -0.07935000
30
  0.00000000
11
  0.12365981
21
 -0.07935000
31
  0.00000000
0
LINE
8
DC
6
CONTINUOUS
62
7
10
  0.12311716
20
 -0.07930000
30
  0.00000000
11
  0.12368284
21
 -0.07930000
31
  0.00000000
0
LINE
8
DC
6
CONTINUOUS
62
7
10
  0.12310420
20
 -0.07925000
30
  0.00000000
11
  0.12369580
21
 -0.07925000
31
  0.00000000
0
LINE
8
DC
6
CONTINUOUS
62
7
10
  0.12310000
20
 -0.07920000
30
  0.00000000
11
  0.12370000
21
 -0.07920000
31
  0.00000000
0
LINE
8
DC
6
CONTINUOUS
62
7
10
  0.12310420
20
 -0.07915000
30
  0.00000000
11
  0.12369580
21
 -0.07915000
31
  0.00000000
0
LINE
8
DC
6
CONTINUOUS
62
7
10
  0.12311716
20
 -0.07910000
30
  0.00000000
11
  0.12368284
21
 -0.07910000
31
  0.00000000
0
LINE
8
DC
6
CONTINUOUS
62
7
10
  0.12314019
20
 -0.07905000
30
  0.00000000
11
  0.12365981
21
 -0.07905000
31
  0.00000000
0
LINE
8
DC
6
CONTINUOUS
62
7
10
  0.12317639
20
 -0.07900000
30
  0.00000000
11
  0.12362361
21
 -0.07900000
31
  0.00000000
0
LINE
8
DC
6
CONTINUOUS
62
7
10
  0.12323417
20
 -0.07895000
30
  0.00000000
11
  0.12356583
21
 -0.07895000
31
  0.00000000
0
CIRCLE
8
DC
6
CONTINUOUS
62
7
10
  0.12340000
20
 -0.07920000
30
  0.00000000
40
  0.00030000
0
LINE
8
DC
6
CONTINUOUS
62
7
10
  0.12540000
20
 -0.08080000
30
  0.00000000
11
  0.12540000
21
 -0.08080000
31
  0.00000000
0
LINE
8
DC
6
CONTINUOUS
62
7
10
  0.12526771
20
 -0.08075000
30
  0.00000000
11
  0.12553229
21
 -0.08075000
31
  0.00000000
0
LINE
8
DC
6
CONTINUOUS
62
7
10
  0.12522679
20
 -0.08070000
30
  0.00000000
11
  0.12557321
21
 -0.08070000
31
  0.00000000
0
LINE
8
DC
6
CONTINUOUS
62
7
10
  0.12520635
20
 -0.08065000
30
  0.00000000
11
  0.12559365
21
 -0.08065000
31
  0.00000000
0
LINE
8
DC
6
CONTINUOUS
62
7
10
  0.12520000
20
 -0.08060000
30
  0.00000000
11
  0.12560000
21
 -0.08060000
31
  0.00000000
0
LINE
8
DC
6
CONTINUOUS
62
7
10
  0.12520635
20
 -0.08055000
30
  0.00000000
11
  0.12559365
21
 -0.08055000
31
  0.00000000
0
LINE
8
DC
6
CONTINUOUS
62
7
10
  0.12522679
20
 -0.08050000
30
  0.00000000
11
  0.12557321
21
 -0.08050000
31
  0.00000000
0
LINE
8
DC
6
CONTINUOUS
62
7
10
  0.12526771
20
 -0.08045000
30
  0.00000000
11
  0.12553229
21
 -0.08045000
31
  0.00000000
0
CIRCLE
8
DC
6
CONTINUOUS
62
7
10
  0.12540000
20
 -0.08060000
30
  0.00000000
40
  0.00020000
0
LINE
8
DC
6
CONTINUOUS
62
7
10
  0.12340000
20
 -0.08060000
30
  0.00000000
11
  0.12350000
21
 -0.08060000
31
  0.00000000
0
LINE
8
DC
6
CONTINUOUS
62
7
10
  0.12540000
20
 -0.07920000
30
  0.00000000
11
  0.12550000
21
 -0.07920000
31
  0.00000000
0
LINE
8
DC
6
CONTINUOUS
62
7
10
  0.12340000
20
 -0.08290000
30
  0.00000000
11
  0.12340000
21
 -0.08290000
31
  0.00000000
0
LINE
8
DC
6
CONTINUOUS
62
7
10
  0.12320635
20
 -0.08285000
30
  0.00000000
11
  0.12359365
21
 -0.08285000
31
  0.00000000
0
LINE
8
DC
6
CONTINUOUS
62
7
10
  0.12313542
20
 -0.08280000
30
  0.00000000
11
  0.12366458
21
 -0.08280000
31
  0.00000000
0
LINE
8
DC
6
CONTINUOUS
62
7
10
  0.12308775
20
 -0.08275000
30
  0.00000000
11
  0.12371225
21
 -0.08275000
31
  0.00000000
0
LINE
8
DC
6
CONTINUOUS
62
7
10
  0.12305359
20
 -0.08270000
30
  0.00000000
11
  0.12374641
21
 -0.08270000
31
  0.00000000
0
LINE
8
DC
6
CONTINUOUS
62
7
10
  0.12302919
20
 -0.08265000
30
  0.00000000
11
  0.12377081
21
 -0.08265000
31
  0.00000000
0
LINE
8
DC
6
CONTINUOUS
62
7
10
  0.12301270
20
 -0.08260000
30
  0.00000000
11
  0.12378730
21
 -0.08260000
31
  0.00000000
0
LINE
8
DC
6
CONTINUOUS
62
7
10
  0.12300314
20
 -0.08255000
30
  0.00000000
11
  0.12379686
21
 -0.08255000
31
  0.00000000
0
LINE
8
DC
6
CONTINUOUS
62
7
10
  0.12300000
20
 -0.08250000
30
  0.00000000
11
  0.12380000
21
 -0.08250000
31
  0.00000000
0
LINE
8
DC
6
CONTINUOUS
62
7
10
  0.12300314
20
 -0.08245000
30
  0.00000000
11
  0.12379686
21
 -0.08245000
31
  0.00000000
0
LINE
8
DC
6
CONTINUOUS
62
7
10
  0.12301270
20
 -0.08240000
30
  0.00000000
11
  0.12378730
21
 -0.08240000
31
  0.00000000
0
LINE
8
DC
6
CONTINUOUS
62
7
10
  0.12302919
20
 -0.08235000
30
  0.00000000
11
  0.12377081
21
 -0.08235000
31
  0.00000000
0
LINE
8
DC
6
CONTINUOUS
62
7
10
  0.12305359
20
 -0.08230000
30
  0.00000000
11
  0.12374641
21
 -0.08230000
31
  0.00000000
0
LINE
8
DC
6
CONTINUOUS
62
7
10
  0.12308775
20
 -0.08225000
30
  0.00000000
11
  0.12371225
21
 -0.08225000
31
  0.00000000
0
LINE
8
DC
6
CONTINUOUS
62
7
10
  0.12313542
20
 -0.08220000
30
  0.00000000
11
  0.12366458
21
 -0.08220000
31
  0.00000000
0
LINE
8
DC
6
CONTINUOUS
62
7
10
  0.12320635
20
 -0.08215000
30
  0.00000000
11
  0.12359365
21
 -0.08215000
31
  0.00000000
0
CIRCLE
8
DC
6
CONTINUOUS
62
7
10
  0.12340000
20
 -0.08250000
30
  0.00000000
40
  0.00040000
0
LINE
8
DC
6
CONTINUOUS
62
7
10
  0.12540000
20
 -0.08430000
30
  0.00000000
11
  0.12540000
21
 -0.08430000
31
  0.00000000
0
LINE
8
DC
6
CONTINUOUS
62
7
10
  0.12520635
20
 -0.08425000
30
  0.00000000
11
  0.12559365
21
 -0.08425000
31
  0.00000000
0
LINE
8
DC
6
CONTINUOUS
62
7
10
  0.12513542
20
 -0.08420000
30
  0.00000000
11
  0.12566458
21
 -0.08420000
31
  0.00000000
0
LINE
8
DC
6
CONTINUOUS
62
7
10
  0.12508775
20
 -0.08415000
30
  0.00000000
11
  0.12571225
21
 -0.08415000
31
  0.00000000
0
LINE
8
DC
6
CONTINUOUS
62
7
10
  0.12505359
20
 -0.08410000
30
  0.00000000
11
  0.12574641
21
 -0.08410000
31
  0.00000000
0
LINE
8
DC
6
CONTINUOUS
62
7
10
  0.12502919
20
 -0.08405000
30
  0.00000000
11
  0.12577081
21
 -0.08405000
31
  0.00000000
0
LINE
8
DC
6
CONTINUOUS
62
7
10
  0.12501270
20
 -0.08400000
30
  0.00000000
11
  0.12578730
21
 -0.08400000
31
  0.00000000
0
LINE
8
DC
6
CONTINUOUS
62
7
10
  0.12500314
20
 -0.08395000
30
  0.00000000
11
  0.12579686
21
 -0.08395000
31
  0.00000000
0
LINE
8
DC
6
CONTINUOUS
62
7
10
  0.12500000
20
 -0.08390000
30
  0.00000000
11
  0.12580000
21
 -0.08390000
31
  0.00000000
0
LINE
8
DC
6
CONTINUOUS
62
7
10
  0.12500314
20
 -0.08385000
30
  0.00000000
11
  0.12579686
21
 -0.08385000
31
  0.00000000
0
LINE
8
DC
6
CONTINUOUS
62
7
10
  0.12501270
20
 -0.08380000
30
  0.00000000
11
  0.12578730
21
 -0.08380000
31
  0.00000000
0
LINE
8
DC
6
CONTINUOUS
62
7
10
  0.12502919
20
 -0.08375000
30
  0.00000000
11
  0.12577081
21
 -0.08375000
31
  0.00000000
0
LINE
8
DC
6
CONTINUOUS
62
7
10
  0.12505359
20
 -0.08370000
30
  0.00000000
11
  0.12574641
21
 -0.08370000
31
  0.00000000
0
LINE
8
DC
6
CONTINUOUS
62
7
10
  0.12508775
20
 -0.08365000
30
  0.00000000
11
  0.12571225
21
 -0.08365000
31
  0.00000000
0
LINE
8
DC
6
CONTINUOUS
62
7
10
  0.12513542
20
 -0.08360000
30
  0.00000000
11
  0.12566458
21
 -0.08360000
31
  0.00000000
0
LINE
8
DC
6
CONTINUOUS
62
7
10
  0.12520635
20
 -0.08355000
30
  0.00000000
11
  0.12559365
21
 -0.08355000
31
  0.00000000
0
CIRCLE
8
DC
6
CONTINUOUS
62
7
10
  0.12540000
20
 -0.08390000
30
  0.00000000
40
  0.00040000
0
CIRCLE
8
DC
6
CONTINUOUS
62
7
10
  0.12290000
20
 -0.08580000
30
  0.00000000
40
  0.00050000
0
CIRCLE
8
DC
6
CONTINUOUS
62
7
10
  0.12450000
20
 -0.08700000
30
  0.00000000
40
  0.00050000
0
CIRCLE
8
DC
6
CONTINUOUS
62
7
10
  0.12590000
20
 -0.08550000
30
  0.00000000
40
  0.00040000
0
LINE
8
DC
6
CONTINUOUS
62
7
10
  0.12290000
20
 -0.08580000
30
  0.00000000
11
  0.12300000
21
 -0.08580000
31
  0.00000000
0
LINE
8
DC
6
CONTINUOUS
62
7
10
  0.12340000
20
 -0.08940000
30
  0.00000000
11
  0.12340000
21
 -0.08940000
31
  0.00000000
0
LINE
8
DC
6
CONTINUOUS
62
7
10
  0.12323417
20
 -0.08935000
30
  0.00000000
11
  0.12356583
21
 -0.08935000
31
  0.00000000
0
LINE
8
DC
6
CONTINUOUS
62
7
10
  0.12317639
20
 -0.08930000
30
  0.00000000
11
  0.12362361
21
 -0.08930000
31
  0.00000000
0
LINE
8
DC
6
CONTINUOUS
62
7
10
  0.12314019
20
 -0.08925000
30
  0.00000000
11
  0.12365981
21
 -0.08925000
31
  0.00000000
0
LINE
8
DC
6
CONTINUOUS
62
7
10
  0.12311716
20
 -0.08920000
30
  0.00000000
11
  0.12368284
21
 -0.08920000
31
  0.00000000
0
LINE
8
DC
6
CONTINUOUS
62
7
10
  0.12310420
20
 -0.08915000
30
  0.00000000
11
  0.12369580
21
 -0.08915000
31
  0.00000000
0
LINE
8
DC
6
CONTINUOUS
62
7
10
  0.12310000
20
 -0.08910000
30
  0.00000000
11
  0.12370000
21
 -0.08910000
31
  0.00000000
0
LINE
8
DC
6
CONTINUOUS
62
7
10
  0.12310420
20
 -0.08905000
30
  0.00000000
11
  0.12369580
21
 -0.08905000
31
  0.00000000
0
LINE
8
DC
6
CONTINUOUS
62
7
10
  0.12311716
20
 -0.08900000
30
  0.00000000
11
  0.12368284
21
 -0.08900000
31
  0.00000000
0
LINE
8
DC
6
CONTINUOUS
62
7
10
  0.12314019
20
 -0.08895000
30
  0.00000000
11
  0.12365981
21
 -0.08895000
31
  0.00000000
0
LINE
8
DC
6
CONTINUOUS
62
7
10
  0.12317639
20
 -0.08890000
30
  0.00000000
11
  0.12362361
21
 -0.08890000
31
  0.00000000
0
LINE
8
DC
6
CONTINUOUS
62
7
10
  0.12323417
20
 -0.08885000
30
  0.00000000
11
  0.12356583
21
 -0.08885000
31
  0.00000000
0
CIRCLE
8
DC
6
CONTINUOUS
62
7
10
  0.12340000
20
 -0.08910000
30
  0.00000000
40
  0.00030000
0
LINE
8
DC
6
CONTINUOUS
62
7
10
  0.12540000
20
 -0.09070000
30
  0.00000000
11
  0.12540000
21
 -0.09070000
31
  0.00000000
0
LINE
8
DC
6
CONTINUOUS
62
7
10
  0.12526771
20
 -0.09065000
30
  0.00000000
11
  0.12553229
21
 -0.09065000
31
  0.00000000
0
LINE
8
DC
6
CONTINUOUS
62
7
10
  0.12522679
20
 -0.09060000
30
  0.00000000
11
  0.12557321
21
 -0.09060000
31
  0.00000000
0
LINE
8
DC
6
CONTINUOUS
62
7
10
  0.12520635
20
 -0.09055000
30
  0.00000000
11
  0.12559365
21
 -0.09055000
31
  0.00000000
0
LINE
8
DC
6
CONTINUOUS
62
7
10
  0.12520000
20
 -0.09050000
30
  0.00000000
11
  0.12560000
21
 -0.09050000
31
  0.00000000
0
LINE
8
DC
6
CONTINUOUS
62
7
10
  0.12520635
20
 -0.09045000
30
  0.00000000
11
  0.12559365
21
 -0.09045000
31
  0.00000000
0
LINE
8
DC
6
CONTINUOUS
62
7
10
  0.12522679
20
 -0.09040000
30
  0.00000000
11
  0.12557321
21
 -0.09040000
31
  0.00000000
0
LINE
8
DC
6
CONTINUOUS
62
7
10
  0.12526771
20
 -0.09035000
30
  0.00000000
11
  0.12553229
21
 -0.09035000
31
  0.00000000
0
CIRCLE
8
DC
6
CONTINUOUS
62
7
10
  0.12540000
20
 -0.09050000
30
  0.00000000
40
  0.00020000
0
LINE
8
DC
6
CONTINUOUS
62
7
10
  0.12340000
20
 -0.09050000
30
  0.00000000
11
  0.12350000
21
 -0.09050000
31
  0.00000000
0
LINE
8
DC
6
CONTINUOUS
62
7
10
  0.12540000
20
 -0.08910000
30
  0.00000000
11
  0.12550000
21
 -0.08910000
31
  0.00000000
0
LINE
8
DC
6
CONTINUOUS
62
7
10
  0.11690000
20
 -0.07500000
30
  0.00000000
11
  0.13190000
21
 -0.07500000
31
  0.00000000
0
LINE
8
DC
6
CONTINUOUS
62
7
10
  0.13190000
20
 -0.07500000
30
  0.00000000
11
  0.13290000
21
 -0.08100000
31
  0.00000000
0
LINE
8
DC
6
CONTINUOUS
62
7
10
  0.13290000
20
 -0.08100000
30
  0.00000000
11
  0.17390000
21
 -0.08100000
31
  0.00000000
0
LINE
8
DC
6
CONTINUOUS
62
7
10
  0.11690000
20
 -0.09100000
30
  0.00000000
11
  0.11590000
21
 -0.09100000
31
  0.00000000
0
LINE
8
DC
6
CONTINUOUS
62
7
10
  0.10650000
20
 -0.09100000
30
  0.00000000
11
  0.11590000
21
 -0.09100000
31
  0.00000000
0
TEXT
8
DC
62
7
10
  0.11590000
20
 -0.09050000
30
  0.00000000
40
  0.00250000
41
  0.60000000
1
    2.30m
50
  0.00000000
72
2
73
0
11
  0.11590000
21
 -0.09050000
31
  0.00000000
0
TEXT
8
DC
62
7
10
  0.13390000
20
 -0.08460000
30
  0.00000000
40
  0.00216667
41
  0.60000000
1
fluviatiler Sand, Mittel- bis 
50
  0.00000000
72
0
73
1
11
  0.13390000
21
 -0.08460000
31
  0.00000000
0
TEXT
8
DC
62
7
10
  0.13390000
20
 -0.08770000
30
  0.00000000
40
  0.00216667
41
  0.60000000
1
Grobsand, schwach kiesig
50
  0.00000000
72
0
73
1
11
  0.13390000
21
 -0.08770000
31
  0.00000000
0
TEXT
8
DC
62
7
10
  0.13390000
20
 -0.09080000
30
  0.00000000
40
  0.00216667
41
  0.60000000
1
mitteldicht
50
  0.00000000
72
0
73
1
11
  0.13390000
21
 -0.09080000
31
  0.00000000
0
TEXT
8
DC
62
7
10
  0.13390000
20
 -0.09390000
30
  0.00000000
40
  0.00216667
41
  0.60000000
1
erdfeucht
50
  0.00000000
72
0
73
1
11
  0.13390000
21
 -0.09390000
31
  0.00000000
0
TEXT
8
DC
62
7
10
  0.13390000
20
 -0.09700000
30
  0.00000000
40
  0.00216667
41
  0.60000000
1
hellbraun
50
  0.00000000
72
0
73
1
11
  0.13390000
21
 -0.09700000
31
  0.00000000
0
CIRCLE
8
DC
6
CONTINUOUS
62
7
10
  0.18210000
20
 -0.08900000
30
  0.00000000
40
  0.00720000
0
TEXT
8
DC
62
7
10
  0.17990000
20
 -0.09100000
30
  0.00000000
40
  0.00250000
41
  0.60000000
1
SE
50
  0.00000000
72
0
73
1
11
  0.17990000
21
 -0.09100000
31
  0.00000000
0
LINE
8
DC
6
CONTINUOUS
62
7
10
  0.16770000
20
 -0.08590000
30
  0.00000000
11
  0.17390000
21
 -0.08590000
31
  0.00000000
0
LINE
8
DC
6
CONTINUOUS
62
7
10
  0.17390000
20
 -0.08590000
30
  0.00000000
11
  0.17390000
21
 -0.09210000
31
  0.00000000
0
LINE
8
DC
6
CONTINUOUS
62
7
10
  0.17390000
20
 -0.09210000
30
  0.00000000
11
  0.16770000
21
 -0.09210000
31
  0.00000000
0
LINE
8
DC
6
CONTINUOUS
62
7
10
  0.16770000
20
 -0.09210000
30
  0.00000000
11
  0.16770000
21
 -0.08590000
31
  0.00000000
0
TEXT
8
DC
62
7
10
  0.17080000
20
 -0.09100000
30
  0.00000000
40
  0.00250000
41
  0.60000000
1
3
50
  0.00000000
72
1
73
1
11
  0.17080000
21
 -0.09100000
31
  0.00000000
0
LINE
8
DC
6
CONTINUOUS
62
7
10
  0.12850000
20
 -0.09100000
30
  0.00000000
11
  0.12850000
21
 -0.14500000
31
  0.00000000
0
SOLID
8
DC
62
171
10
  0.11690000
20
 -0.09100000
30
  0.00000000
11
  0.12200000
21
 -0.09100000
31
  0.00000000
12
  0.11690000
22
 -0.14510000
32
  0.00000000
13
  0.12200000
23
 -0.14510000
33
  0.00000000
0
LINE
8
DC
6
CONTINUOUS
62
7
10
  0.11690000
20
 -0.09100000
30
  0.00000000
11
  0.12200000
21
 -0.09100000
31
  0.00000000
0
LINE
8
DC
6
CONTINUOUS
62
7
10
  0.12200000
20
 -0.09100000
30
  0.00000000
11
  0.12200000
21
 -0.14510000
31
  0.00000000
0
LINE
8
DC
6
CONTINUOUS
62
7
10
  0.12200000
20
 -0.14510000
30
  0.00000000
11
  0.11690000
21
 -0.14510000
31
  0.00000000
0
LINE
8
DC
6
CONTINUOUS
62
7
10
  0.11690000
20
 -0.14510000
30
  0.00000000
11
  0.11690000
21
 -0.09100000
31
  0.00000000
0
SOLID
8
DC
62
200
10
  0.12200000
20
 -0.09100000
30
  0.00000000
11
  0.12700000
21
 -0.09100000
31
  0.00000000
12
  0.12200000
22
 -0.14510000
32
  0.00000000
13
  0.12700000
23
 -0.14510000
33
  0.00000000
0
LINE
8
DC
6
CONTINUOUS
62
7
10
  0.12200000
20
 -0.09100000
30
  0.00000000
11
  0.12700000
21
 -0.09100000
31
  0.00000000
0
LINE
8
DC
6
CONTINUOUS
62
7
10
  0.12700000
20
 -0.09100000
30
  0.00000000
11
  0.12700000
21
 -0.14510000
31
  0.00000000
0
LINE
8
DC
6
CONTINUOUS
62
7
10
  0.12700000
20
 -0.14510000
30
  0.00000000
11
  0.12200000
21
 -0.14510000
31
  0.00000000
0
LINE
8
DC
6
CONTINUOUS
62
7
10
  0.12200000
20
 -0.14510000
30
  0.00000000
11
  0.12200000
21
 -0.09100000
31
  0.00000000
0
LINE
8
DC
6
CONTINUOUS
62
7
10
  0.11690000
20
 -0.09350000
30
  0.00000000
11
  0.11940000
21
 -0.09100000
31
  0.00000000
0
LINE
8
DC
6
CONTINUOUS
62
7
10
  0.11940000
20
 -0.09600000
30
  0.00000000
11
  0.12190000
21
 -0.09350000
31
  0.00000000
0
LINE
8
DC
6
CONTINUOUS
62
7
10
  0.11690000
20
 -0.09600000
30
  0.00000000
11
  0.12190000
21
 -0.09100000
31
  0.00000000
0
CIRCLE
8
DC
6
CONTINUOUS
62
7
10
  0.11890000
20
 -0.09270000
30
  0.00000000
40
  0.00060000
0
CIRCLE
8
DC
6
CONTINUOUS
62
7
10
  0.12120000
20
 -0.09270000
30
  0.00000000
40
  0.00060000
0
CIRCLE
8
DC
6
CONTINUOUS
62
7
10
  0.11890000
20
 -0.09510000
30
  0.00000000
40
  0.00060000
0
CIRCLE
8
DC
6
CONTINUOUS
62
7
10
  0.12120000
20
 -0.09510000
30
  0.00000000
40
  0.00060000
0
LINE
8
DC
6
CONTINUOUS
62
7
10
  0.11720000
20
 -0.09380000
30
  0.00000000
11
  0.11770000
21
 -0.09330000
31
  0.00000000
0
LINE
8
DC
6
CONTINUOUS
62
7
10
  0.11740000
20
 -0.09350000
30
  0.00000000
11
  0.11820000
21
 -0.09430000
31
  0.00000000
0
LINE
8
DC
6
CONTINUOUS
62
7
10
  0.11790000
20
 -0.09450000
30
  0.00000000
11
  0.11840000
21
 -0.09400000
31
  0.00000000
0
LINE
8
DC
6
CONTINUOUS
62
7
10
  0.11940000
20
 -0.09160000
30
  0.00000000
11
  0.11990000
21
 -0.09110000
31
  0.00000000
0
LINE
8
DC
6
CONTINUOUS
62
7
10
  0.11960000
20
 -0.09130000
30
  0.00000000
11
  0.12040000
21
 -0.09210000
31
  0.00000000
0
LINE
8
DC
6
CONTINUOUS
62
7
10
  0.12010000
20
 -0.09230000
30
  0.00000000
11
  0.12060000
21
 -0.09180000
31
  0.00000000
0
LINE
8
DC
6
CONTINUOUS
62
7
10
  0.11950000
20
 -0.09380000
30
  0.00000000
11
  0.12000000
21
 -0.09330000
31
  0.00000000
0
LINE
8
DC
6
CONTINUOUS
62
7
10
  0.11970000
20
 -0.09350000
30
  0.00000000
11
  0.12050000
21
 -0.09430000
31
  0.00000000
0
LINE
8
DC
6
CONTINUOUS
62
7
10
  0.12020000
20
 -0.09450000
30
  0.00000000
11
  0.12070000
21
 -0.09400000
31
  0.00000000
0
LINE
8
DC
6
CONTINUOUS
62
7
10
  0.11700000
20
 -0.09150000
30
  0.00000000
11
  0.11750000
21
 -0.09100000
31
  0.00000000
0
LINE
8
DC
6
CONTINUOUS
62
7
10
  0.11720000
20
 -0.09120000
30
  0.00000000
11
  0.11800000
21
 -0.09200000
31
  0.00000000
0
LINE
8
DC
6
CONTINUOUS
62
7
10
  0.11770000
20
 -0.09220000
30
  0.00000000
11
  0.11820000
21
 -0.09170000
31
  0.00000000
0
LINE
8
DC
6
CONTINUOUS
62
7
10
  0.11740000
20
 -0.09680000
30
  0.00000000
11
  0.12040000
21
 -0.09680000
31
  0.00000000
0
LINE
8
DC
6
CONTINUOUS
62
7
10
  0.11840000
20
 -0.09840000
30
  0.00000000
11
  0.12140000
21
 -0.09840000
31
  0.00000000
0
LINE
8
DC
6
CONTINUOUS
62
7
10
  0.11690000
20
 -0.10180000
30
  0.00000000
11
  0.11940000
21
 -0.09930000
31
  0.00000000
0
LINE
8
DC
6
CONTINUOUS
62
7
10
  0.11940000
20
 -0.10430000
30
  0.00000000
11
  0.12190000
21
 -0.10180000
31
  0.00000000
0
LINE
8
DC
6
CONTINUOUS
62
7
10
  0.11690000
20
 -0.10430000
30
  0.00000000
11
  0.12190000
21
 -0.09930000
31
  0.00000000
0
CIRCLE
8
DC
6
CONTINUOUS
62
7
10
  0.11890000
20
 -0.10100000
30
  0.00000000
40
  0.00060000
0
CIRCLE
8
DC
6
CONTINUOUS
62
7
10
  0.12120000
20
 -0.10100000
30
  0.00000000
40
  0.00060000
0
CIRCLE
8
DC
6
CONTINUOUS
62
7
10
  0.11890000
20
 -0.10340000
30
  0.00000000
40
  0.00060000
0
CIRCLE
8
DC
6
CONTINUOUS
62
7
10
  0.12120000
20
 -0.10340000
30
  0.00000000
40
  0.00060000
0
LINE
8
DC
6
CONTINUOUS
62
7
10
  0.11720000
20
 -0.10210000
30
  0.00000000
11
  0.11770000
21
 -0.10160000
31
  0.00000000
0
LINE
8
DC
6
CONTINUOUS
62
7
10
  0.11740000
20
 -0.10180000
30
  0.00000000
11
  0.11820000
21
 -0.10260000
31
  0.00000000
0
LINE
8
DC
6
CONTINUOUS
62
7
10
  0.11790000
20
 -0.10280000
30
  0.00000000
11
  0.11840000
21
 -0.10230000
31
  0.00000000
0
LINE
8
DC
6
CONTINUOUS
62
7
10
  0.11940000
20
 -0.09990000
30
  0.00000000
11
  0.11990000
21
 -0.09940000
31
  0.00000000
0
LINE
8
DC
6
CONTINUOUS
62
7
10
  0.11960000
20
 -0.09960000
30
  0.00000000
11
  0.12040000
21
 -0.10040000
31
  0.00000000
0
LINE
8
DC
6
CONTINUOUS
62
7
10
  0.12010000
20
 -0.10060000
30
  0.00000000
11
  0.12060000
21
 -0.10010000
31
  0.00000000
0
LINE
8
DC
6
CONTINUOUS
62
7
10
  0.11950000
20
 -0.10210000
30
  0.00000000
11
  0.12000000
21
 -0.10160000
31
  0.00000000
0
LINE
8
DC
6
CONTINUOUS
62
7
10
  0.11970000
20
 -0.10180000
30
  0.00000000
11
  0.12050000
21
 -0.10260000
31
  0.00000000
0
LINE
8
DC
6
CONTINUOUS
62
7
10
  0.12020000
20
 -0.10280000
30
  0.00000000
11
  0.12070000
21
 -0.10230000
31
  0.00000000
0
LINE
8
DC
6
CONTINUOUS
62
7
10
  0.11700000
20
 -0.09980000
30
  0.00000000
11
  0.11750000
21
 -0.09930000
31
  0.00000000
0
LINE
8
DC
6
CONTINUOUS
62
7
10
  0.11720000
20
 -0.09950000
30
  0.00000000
11
  0.11800000
21
 -0.10030000
31
  0.00000000
0
LINE
8
DC
6
CONTINUOUS
62
7
10
  0.11770000
20
 -0.10050000
30
  0.00000000
11
  0.11820000
21
 -0.10000000
31
  0.00000000
0
LINE
8
DC
6
CONTINUOUS
62
7
10
  0.11740000
20
 -0.10510000
30
  0.00000000
11
  0.12040000
21
 -0.10510000
31
  0.00000000
0
LINE
8
DC
6
CONTINUOUS
62
7
10
  0.11840000
20
 -0.10670000
30
  0.00000000
11
  0.12140000
21
 -0.10670000
31
  0.00000000
0
LINE
8
DC
6
CONTINUOUS
62
7
10
  0.11690000
20
 -0.11010000
30
  0.00000000
11
  0.11940000
21
 -0.10760000
31
  0.00000000
0
LINE
8
DC
6
CONTINUOUS
62
7
10
  0.11940000
20
 -0.11260000
30
  0.00000000
11
  0.12190000
21
 -0.11010000
31
  0.00000000
0
LINE
8
DC
6
CONTINUOUS
62
7
10
  0.11690000
20
 -0.11260000
30
  0.00000000
11
  0.12190000
21
 -0.10760000
31
  0.00000000
0
CIRCLE
8
DC
6
CONTINUOUS
62
7
10
  0.11890000
20
 -0.10930000
30
  0.00000000
40
  0.00060000
0
CIRCLE
8
DC
6
CONTINUOUS
62
7
10
  0.12120000
20
 -0.10930000
30
  0.00000000
40
  0.00060000
0
CIRCLE
8
DC
6
CONTINUOUS
62
7
10
  0.11890000
20
 -0.11170000
30
  0.00000000
40
  0.00060000
0
CIRCLE
8
DC
6
CONTINUOUS
62
7
10
  0.12120000
20
 -0.11170000
30
  0.00000000
40
  0.00060000
0
LINE
8
DC
6
CONTINUOUS
62
7
10
  0.11720000
20
 -0.11040000
30
  0.00000000
11
  0.11770000
21
 -0.10990000
31
  0.00000000
0
LINE
8
DC
6
CONTINUOUS
62
7
10
  0.11740000
20
 -0.11010000
30
  0.00000000
11
  0.11820000
21
 -0.11090000
31
  0.00000000
0
LINE
8
DC
6
CONTINUOUS
62
7
10
  0.11790000
20
 -0.11110000
30
  0.00000000
11
  0.11840000
21
 -0.11060000
31
  0.00000000
0
LINE
8
DC
6
CONTINUOUS
62
7
10
  0.11940000
20
 -0.10820000
30
  0.00000000
11
  0.11990000
21
 -0.10770000
31
  0.00000000
0
LINE
8
DC
6
CONTINUOUS
62
7
10
  0.11960000
20
 -0.10790000
30
  0.00000000
11
  0.12040000
21
 -0.10870000
31
  0.00000000
0
LINE
8
DC
6
CONTINUOUS
62
7
10
  0.12010000
20
 -0.10890000
30
  0.00000000
11
  0.12060000
21
 -0.10840000
31
  0.00000000
0
LINE
8
DC
6
CONTINUOUS
62
7
10
  0.11950000
20
 -0.11040000
30
  0.00000000
11
  0.12000000
21
 -0.10990000
31
  0.00000000
0
LINE
8
DC
6
CONTINUOUS
62
7
10
  0.11970000
20
 -0.11010000
30
  0.00000000
11
  0.12050000
21
 -0.11090000
31
  0.00000000
0
LINE
8
DC
6
CONTINUOUS
62
7
10
  0.12020000
20
 -0.11110000
30
  0.00000000
11
  0.12070000
21
 -0.11060000
31
  0.00000000
0
LINE
8
DC
6
CONTINUOUS
62
7
10
  0.11700000
20
 -0.10810000
30
  0.00000000
11
  0.11750000
21
 -0.10760000
31
  0.00000000
0
LINE
8
DC
6
CONTINUOUS
62
7
10
  0.11720000
20
 -0.10780000
30
  0.00000000
11
  0.11800000
21
 -0.10860000
31
  0.00000000
0
LINE
8
DC
6
CONTINUOUS
62
7
10
  0.11770000
20
 -0.10880000
30
  0.00000000
11
  0.11820000
21
 -0.10830000
31
  0.00000000
0
LINE
8
DC
6
CONTINUOUS
62
7
10
  0.11740000
20
 -0.11340000
30
  0.00000000
11
  0.12040000
21
 -0.11340000
31
  0.00000000
0
LINE
8
DC
6
CONTINUOUS
62
7
10
  0.11840000
20
 -0.11500000
30
  0.00000000
11
  0.12140000
21
 -0.11500000
31
  0.00000000
0
LINE
8
DC
6
CONTINUOUS
62
7
10
  0.11690000
20
 -0.11840000
30
  0.00000000
11
  0.11940000
21
 -0.11590000
31
  0.00000000
0
LINE
8
DC
6
CONTINUOUS
62
7
10
  0.11940000
20
 -0.12090000
30
  0.00000000
11
  0.12190000
21
 -0.11840000
31
  0.00000000
0
LINE
8
DC
6
CONTINUOUS
62
7
10
  0.11690000
20
 -0.12090000
30
  0.00000000
11
  0.12190000
21
 -0.11590000
31
  0.00000000
0
CIRCLE
8
DC
6
CONTINUOUS
62
7
10
  0.11890000
20
 -0.11760000
30
  0.00000000
40
  0.00060000
0
CIRCLE
8
DC
6
CONTINUOUS
62
7
10
  0.12120000
20
 -0.11760000
30
  0.00000000
40
  0.00060000
0
CIRCLE
8
DC
6
CONTINUOUS
62
7
10
  0.11890000
20
 -0.12000000
30
  0.00000000
40
  0.00060000
0
CIRCLE
8
DC
6
CONTINUOUS
62
7
10
  0.12120000
20
 -0.12000000
30
  0.00000000
40
  0.00060000
0
LINE
8
DC
6
CONTINUOUS
62
7
10
  0.11720000
20
 -0.11870000
30
  0.00000000
11
  0.11770000
21
 -0.11820000
31
  0.00000000
0
LINE
8
DC
6
CONTINUOUS
62
7
10
  0.11740000
20
 -0.11840000
30
  0.00000000
11
  0.11820000
21
 -0.11920000
31
  0.00000000
0
LINE
8
DC
6
CONTINUOUS
62
7
10
  0.11790000
20
 -0.11940000
30
  0.00000000
11
  0.11840000
21
 -0.11890000
31
  0.00000000
0
LINE
8
DC
6
CONTINUOUS
62
7
10
  0.11940000
20
 -0.11650000
30
  0.00000000
11
  0.11990000
21
 -0.11600000
31
  0.00000000
0
LINE
8
DC
6
CONTINUOUS
62
7
10
  0.11960000
20
 -0.11620000
30
  0.00000000
11
  0.12040000
21
 -0.11700000
31
  0.00000000
0
LINE
8
DC
6
CONTINUOUS
62
7
10
  0.12010000
20
 -0.11720000
30
  0.00000000
11
  0.12060000
21
 -0.11670000
31
  0.00000000
0
LINE
8
DC
6
CONTINUOUS
62
7
10
  0.11950000
20
 -0.11870000
30
  0.00000000
11
  0.12000000
21
 -0.11820000
31
  0.00000000
0
LINE
8
DC
6
CONTINUOUS
62
7
10
  0.11970000
20
 -0.11840000
30
  0.00000000
11
  0.12050000
21
 -0.11920000
31
  0.00000000
0
LINE
8
DC
6
CONTINUOUS
62
7
10
  0.12020000
20
 -0.11940000
30
  0.00000000
11
  0.12070000
21
 -0.11890000
31
  0.00000000
0
LINE
8
DC
6
CONTINUOUS
62
7
10
  0.11700000
20
 -0.11640000
30
  0.00000000
11
  0.11750000
21
 -0.11590000
31
  0.00000000
0
LINE
8
DC
6
CONTINUOUS
62
7
10
  0.11720000
20
 -0.11610000
30
  0.00000000
11
  0.11800000
21
 -0.11690000
31
  0.00000000
0
LINE
8
DC
6
CONTINUOUS
62
7
10
  0.11770000
20
 -0.11710000
30
  0.00000000
11
  0.11820000
21
 -0.11660000
31
  0.00000000
0
LINE
8
DC
6
CONTINUOUS
62
7
10
  0.11740000
20
 -0.12170000
30
  0.00000000
11
  0.12040000
21
 -0.12170000
31
  0.00000000
0
LINE
8
DC
6
CONTINUOUS
62
7
10
  0.11840000
20
 -0.12330000
30
  0.00000000
11
  0.12140000
21
 -0.12330000
31
  0.00000000
0
LINE
8
DC
6
CONTINUOUS
62
7
10
  0.11690000
20
 -0.12670000
30
  0.00000000
11
  0.11940000
21
 -0.12420000
31
  0.00000000
0
LINE
8
DC
6
CONTINUOUS
62
7
10
  0.11940000
20
 -0.12920000
30
  0.00000000
11
  0.12190000
21
 -0.12670000
31
  0.00000000
0
LINE
8
DC
6
CONTINUOUS
62
7
10
  0.11690000
20
 -0.12920000
30
  0.00000000
11
  0.12190000
21
 -0.12420000
31
  0.00000000
0
CIRCLE
8
DC
6
CONTINUOUS
62
7
10
  0.11890000
20
 -0.12590000
30
  0.00000000
40
  0.00060000
0
CIRCLE
8
DC
6
CONTINUOUS
62
7
10
  0.12120000
20
 -0.12590000
30
  0.00000000
40
  0.00060000
0
CIRCLE
8
DC
6
CONTINUOUS
62
7
10
  0.11890000
20
 -0.12830000
30
  0.00000000
40
  0.00060000
0
CIRCLE
8
DC
6
CONTINUOUS
62
7
10
  0.12120000
20
 -0.12830000
30
  0.00000000
40
  0.00060000
0
LINE
8
DC
6
CONTINUOUS
62
7
10
  0.11720000
20
 -0.12700000
30
  0.00000000
11
  0.11770000
21
 -0.12650000
31
  0.00000000
0
LINE
8
DC
6
CONTINUOUS
62
7
10
  0.11740000
20
 -0.12670000
30
  0.00000000
11
  0.11820000
21
 -0.12750000
31
  0.00000000
0
LINE
8
DC
6
CONTINUOUS
62
7
10
  0.11790000
20
 -0.12770000
30
  0.00000000
11
  0.11840000
21
 -0.12720000
31
  0.00000000
0
LINE
8
DC
6
CONTINUOUS
62
7
10
  0.11940000
20
 -0.12480000
30
  0.00000000
11
  0.11990000
21
 -0.12430000
31
  0.00000000
0
LINE
8
DC
6
CONTINUOUS
62
7
10
  0.11960000
20
 -0.12450000
30
  0.00000000
11
  0.12040000
21
 -0.12530000
31
  0.00000000
0
LINE
8
DC
6
CONTINUOUS
62
7
10
  0.12010000
20
 -0.12550000
30
  0.00000000
11
  0.12060000
21
 -0.12500000
31
  0.00000000
0
LINE
8
DC
6
CONTINUOUS
62
7
10
  0.11950000
20
 -0.12700000
30
  0.00000000
11
  0.12000000
21
 -0.12650000
31
  0.00000000
0
LINE
8
DC
6
CONTINUOUS
62
7
10
  0.11970000
20
 -0.12670000
30
  0.00000000
11
  0.12050000
21
 -0.12750000
31
  0.00000000
0
LINE
8
DC
6
CONTINUOUS
62
7
10
  0.12020000
20
 -0.12770000
30
  0.00000000
11
  0.12070000
21
 -0.12720000
31
  0.00000000
0
LINE
8
DC
6
CONTINUOUS
62
7
10
  0.11700000
20
 -0.12470000
30
  0.00000000
11
  0.11750000
21
 -0.12420000
31
  0.00000000
0
LINE
8
DC
6
CONTINUOUS
62
7
10
  0.11720000
20
 -0.12440000
30
  0.00000000
11
  0.11800000
21
 -0.12520000
31
  0.00000000
0
LINE
8
DC
6
CONTINUOUS
62
7
10
  0.11770000
20
 -0.12540000
30
  0.00000000
11
  0.11820000
21
 -0.12490000
31
  0.00000000
0
LINE
8
DC
6
CONTINUOUS
62
7
10
  0.11740000
20
 -0.13000000
30
  0.00000000
11
  0.12040000
21
 -0.13000000
31
  0.00000000
0
LINE
8
DC
6
CONTINUOUS
62
7
10
  0.11840000
20
 -0.13160000
30
  0.00000000
11
  0.12140000
21
 -0.13160000
31
  0.00000000
0
LINE
8
DC
6
CONTINUOUS
62
7
10
  0.11690000
20
 -0.13500000
30
  0.00000000
11
  0.11940000
21
 -0.13250000
31
  0.00000000
0
LINE
8
DC
6
CONTINUOUS
62
7
10
  0.11940000
20
 -0.13750000
30
  0.00000000
11
  0.12190000
21
 -0.13500000
31
  0.00000000
0
LINE
8
DC
6
CONTINUOUS
62
7
10
  0.11690000
20
 -0.13750000
30
  0.00000000
11
  0.12190000
21
 -0.13250000
31
  0.00000000
0
CIRCLE
8
DC
6
CONTINUOUS
62
7
10
  0.11890000
20
 -0.13420000
30
  0.00000000
40
  0.00060000
0
CIRCLE
8
DC
6
CONTINUOUS
62
7
10
  0.12120000
20
 -0.13420000
30
  0.00000000
40
  0.00060000
0
CIRCLE
8
DC
6
CONTINUOUS
62
7
10
  0.11890000
20
 -0.13660000
30
  0.00000000
40
  0.00060000
0
CIRCLE
8
DC
6
CONTINUOUS
62
7
10
  0.12120000
20
 -0.13660000
30
  0.00000000
40
  0.00060000
0
LINE
8
DC
6
CONTINUOUS
62
7
10
  0.11720000
20
 -0.13530000
30
  0.00000000
11
  0.11770000
21
 -0.13480000
31
  0.00000000
0
LINE
8
DC
6
CONTINUOUS
62
7
10
  0.11740000
20
 -0.13500000
30
  0.00000000
11
  0.11820000
21
 -0.13580000
31
  0.00000000
0
LINE
8
DC
6
CONTINUOUS
62
7
10
  0.11790000
20
 -0.13600000
30
  0.00000000
11
  0.11840000
21
 -0.13550000
31
  0.00000000
0
LINE
8
DC
6
CONTINUOUS
62
7
10
  0.11940000
20
 -0.13310000
30
  0.00000000
11
  0.11990000
21
 -0.13260000
31
  0.00000000
0
LINE
8
DC
6
CONTINUOUS
62
7
10
  0.11960000
20
 -0.13280000
30
  0.00000000
11
  0.12040000
21
 -0.13360000
31
  0.00000000
0
LINE
8
DC
6
CONTINUOUS
62
7
10
  0.12010000
20
 -0.13380000
30
  0.00000000
11
  0.12060000
21
 -0.13330000
31
  0.00000000
0
LINE
8
DC
6
CONTINUOUS
62
7
10
  0.11950000
20
 -0.13530000
30
  0.00000000
11
  0.12000000
21
 -0.13480000
31
  0.00000000
0
LINE
8
DC
6
CONTINUOUS
62
7
10
  0.11970000
20
 -0.13500000
30
  0.00000000
11
  0.12050000
21
 -0.13580000
31
  0.00000000
0
LINE
8
DC
6
CONTINUOUS
62
7
10
  0.12020000
20
 -0.13600000
30
  0.00000000
11
  0.12070000
21
 -0.13550000
31
  0.00000000
0
LINE
8
DC
6
CONTINUOUS
62
7
10
  0.11700000
20
 -0.13300000
30
  0.00000000
11
  0.11750000
21
 -0.13250000
31
  0.00000000
0
LINE
8
DC
6
CONTINUOUS
62
7
10
  0.11720000
20
 -0.13270000
30
  0.00000000
11
  0.11800000
21
 -0.13350000
31
  0.00000000
0
LINE
8
DC
6
CONTINUOUS
62
7
10
  0.11770000
20
 -0.13370000
30
  0.00000000
11
  0.11820000
21
 -0.13320000
31
  0.00000000
0
LINE
8
DC
6
CONTINUOUS
62
7
10
  0.11740000
20
 -0.13830000
30
  0.00000000
11
  0.12040000
21
 -0.13830000
31
  0.00000000
0
LINE
8
DC
6
CONTINUOUS
62
7
10
  0.11840000
20
 -0.13990000
30
  0.00000000
11
  0.12140000
21
 -0.13990000
31
  0.00000000
0
LINE
8
DC
6
CONTINUOUS
62
7
10
  0.11690000
20
 -0.14330000
30
  0.00000000
11
  0.11940000
21
 -0.14080000
31
  0.00000000
0
LINE
8
DC
6
CONTINUOUS
62
7
10
  0.12010000
20
 -0.14510000
30
  0.00000000
11
  0.12190000
21
 -0.14330000
31
  0.00000000
0
LINE
8
DC
6
CONTINUOUS
62
7
10
  0.11760000
20
 -0.14510000
30
  0.00000000
11
  0.12190000
21
 -0.14080000
31
  0.00000000
0
CIRCLE
8
DC
6
CONTINUOUS
62
7
10
  0.11890000
20
 -0.14250000
30
  0.00000000
40
  0.00060000
0
CIRCLE
8
DC
6
CONTINUOUS
62
7
10
  0.12120000
20
 -0.14250000
30
  0.00000000
40
  0.00060000
0
LINE
8
DC
6
CONTINUOUS
62
7
10
  0.11720000
20
 -0.14360000
30
  0.00000000
11
  0.11770000
21
 -0.14310000
31
  0.00000000
0
LINE
8
DC
6
CONTINUOUS
62
7
10
  0.11740000
20
 -0.14330000
30
  0.00000000
11
  0.11820000
21
 -0.14410000
31
  0.00000000
0
LINE
8
DC
6
CONTINUOUS
62
7
10
  0.11790000
20
 -0.14430000
30
  0.00000000
11
  0.11840000
21
 -0.14380000
31
  0.00000000
0
LINE
8
DC
6
CONTINUOUS
62
7
10
  0.11940000
20
 -0.14140000
30
  0.00000000
11
  0.11990000
21
 -0.14090000
31
  0.00000000
0
LINE
8
DC
6
CONTINUOUS
62
7
10
  0.11960000
20
 -0.14110000
30
  0.00000000
11
  0.12040000
21
 -0.14190000
31
  0.00000000
0
LINE
8
DC
6
CONTINUOUS
62
7
10
  0.12010000
20
 -0.14210000
30
  0.00000000
11
  0.12060000
21
 -0.14160000
31
  0.00000000
0
LINE
8
DC
6
CONTINUOUS
62
7
10
  0.11950000
20
 -0.14360000
30
  0.00000000
11
  0.12000000
21
 -0.14310000
31
  0.00000000
0
LINE
8
DC
6
CONTINUOUS
62
7
10
  0.11970000
20
 -0.14330000
30
  0.00000000
11
  0.12050000
21
 -0.14410000
31
  0.00000000
0
LINE
8
DC
6
CONTINUOUS
62
7
10
  0.12020000
20
 -0.14430000
30
  0.00000000
11
  0.12070000
21
 -0.14380000
31
  0.00000000
0
LINE
8
DC
6
CONTINUOUS
62
7
10
  0.11700000
20
 -0.14130000
30
  0.00000000
11
  0.11750000
21
 -0.14080000
31
  0.00000000
0
LINE
8
DC
6
CONTINUOUS
62
7
10
  0.11720000
20
 -0.14100000
30
  0.00000000
11
  0.11800000
21
 -0.14180000
31
  0.00000000
0
LINE
8
DC
6
CONTINUOUS
62
7
10
  0.11770000
20
 -0.14200000
30
  0.00000000
11
  0.11820000
21
 -0.14150000
31
  0.00000000
0
LINE
8
DC
6
CONTINUOUS
62
7
10
  0.12350000
20
 -0.09310000
30
  0.00000000
11
  0.12350000
21
 -0.09310000
31
  0.00000000
0
LINE
8
DC
6
CONTINUOUS
62
7
10
  0.12328206
20
 -0.09305000
30
  0.00000000
11
  0.12371794
21
 -0.09305000
31
  0.00000000
0
LINE
8
DC
6
CONTINUOUS
62
7
10
  0.12320000
20
 -0.09300000
30
  0.00000000
11
  0.12380000
21
 -0.09300000
31
  0.00000000
0
LINE
8
DC
6
CONTINUOUS
62
7
10
  0.12314293
20
 -0.09295000
30
  0.00000000
11
  0.12385707
21
 -0.09295000
31
  0.00000000
0
LINE
8
DC
6
CONTINUOUS
62
7
10
  0.12310000
20
 -0.09290000
30
  0.00000000
11
  0.12390000
21
 -0.09290000
31
  0.00000000
0
LINE
8
DC
6
CONTINUOUS
62
7
10
  0.12306699
20
 -0.09285000
30
  0.00000000
11
  0.12393301
21
 -0.09285000
31
  0.00000000
0
LINE
8
DC
6
CONTINUOUS
62
7
10
  0.12304174
20
 -0.09280000
30
  0.00000000
11
  0.12395826
21
 -0.09280000
31
  0.00000000
0
LINE
8
DC
6
CONTINUOUS
62
7
10
  0.12302303
20
 -0.09275000
30
  0.00000000
11
  0.12397697
21
 -0.09275000
31
  0.00000000
0
LINE
8
DC
6
CONTINUOUS
62
7
10
  0.12301010
20
 -0.09270000
30
  0.00000000
11
  0.12398990
21
 -0.09270000
31
  0.00000000
0
LINE
8
DC
6
CONTINUOUS
62
7
10
  0.12300251
20
 -0.09265000
30
  0.00000000
11
  0.12399749
21
 -0.09265000
31
  0.00000000
0
LINE
8
DC
6
CONTINUOUS
62
7
10
  0.12300000
20
 -0.09260000
30
  0.00000000
11
  0.12400000
21
 -0.09260000
31
  0.00000000
0
LINE
8
DC
6
CONTINUOUS
62
7
10
  0.12300251
20
 -0.09255000
30
  0.00000000
11
  0.12399749
21
 -0.09255000
31
  0.00000000
0
LINE
8
DC
6
CONTINUOUS
62
7
10
  0.12301010
20
 -0.09250000
30
  0.00000000
11
  0.12398990
21
 -0.09250000
31
  0.00000000
0
LINE
8
DC
6
CONTINUOUS
62
7
10
  0.12302303
20
 -0.09245000
30
  0.00000000
11
  0.12397697
21
 -0.09245000
31
  0.00000000
0
LINE
8
DC
6
CONTINUOUS
62
7
10
  0.12304174
20
 -0.09240000
30
  0.00000000
11
  0.12395826
21
 -0.09240000
31
  0.00000000
0
LINE
8
DC
6
CONTINUOUS
62
7
10
  0.12306699
20
 -0.09235000
30
  0.00000000
11
  0.12393301
21
 -0.09235000
31
  0.00000000
0
LINE
8
DC
6
CONTINUOUS
62
7
10
  0.12310000
20
 -0.09230000
30
  0.00000000
11
  0.12390000
21
 -0.09230000
31
  0.00000000
0
LINE
8
DC
6
CONTINUOUS
62
7
10
  0.12314293
20
 -0.09225000
30
  0.00000000
11
  0.12385707
21
 -0.09225000
31
  0.00000000
0
LINE
8
DC
6
CONTINUOUS
62
7
10
  0.12320000
20
 -0.09220000
30
  0.00000000
11
  0.12380000
21
 -0.09220000
31
  0.00000000
0
LINE
8
DC
6
CONTINUOUS
62
7
10
  0.12328206
20
 -0.09215000
30
  0.00000000
11
  0.12371794
21
 -0.09215000
31
  0.00000000
0
CIRCLE
8
DC
6
CONTINUOUS
62
7
10
  0.12350000
20
 -0.09260000
30
  0.00000000
40
  0.00050000
0
LINE
8
DC
6
CONTINUOUS
62
7
10
  0.12510000
20
 -0.09310000
30
  0.00000000
11
  0.12510000
21
 -0.09310000
31
  0.00000000
0
LINE
8
DC
6
CONTINUOUS
62
7
10
  0.12488206
20
 -0.09305000
30
  0.00000000
11
  0.12531794
21
 -0.09305000
31
  0.00000000
0
LINE
8
DC
6
CONTINUOUS
62
7
10
  0.12480000
20
 -0.09300000
30
  0.00000000
11
  0.12540000
21
 -0.09300000
31
  0.00000000
0
LINE
8
DC
6
CONTINUOUS
62
7
10
  0.12474293
20
 -0.09295000
30
  0.00000000
11
  0.12545707
21
 -0.09295000
31
  0.00000000
0
LINE
8
DC
6
CONTINUOUS
62
7
10
  0.12470000
20
 -0.09290000
30
  0.00000000
11
  0.12550000
21
 -0.09290000
31
  0.00000000
0
LINE
8
DC
6
CONTINUOUS
62
7
10
  0.12466699
20
 -0.09285000
30
  0.00000000
11
  0.12553301
21
 -0.09285000
31
  0.00000000
0
LINE
8
DC
6
CONTINUOUS
62
7
10
  0.12464174
20
 -0.09280000
30
  0.00000000
11
  0.12555826
21
 -0.09280000
31
  0.00000000
0
LINE
8
DC
6
CONTINUOUS
62
7
10
  0.12462303
20
 -0.09275000
30
  0.00000000
11
  0.12557697
21
 -0.09275000
31
  0.00000000
0
LINE
8
DC
6
CONTINUOUS
62
7
10
  0.12461010
20
 -0.09270000
30
  0.00000000
11
  0.12558990
21
 -0.09270000
31
  0.00000000
0
LINE
8
DC
6
CONTINUOUS
62
7
10
  0.12460251
20
 -0.09265000
30
  0.00000000
11
  0.12559749
21
 -0.09265000
31
  0.00000000
0
LINE
8
DC
6
CONTINUOUS
62
7
10
  0.12460000
20
 -0.09260000
30
  0.00000000
11
  0.12560000
21
 -0.09260000
31
  0.00000000
0
LINE
8
DC
6
CONTINUOUS
62
7
10
  0.12460251
20
 -0.09255000
30
  0.00000000
11
  0.12559749
21
 -0.09255000
31
  0.00000000
0
LINE
8
DC
6
CONTINUOUS
62
7
10
  0.12461010
20
 -0.09250000
30
  0.00000000
11
  0.12558990
21
 -0.09250000
31
  0.00000000
0
LINE
8
DC
6
CONTINUOUS
62
7
10
  0.12462303
20
 -0.09245000
30
  0.00000000
11
  0.12557697
21
 -0.09245000
31
  0.00000000
0
LINE
8
DC
6
CONTINUOUS
62
7
10
  0.12464174
20
 -0.09240000
30
  0.00000000
11
  0.12555826
21
 -0.09240000
31
  0.00000000
0
LINE
8
DC
6
CONTINUOUS
62
7
10
  0.12466699
20
 -0.09235000
30
  0.00000000
11
  0.12553301
21
 -0.09235000
31
  0.00000000
0
LINE
8
DC
6
CONTINUOUS
62
7
10
  0.12470000
20
 -0.09230000
30
  0.00000000
11
  0.12550000
21
 -0.09230000
31
  0.00000000
0
LINE
8
DC
6
CONTINUOUS
62
7
10
  0.12474293
20
 -0.09225000
30
  0.00000000
11
  0.12545707
21
 -0.09225000
31
  0.00000000
0
LINE
8
DC
6
CONTINUOUS
62
7
10
  0.12480000
20
 -0.09220000
30
  0.00000000
11
  0.12540000
21
 -0.09220000
31
  0.00000000
0
LINE
8
DC
6
CONTINUOUS
62
7
10
  0.12488206
20
 -0.09215000
30
  0.00000000
11
  0.12531794
21
 -0.09215000
31
  0.00000000
0
CIRCLE
8
DC
6
CONTINUOUS
62
7
10
  0.12510000
20
 -0.09260000
30
  0.00000000
40
  0.00050000
0
LINE
8
DC
6
CONTINUOUS
62
7
10
  0.12290000
20
 -0.09310000
30
  0.00000000
11
  0.12590000
21
 -0.09310000
31
  0.00000000
0
LINE
8
DC
6
CONTINUOUS
62
7
10
  0.12210000
20
 -0.09500000
30
  0.00000000
11
  0.12210000
21
 -0.09500000
31
  0.00000000
0
LINE
8
DC
6
CONTINUOUS
62
7
10
  0.12196771
20
 -0.09495000
30
  0.00000000
11
  0.12223229
21
 -0.09495000
31
  0.00000000
0
LINE
8
DC
6
CONTINUOUS
62
7
10
  0.12192679
20
 -0.09490000
30
  0.00000000
11
  0.12227321
21
 -0.09490000
31
  0.00000000
0
LINE
8
DC
6
CONTINUOUS
62
7
10
  0.12190635
20
 -0.09485000
30
  0.00000000
11
  0.12229365
21
 -0.09485000
31
  0.00000000
0
LINE
8
DC
6
CONTINUOUS
62
7
10
  0.12190000
20
 -0.09480000
30
  0.00000000
11
  0.12230000
21
 -0.09480000
31
  0.00000000
0
LINE
8
DC
6
CONTINUOUS
62
7
10
  0.12190635
20
 -0.09475000
30
  0.00000000
11
  0.12229365
21
 -0.09475000
31
  0.00000000
0
LINE
8
DC
6
CONTINUOUS
62
7
10
  0.12192679
20
 -0.09470000
30
  0.00000000
11
  0.12227321
21
 -0.09470000
31
  0.00000000
0
LINE
8
DC
6
CONTINUOUS
62
7
10
  0.12196771
20
 -0.09465000
30
  0.00000000
11
  0.12223229
21
 -0.09465000
31
  0.00000000
0
CIRCLE
8
DC
6
CONTINUOUS
62
7
10
  0.12210000
20
 -0.09480000
30
  0.00000000
40
  0.00020000
0
LINE
8
DC
6
CONTINUOUS
62
7
10
  0.12310000
20
 -0.09500000
30
  0.00000000
11
  0.12310000
21
 -0.09500000
31
  0.00000000
0
LINE
8
DC
6
CONTINUOUS
62
7
10
  0.12296771
20
 -0.09495000
30
  0.00000000
11
  0.12323229
21
 -0.09495000
31
  0.00000000
0
LINE
8
DC
6
CONTINUOUS
62
7
10
  0.12292679
20
 -0.09490000
30
  0.00000000
11
  0.12327321
21
 -0.09490000
31
  0.00000000
0
LINE
8
DC
6
CONTINUOUS
62
7
10
  0.12290635
20
 -0.09485000
30
  0.00000000
11
  0.12329365
21
 -0.09485000
31
  0.00000000
0
LINE
8
DC
6
CONTINUOUS
62
7
10
  0.12290000
20
 -0.09480000
30
  0.00000000
11
  0.12330000
21
 -0.09480000
31
  0.00000000
0
LINE
8
DC
6
CONTINUOUS
62
7
10
  0.12290635
20
 -0.09475000
30
  0.00000000
11
  0.12329365
21
 -0.09475000
31
  0.00000000
0
LINE
8
DC
6
CONTINUOUS
62
7
10
  0.12292679
20
 -0.09470000
30
  0.00000000
11
  0.12327321
21
 -0.09470000
31
  0.00000000
0
LINE
8
DC
6
CONTINUOUS
62
7
10
  0.12296771
20
 -0.09465000
30
  0.00000000
11
  0.12323229
21
 -0.09465000
31
  0.00000000
0
CIRCLE
8
DC
6
CONTINUOUS
62
7
10
  0.12310000
20
 -0.09480000
30
  0.00000000
40
  0.00020000
0
LINE
8
DC
6
CONTINUOUS
62
7
10
  0.12410000
20
 -0.09500000
30
  0.00000000
11
  0.12410000
21
 -0.09500000
31
  0.00000000
0
LINE
8
DC
6
CONTINUOUS
62
7
10
  0.12396771
20
 -0.09495000
30
  0.00000000
11
  0.12423229
21
 -0.09495000
31
  0.00000000
0
LINE
8
DC
6
CONTINUOUS
62
7
10
  0.12392679
20
 -0.09490000
30
  0.00000000
11
  0.12427321
21
 -0.09490000
31
  0.00000000
0
LINE
8
DC
6
CONTINUOUS
62
7
10
  0.12390635
20
 -0.09485000
30
  0.00000000
11
  0.12429365
21
 -0.09485000
31
  0.00000000
0
LINE
8
DC
6
CONTINUOUS
62
7
10
  0.12390000
20
 -0.09480000
30
  0.00000000
11
  0.12430000
21
 -0.09480000
31
  0.00000000
0
LINE
8
DC
6
CONTINUOUS
62
7
10
  0.12390635
20
 -0.09475000
30
  0.00000000
11
  0.12429365
21
 -0.09475000
31
  0.00000000
0
LINE
8
DC
6
CONTINUOUS
62
7
10
  0.12392679
20
 -0.09470000
30
  0.00000000
11
  0.12427321
21
 -0.09470000
31
  0.00000000
0
LINE
8
DC
6
CONTINUOUS
62
7
10
  0.12396771
20
 -0.09465000
30
  0.00000000
11
  0.12423229
21
 -0.09465000
31
  0.00000000
0
CIRCLE
8
DC
6
CONTINUOUS
62
7
10
  0.12410000
20
 -0.09480000
30
  0.00000000
40
  0.00020000
0
LINE
8
DC
6
CONTINUOUS
62
7
10
  0.12510000
20
 -0.09500000
30
  0.00000000
11
  0.12510000
21
 -0.09500000
31
  0.00000000
0
LINE
8
DC
6
CONTINUOUS
62
7
10
  0.12496771
20
 -0.09495000
30
  0.00000000
11
  0.12523229
21
 -0.09495000
31
  0.00000000
0
LINE
8
DC
6
CONTINUOUS
62
7
10
  0.12492679
20
 -0.09490000
30
  0.00000000
11
  0.12527321
21
 -0.09490000
31
  0.00000000
0
LINE
8
DC
6
CONTINUOUS
62
7
10
  0.12490635
20
 -0.09485000
30
  0.00000000
11
  0.12529365
21
 -0.09485000
31
  0.00000000
0
LINE
8
DC
6
CONTINUOUS
62
7
10
  0.12490000
20
 -0.09480000
30
  0.00000000
11
  0.12530000
21
 -0.09480000
31
  0.00000000
0
LINE
8
DC
6
CONTINUOUS
62
7
10
  0.12490635
20
 -0.09475000
30
  0.00000000
11
  0.12529365
21
 -0.09475000
31
  0.00000000
0
LINE
8
DC
6
CONTINUOUS
62
7
10
  0.12492679
20
 -0.09470000
30
  0.00000000
11
  0.12527321
21
 -0.09470000
31
  0.00000000
0
LINE
8
DC
6
CONTINUOUS
62
7
10
  0.12496771
20
 -0.09465000
30
  0.00000000
11
  0.12523229
21
 -0.09465000
31
  0.00000000
0
CIRCLE
8
DC
6
CONTINUOUS
62
7
10
  0.12510000
20
 -0.09480000
30
  0.00000000
40
  0.00020000
0
LINE
8
DC
6
CONTINUOUS
62
7
10
  0.12610000
20
 -0.09500000
30
  0.00000000
11
  0.12610000
21
 -0.09500000
31
  0.00000000
0
LINE
8
DC
6
CONTINUOUS
62
7
10
  0.12596771
20
 -0.09495000
30
  0.00000000
11
  0.12623229
21
 -0.09495000
31
  0.00000000
0
LINE
8
DC
6
CONTINUOUS
62
7
10
  0.12592679
20
 -0.09490000
30
  0.00000000
11
  0.12627321
21
 -0.09490000
31
  0.00000000
0
LINE
8
DC
6
CONTINUOUS
62
7
10
  0.12590635
20
 -0.09485000
30
  0.00000000
11
  0.12629365
21
 -0.09485000
31
  0.00000000
0
LINE
8
DC
6
CONTINUOUS
62
7
10
  0.12590000
20
 -0.09480000
30
  0.00000000
11
  0.12630000
21
 -0.09480000
31
  0.00000000
0
LINE
8
DC
6
CONTINUOUS
62
7
10
  0.12590635
20
 -0.09475000
30
  0.00000000
11
  0.12629365
21
 -0.09475000
31
  0.00000000
0
LINE
8
DC
6
CONTINUOUS
62
7
10
  0.12592679
20
 -0.09470000
30
  0.00000000
11
  0.12627321
21
 -0.09470000
31
  0.00000000
0
LINE
8
DC
6
CONTINUOUS
62
7
10
  0.12596771
20
 -0.09465000
30
  0.00000000
11
  0.12623229
21
 -0.09465000
31
  0.00000000
0
CIRCLE
8
DC
6
CONTINUOUS
62
7
10
  0.12610000
20
 -0.09480000
30
  0.00000000
40
  0.00020000
0
LINE
8
DC
6
CONTINUOUS
62
7
10
  0.12210000
20
 -0.09720000
30
  0.00000000
11
  0.12210000
21
 -0.09720000
31
  0.00000000
0
LINE
8
DC
6
CONTINUOUS
62
7
10
  0.12196771
20
 -0.09715000
30
  0.00000000
11
  0.12223229
21
 -0.09715000
31
  0.00000000
0
LINE
8
DC
6
CONTINUOUS
62
7
10
  0.12192679
20
 -0.09710000
30
  0.00000000
11
  0.12227321
21
 -0.09710000
31
  0.00000000
0
LINE
8
DC
6
CONTINUOUS
62
7
10
  0.12190635
20
 -0.09705000
30
  0.00000000
11
  0.12229365
21
 -0.09705000
31
  0.00000000
0
LINE
8
DC
6
CONTINUOUS
62
7
10
  0.12190000
20
 -0.09700000
30
  0.00000000
11
  0.12230000
21
 -0.09700000
31
  0.00000000
0
LINE
8
DC
6
CONTINUOUS
62
7
10
  0.12190635
20
 -0.09695000
30
  0.00000000
11
  0.12229365
21
 -0.09695000
31
  0.00000000
0
LINE
8
DC
6
CONTINUOUS
62
7
10
  0.12192679
20
 -0.09690000
30
  0.00000000
11
  0.12227321
21
 -0.09690000
31
  0.00000000
0
LINE
8
DC
6
CONTINUOUS
62
7
10
  0.12196771
20
 -0.09685000
30
  0.00000000
11
  0.12223229
21
 -0.09685000
31
  0.00000000
0
CIRCLE
8
DC
6
CONTINUOUS
62
7
10
  0.12210000
20
 -0.09700000
30
  0.00000000
40
  0.00020000
0
LINE
8
DC
6
CONTINUOUS
62
7
10
  0.12310000
20
 -0.09720000
30
  0.00000000
11
  0.12310000
21
 -0.09720000
31
  0.00000000
0
LINE
8
DC
6
CONTINUOUS
62
7
10
  0.12296771
20
 -0.09715000
30
  0.00000000
11
  0.12323229
21
 -0.09715000
31
  0.00000000
0
LINE
8
DC
6
CONTINUOUS
62
7
10
  0.12292679
20
 -0.09710000
30
  0.00000000
11
  0.12327321
21
 -0.09710000
31
  0.00000000
0
LINE
8
DC
6
CONTINUOUS
62
7
10
  0.12290635
20
 -0.09705000
30
  0.00000000
11
  0.12329365
21
 -0.09705000
31
  0.00000000
0
LINE
8
DC
6
CONTINUOUS
62
7
10
  0.12290000
20
 -0.09700000
30
  0.00000000
11
  0.12330000
21
 -0.09700000
31
  0.00000000
0
LINE
8
DC
6
CONTINUOUS
62
7
10
  0.12290635
20
 -0.09695000
30
  0.00000000
11
  0.12329365
21
 -0.09695000
31
  0.00000000
0
LINE
8
DC
6
CONTINUOUS
62
7
10
  0.12292679
20
 -0.09690000
30
  0.00000000
11
  0.12327321
21
 -0.09690000
31
  0.00000000
0
LINE
8
DC
6
CONTINUOUS
62
7
10
  0.12296771
20
 -0.09685000
30
  0.00000000
11
  0.12323229
21
 -0.09685000
31
  0.00000000
0
CIRCLE
8
DC
6
CONTINUOUS
62
7
10
  0.12310000
20
 -0.09700000
30
  0.00000000
40
  0.00020000
0
LINE
8
DC
6
CONTINUOUS
62
7
10
  0.12410000
20
 -0.09720000
30
  0.00000000
11
  0.12410000
21
 -0.09720000
31
  0.00000000
0
LINE
8
DC
6
CONTINUOUS
62
7
10
  0.12396771
20
 -0.09715000
30
  0.00000000
11
  0.12423229
21
 -0.09715000
31
  0.00000000
0
LINE
8
DC
6
CONTINUOUS
62
7
10
  0.12392679
20
 -0.09710000
30
  0.00000000
11
  0.12427321
21
 -0.09710000
31
  0.00000000
0
LINE
8
DC
6
CONTINUOUS
62
7
10
  0.12390635
20
 -0.09705000
30
  0.00000000
11
  0.12429365
21
 -0.09705000
31
  0.00000000
0
LINE
8
DC
6
CONTINUOUS
62
7
10
  0.12390000
20
 -0.09700000
30
  0.00000000
11
  0.12430000
21
 -0.09700000
31
  0.00000000
0
LINE
8
DC
6
CONTINUOUS
62
7
10
  0.12390635
20
 -0.09695000
30
  0.00000000
11
  0.12429365
21
 -0.09695000
31
  0.00000000
0
LINE
8
DC
6
CONTINUOUS
62
7
10
  0.12392679
20
 -0.09690000
30
  0.00000000
11
  0.12427321
21
 -0.09690000
31
  0.00000000
0
LINE
8
DC
6
CONTINUOUS
62
7
10
  0.12396771
20
 -0.09685000
30
  0.00000000
11
  0.12423229
21
 -0.09685000
31
  0.00000000
0
CIRCLE
8
DC
6
CONTINUOUS
62
7
10
  0.12410000
20
 -0.09700000
30
  0.00000000
40
  0.00020000
0
LINE
8
DC
6
CONTINUOUS
62
7
10
  0.12510000
20
 -0.09720000
30
  0.00000000
11
  0.12510000
21
 -0.09720000
31
  0.00000000
0
LINE
8
DC
6
CONTINUOUS
62
7
10
  0.12496771
20
 -0.09715000
30
  0.00000000
11
  0.12523229
21
 -0.09715000
31
  0.00000000
0
LINE
8
DC
6
CONTINUOUS
62
7
10
  0.12492679
20
 -0.09710000
30
  0.00000000
11
  0.12527321
21
 -0.09710000
31
  0.00000000
0
LINE
8
DC
6
CONTINUOUS
62
7
10
  0.12490635
20
 -0.09705000
30
  0.00000000
11
  0.12529365
21
 -0.09705000
31
  0.00000000
0
LINE
8
DC
6
CONTINUOUS
62
7
10
  0.12490000
20
 -0.09700000
30
  0.00000000
11
  0.12530000
21
 -0.09700000
31
  0.00000000
0
LINE
8
DC
6
CONTINUOUS
62
7
10
  0.12490635
20
 -0.09695000
30
  0.00000000
11
  0.12529365
21
 -0.09695000
31
  0.00000000
0
LINE
8
DC
6
CONTINUOUS
62
7
10
  0.12492679
20
 -0.09690000
30
  0.00000000
11
  0.12527321
21
 -0.09690000
31
  0.00000000
0
LINE
8
DC
6
CONTINUOUS
62
7
10
  0.12496771
20
 -0.09685000
30
  0.00000000
11
  0.12523229
21
 -0.09685000
31
  0.00000000
0
CIRCLE
8
DC
6
CONTINUOUS
62
7
10
  0.12510000
20
 -0.09700000
30
  0.00000000
40
  0.00020000
0
LINE
8
DC
6
CONTINUOUS
62
7
10
  0.12610000
20
 -0.09720000
30
  0.00000000
11
  0.12610000
21
 -0.09720000
31
  0.00000000
0
LINE
8
DC
6
CONTINUOUS
62
7
10
  0.12596771
20
 -0.09715000
30
  0.00000000
11
  0.12623229
21
 -0.09715000
31
  0.00000000
0
LINE
8
DC
6
CONTINUOUS
62
7
10
  0.12592679
20
 -0.09710000
30
  0.00000000
11
  0.12627321
21
 -0.09710000
31
  0.00000000
0
LINE
8
DC
6
CONTINUOUS
62
7
10
  0.12590635
20
 -0.09705000
30
  0.00000000
11
  0.12629365
21
 -0.09705000
31
  0.00000000
0
LINE
8
DC
6
CONTINUOUS
62
7
10
  0.12590000
20
 -0.09700000
30
  0.00000000
11
  0.12630000
21
 -0.09700000
31
  0.00000000
0
LINE
8
DC
6
CONTINUOUS
62
7
10
  0.12590635
20
 -0.09695000
30
  0.00000000
11
  0.12629365
21
 -0.09695000
31
  0.00000000
0
LINE
8
DC
6
CONTINUOUS
62
7
10
  0.12592679
20
 -0.09690000
30
  0.00000000
11
  0.12627321
21
 -0.09690000
31
  0.00000000
0
LINE
8
DC
6
CONTINUOUS
62
7
10
  0.12596771
20
 -0.09685000
30
  0.00000000
11
  0.12623229
21
 -0.09685000
31
  0.00000000
0
CIRCLE
8
DC
6
CONTINUOUS
62
7
10
  0.12610000
20
 -0.09700000
30
  0.00000000
40
  0.00020000
0
LINE
8
DC
6
CONTINUOUS
62
7
10
  0.12260000
20
 -0.09610000
30
  0.00000000
11
  0.12260000
21
 -0.09610000
31
  0.00000000
0
LINE
8
DC
6
CONTINUOUS
62
7
10
  0.12246771
20
 -0.09605000
30
  0.00000000
11
  0.12273229
21
 -0.09605000
31
  0.00000000
0
LINE
8
DC
6
CONTINUOUS
62
7
10
  0.12242679
20
 -0.09600000
30
  0.00000000
11
  0.12277321
21
 -0.09600000
31
  0.00000000
0
LINE
8
DC
6
CONTINUOUS
62
7
10
  0.12240635
20
 -0.09595000
30
  0.00000000
11
  0.12279365
21
 -0.09595000
31
  0.00000000
0
LINE
8
DC
6
CONTINUOUS
62
7
10
  0.12240000
20
 -0.09590000
30
  0.00000000
11
  0.12280000
21
 -0.09590000
31
  0.00000000
0
LINE
8
DC
6
CONTINUOUS
62
7
10
  0.12240635
20
 -0.09585000
30
  0.00000000
11
  0.12279365
21
 -0.09585000
31
  0.00000000
0
LINE
8
DC
6
CONTINUOUS
62
7
10
  0.12242679
20
 -0.09580000
30
  0.00000000
11
  0.12277321
21
 -0.09580000
31
  0.00000000
0
LINE
8
DC
6
CONTINUOUS
62
7
10
  0.12246771
20
 -0.09575000
30
  0.00000000
11
  0.12273229
21
 -0.09575000
31
  0.00000000
0
CIRCLE
8
DC
6
CONTINUOUS
62
7
10
  0.12260000
20
 -0.09590000
30
  0.00000000
40
  0.00020000
0
LINE
8
DC
6
CONTINUOUS
62
7
10
  0.12360000
20
 -0.09610000
30
  0.00000000
11
  0.12360000
21
 -0.09610000
31
  0.00000000
0
LINE
8
DC
6
CONTINUOUS
62
7
10
  0.12346771
20
 -0.09605000
30
  0.00000000
11
  0.12373229
21
 -0.09605000
31
  0.00000000
0
LINE
8
DC
6
CONTINUOUS
62
7
10
  0.12342679
20
 -0.09600000
30
  0.00000000
11
  0.12377321
21
 -0.09600000
31
  0.00000000
0
LINE
8
DC
6
CONTINUOUS
62
7
10
  0.12340635
20
 -0.09595000
30
  0.00000000
11
  0.12379365
21
 -0.09595000
31
  0.00000000
0
LINE
8
DC
6
CONTINUOUS
62
7
10
  0.12340000
20
 -0.09590000
30
  0.00000000
11
  0.12380000
21
 -0.09590000
31
  0.00000000
0
LINE
8
DC
6
CONTINUOUS
62
7
10
  0.12340635
20
 -0.09585000
30
  0.00000000
11
  0.12379365
21
 -0.09585000
31
  0.00000000
0
LINE
8
DC
6
CONTINUOUS
62
7
10
  0.12342679
20
 -0.09580000
30
  0.00000000
11
  0.12377321
21
 -0.09580000
31
  0.00000000
0
LINE
8
DC
6
CONTINUOUS
62
7
10
  0.12346771
20
 -0.09575000
30
  0.00000000
11
  0.12373229
21
 -0.09575000
31
  0.00000000
0
CIRCLE
8
DC
6
CONTINUOUS
62
7
10
  0.12360000
20
 -0.09590000
30
  0.00000000
40
  0.00020000
0
LINE
8
DC
6
CONTINUOUS
62
7
10
  0.12460000
20
 -0.09610000
30
  0.00000000
11
  0.12460000
21
 -0.09610000
31
  0.00000000
0
LINE
8
DC
6
CONTINUOUS
62
7
10
  0.12446771
20
 -0.09605000
30
  0.00000000
11
  0.12473229
21
 -0.09605000
31
  0.00000000
0
LINE
8
DC
6
CONTINUOUS
62
7
10
  0.12442679
20
 -0.09600000
30
  0.00000000
11
  0.12477321
21
 -0.09600000
31
  0.00000000
0
LINE
8
DC
6
CONTINUOUS
62
7
10
  0.12440635
20
 -0.09595000
30
  0.00000000
11
  0.12479365
21
 -0.09595000
31
  0.00000000
0
LINE
8
DC
6
CONTINUOUS
62
7
10
  0.12440000
20
 -0.09590000
30
  0.00000000
11
  0.12480000
21
 -0.09590000
31
  0.00000000
0
LINE
8
DC
6
CONTINUOUS
62
7
10
  0.12440635
20
 -0.09585000
30
  0.00000000
11
  0.12479365
21
 -0.09585000
31
  0.00000000
0
LINE
8
DC
6
CONTINUOUS
62
7
10
  0.12442679
20
 -0.09580000
30
  0.00000000
11
  0.12477321
21
 -0.09580000
31
  0.00000000
0
LINE
8
DC
6
CONTINUOUS
62
7
10
  0.12446771
20
 -0.09575000
30
  0.00000000
11
  0.12473229
21
 -0.09575000
31
  0.00000000
0
CIRCLE
8
DC
6
CONTINUOUS
62
7
10
  0.12460000
20
 -0.09590000
30
  0.00000000
40
  0.00020000
0
LINE
8
DC
6
CONTINUOUS
62
7
10
  0.12560000
20
 -0.09610000
30
  0.00000000
11
  0.12560000
21
 -0.09610000
31
  0.00000000
0
LINE
8
DC
6
CONTINUOUS
62
7
10
  0.12546771
20
 -0.09605000
30
  0.00000000
11
  0.12573229
21
 -0.09605000
31
  0.00000000
0
LINE
8
DC
6
CONTINUOUS
62
7
10
  0.12542679
20
 -0.09600000
30
  0.00000000
11
  0.12577321
21
 -0.09600000
31
  0.00000000
0
LINE
8
DC
6
CONTINUOUS
62
7
10
  0.12540635
20
 -0.09595000
30
  0.00000000
11
  0.12579365
21
 -0.09595000
31
  0.00000000
0
LINE
8
DC
6
CONTINUOUS
62
7
10
  0.12540000
20
 -0.09590000
30
  0.00000000
11
  0.12580000
21
 -0.09590000
31
  0.00000000
0
LINE
8
DC
6
CONTINUOUS
62
7
10
  0.12540635
20
 -0.09585000
30
  0.00000000
11
  0.12579365
21
 -0.09585000
31
  0.00000000
0
LINE
8
DC
6
CONTINUOUS
62
7
10
  0.12542679
20
 -0.09580000
30
  0.00000000
11
  0.12577321
21
 -0.09580000
31
  0.00000000
0
LINE
8
DC
6
CONTINUOUS
62
7
10
  0.12546771
20
 -0.09575000
30
  0.00000000
11
  0.12573229
21
 -0.09575000
31
  0.00000000
0
CIRCLE
8
DC
6
CONTINUOUS
62
7
10
  0.12560000
20
 -0.09590000
30
  0.00000000
40
  0.00020000
0
LINE
8
DC
6
CONTINUOUS
62
7
10
  0.12660000
20
 -0.09610000
30
  0.00000000
11
  0.12660000
21
 -0.09610000
31
  0.00000000
0
LINE
8
DC
6
CONTINUOUS
62
7
10
  0.12646771
20
 -0.09605000
30
  0.00000000
11
  0.12673229
21
 -0.09605000
31
  0.00000000
0
LINE
8
DC
6
CONTINUOUS
62
7
10
  0.12642679
20
 -0.09600000
30
  0.00000000
11
  0.12677321
21
 -0.09600000
31
  0.00000000
0
LINE
8
DC
6
CONTINUOUS
62
7
10
  0.12640635
20
 -0.09595000
30
  0.00000000
11
  0.12679365
21
 -0.09595000
31
  0.00000000
0
LINE
8
DC
6
CONTINUOUS
62
7
10
  0.12640000
20
 -0.09590000
30
  0.00000000
11
  0.12680000
21
 -0.09590000
31
  0.00000000
0
LINE
8
DC
6
CONTINUOUS
62
7
10
  0.12640635
20
 -0.09585000
30
  0.00000000
11
  0.12679365
21
 -0.09585000
31
  0.00000000
0
LINE
8
DC
6
CONTINUOUS
62
7
10
  0.12642679
20
 -0.09580000
30
  0.00000000
11
  0.12677321
21
 -0.09580000
31
  0.00000000
0
LINE
8
DC
6
CONTINUOUS
62
7
10
  0.12646771
20
 -0.09575000
30
  0.00000000
11
  0.12673229
21
 -0.09575000
31
  0.00000000
0
CIRCLE
8
DC
6
CONTINUOUS
62
7
10
  0.12660000
20
 -0.09590000
30
  0.00000000
40
  0.00020000
0
LINE
8
DC
6
CONTINUOUS
62
7
10
  0.12190000
20
 -0.10010000
30
  0.00000000
11
  0.12440000
21
 -0.09760000
31
  0.00000000
0
LINE
8
DC
6
CONTINUOUS
62
7
10
  0.12440000
20
 -0.10260000
30
  0.00000000
11
  0.12690000
21
 -0.10010000
31
  0.00000000
0
LINE
8
DC
6
CONTINUOUS
62
7
10
  0.12190000
20
 -0.10260000
30
  0.00000000
11
  0.12690000
21
 -0.09760000
31
  0.00000000
0
CIRCLE
8
DC
6
CONTINUOUS
62
7
10
  0.12390000
20
 -0.09930000
30
  0.00000000
40
  0.00060000
0
CIRCLE
8
DC
6
CONTINUOUS
62
7
10
  0.12620000
20
 -0.09930000
30
  0.00000000
40
  0.00060000
0
CIRCLE
8
DC
6
CONTINUOUS
62
7
10
  0.12390000
20
 -0.10170000
30
  0.00000000
40
  0.00060000
0
CIRCLE
8
DC
6
CONTINUOUS
62
7
10
  0.12620000
20
 -0.10170000
30
  0.00000000
40
  0.00060000
0
LINE
8
DC
6
CONTINUOUS
62
7
10
  0.12220000
20
 -0.10040000
30
  0.00000000
11
  0.12270000
21
 -0.09990000
31
  0.00000000
0
LINE
8
DC
6
CONTINUOUS
62
7
10
  0.12240000
20
 -0.10010000
30
  0.00000000
11
  0.12320000
21
 -0.10090000
31
  0.00000000
0
LINE
8
DC
6
CONTINUOUS
62
7
10
  0.12290000
20
 -0.10110000
30
  0.00000000
11
  0.12340000
21
 -0.10060000
31
  0.00000000
0
LINE
8
DC
6
CONTINUOUS
62
7
10
  0.12440000
20
 -0.09820000
30
  0.00000000
11
  0.12490000
21
 -0.09770000
31
  0.00000000
0
LINE
8
DC
6
CONTINUOUS
62
7
10
  0.12460000
20
 -0.09790000
30
  0.00000000
11
  0.12540000
21
 -0.09870000
31
  0.00000000
0
LINE
8
DC
6
CONTINUOUS
62
7
10
  0.12510000
20
 -0.09890000
30
  0.00000000
11
  0.12560000
21
 -0.09840000
31
  0.00000000
0
LINE
8
DC
6
CONTINUOUS
62
7
10
  0.12450000
20
 -0.10040000
30
  0.00000000
11
  0.12500000
21
 -0.09990000
31
  0.00000000
0
LINE
8
DC
6
CONTINUOUS
62
7
10
  0.12470000
20
 -0.10010000
30
  0.00000000
11
  0.12550000
21
 -0.10090000
31
  0.00000000
0
LINE
8
DC
6
CONTINUOUS
62
7
10
  0.12520000
20
 -0.10110000
30
  0.00000000
11
  0.12570000
21
 -0.10060000
31
  0.00000000
0
LINE
8
DC
6
CONTINUOUS
62
7
10
  0.12200000
20
 -0.09810000
30
  0.00000000
11
  0.12250000
21
 -0.09760000
31
  0.00000000
0
LINE
8
DC
6
CONTINUOUS
62
7
10
  0.12220000
20
 -0.09780000
30
  0.00000000
11
  0.12300000
21
 -0.09860000
31
  0.00000000
0
LINE
8
DC
6
CONTINUOUS
62
7
10
  0.12270000
20
 -0.09880000
30
  0.00000000
11
  0.12320000
21
 -0.09830000
31
  0.00000000
0
LINE
8
DC
6
CONTINUOUS
62
7
10
  0.12240000
20
 -0.10340000
30
  0.00000000
11
  0.12540000
21
 -0.10340000
31
  0.00000000
0
LINE
8
DC
6
CONTINUOUS
62
7
10
  0.12340000
20
 -0.10500000
30
  0.00000000
11
  0.12640000
21
 -0.10500000
31
  0.00000000
0
LINE
8
DC
6
CONTINUOUS
62
7
10
  0.12350000
20
 -0.10800000
30
  0.00000000
11
  0.12350000
21
 -0.10800000
31
  0.00000000
0
LINE
8
DC
6
CONTINUOUS
62
7
10
  0.12328206
20
 -0.10795000
30
  0.00000000
11
  0.12371794
21
 -0.10795000
31
  0.00000000
0
LINE
8
DC
6
CONTINUOUS
62
7
10
  0.12320000
20
 -0.10790000
30
  0.00000000
11
  0.12380000
21
 -0.10790000
31
  0.00000000
0
LINE
8
DC
6
CONTINUOUS
62
7
10
  0.12314293
20
 -0.10785000
30
  0.00000000
11
  0.12385707
21
 -0.10785000
31
  0.00000000
0
LINE
8
DC
6
CONTINUOUS
62
7
10
  0.12310000
20
 -0.10780000
30
  0.00000000
11
  0.12390000
21
 -0.10780000
31
  0.00000000
0
LINE
8
DC
6
CONTINUOUS
62
7
10
  0.12306699
20
 -0.10775000
30
  0.00000000
11
  0.12393301
21
 -0.10775000
31
  0.00000000
0
LINE
8
DC
6
CONTINUOUS
62
7
10
  0.12304174
20
 -0.10770000
30
  0.00000000
11
  0.12395826
21
 -0.10770000
31
  0.00000000
0
LINE
8
DC
6
CONTINUOUS
62
7
10
  0.12302303
20
 -0.10765000
30
  0.00000000
11
  0.12397697
21
 -0.10765000
31
  0.00000000
0
LINE
8
DC
6
CONTINUOUS
62
7
10
  0.12301010
20
 -0.10760000
30
  0.00000000
11
  0.12398990
21
 -0.10760000
31
  0.00000000
0
LINE
8
DC
6
CONTINUOUS
62
7
10
  0.12300251
20
 -0.10755000
30
  0.00000000
11
  0.12399749
21
 -0.10755000
31
  0.00000000
0
LINE
8
DC
6
CONTINUOUS
62
7
10
  0.12300000
20
 -0.10750000
30
  0.00000000
11
  0.12400000
21
 -0.10750000
31
  0.00000000
0
LINE
8
DC
6
CONTINUOUS
62
7
10
  0.12300251
20
 -0.10745000
30
  0.00000000
11
  0.12399749
21
 -0.10745000
31
  0.00000000
0
LINE
8
DC
6
CONTINUOUS
62
7
10
  0.12301010
20
 -0.10740000
30
  0.00000000
11
  0.12398990
21
 -0.10740000
31
  0.00000000
0
LINE
8
DC
6
CONTINUOUS
62
7
10
  0.12302303
20
 -0.10735000
30
  0.00000000
11
  0.12397697
21
 -0.10735000
31
  0.00000000
0
LINE
8
DC
6
CONTINUOUS
62
7
10
  0.12304174
20
 -0.10730000
30
  0.00000000
11
  0.12395826
21
 -0.10730000
31
  0.00000000
0
LINE
8
DC
6
CONTINUOUS
62
7
10
  0.12306699
20
 -0.10725000
30
  0.00000000
11
  0.12393301
21
 -0.10725000
31
  0.00000000
0
LINE
8
DC
6
CONTINUOUS
62
7
10
  0.12310000
20
 -0.10720000
30
  0.00000000
11
  0.12390000
21
 -0.10720000
31
  0.00000000
0
LINE
8
DC
6
CONTINUOUS
62
7
10
  0.12314293
20
 -0.10715000
30
  0.00000000
11
  0.12385707
21
 -0.10715000
31
  0.00000000
0
LINE
8
DC
6
CONTINUOUS
62
7
10
  0.12320000
20
 -0.10710000
30
  0.00000000
11
  0.12380000
21
 -0.10710000
31
  0.00000000
0
LINE
8
DC
6
CONTINUOUS
62
7
10
  0.12328206
20
 -0.10705000
30
  0.00000000
11
  0.12371794
21
 -0.10705000
31
  0.00000000
0
CIRCLE
8
DC
6
CONTINUOUS
62
7
10
  0.12350000
20
 -0.10750000
30
  0.00000000
40
  0.00050000
0
LINE
8
DC
6
CONTINUOUS
62
7
10
  0.12510000
20
 -0.10800000
30
  0.00000000
11
  0.12510000
21
 -0.10800000
31
  0.00000000
0
LINE
8
DC
6
CONTINUOUS
62
7
10
  0.12488206
20
 -0.10795000
30
  0.00000000
11
  0.12531794
21
 -0.10795000
31
  0.00000000
0
LINE
8
DC
6
CONTINUOUS
62
7
10
  0.12480000
20
 -0.10790000
30
  0.00000000
11
  0.12540000
21
 -0.10790000
31
  0.00000000
0
LINE
8
DC
6
CONTINUOUS
62
7
10
  0.12474293
20
 -0.10785000
30
  0.00000000
11
  0.12545707
21
 -0.10785000
31
  0.00000000
0
LINE
8
DC
6
CONTINUOUS
62
7
10
  0.12470000
20
 -0.10780000
30
  0.00000000
11
  0.12550000
21
 -0.10780000
31
  0.00000000
0
LINE
8
DC
6
CONTINUOUS
62
7
10
  0.12466699
20
 -0.10775000
30
  0.00000000
11
  0.12553301
21
 -0.10775000
31
  0.00000000
0
LINE
8
DC
6
CONTINUOUS
62
7
10
  0.12464174
20
 -0.10770000
30
  0.00000000
11
  0.12555826
21
 -0.10770000
31
  0.00000000
0
LINE
8
DC
6
CONTINUOUS
62
7
10
  0.12462303
20
 -0.10765000
30
  0.00000000
11
  0.12557697
21
 -0.10765000
31
  0.00000000
0
LINE
8
DC
6
CONTINUOUS
62
7
10
  0.12461010
20
 -0.10760000
30
  0.00000000
11
  0.12558990
21
 -0.10760000
31
  0.00000000
0
LINE
8
DC
6
CONTINUOUS
62
7
10
  0.12460251
20
 -0.10755000
30
  0.00000000
11
  0.12559749
21
 -0.10755000
31
  0.00000000
0
LINE
8
DC
6
CONTINUOUS
62
7
10
  0.12460000
20
 -0.10750000
30
  0.00000000
11
  0.12560000
21
 -0.10750000
31
  0.00000000
0
LINE
8
DC
6
CONTINUOUS
62
7
10
  0.12460251
20
 -0.10745000
30
  0.00000000
11
  0.12559749
21
 -0.10745000
31
  0.00000000
0
LINE
8
DC
6
CONTINUOUS
62
7
10
  0.12461010
20
 -0.10740000
30
  0.00000000
11
  0.12558990
21
 -0.10740000
31
  0.00000000
0
LINE
8
DC
6
CONTINUOUS
62
7
10
  0.12462303
20
 -0.10735000
30
  0.00000000
11
  0.12557697
21
 -0.10735000
31
  0.00000000
0
LINE
8
DC
6
CONTINUOUS
62
7
10
  0.12464174
20
 -0.10730000
30
  0.00000000
11
  0.12555826
21
 -0.10730000
31
  0.00000000
0
LINE
8
DC
6
CONTINUOUS
62
7
10
  0.12466699
20
 -0.10725000
30
  0.00000000
11
  0.12553301
21
 -0.10725000
31
  0.00000000
0
LINE
8
DC
6
CONTINUOUS
62
7
10
  0.12470000
20
 -0.10720000
30
  0.00000000
11
  0.12550000
21
 -0.10720000
31
  0.00000000
0
LINE
8
DC
6
CONTINUOUS
62
7
10
  0.12474293
20
 -0.10715000
30
  0.00000000
11
  0.12545707
21
 -0.10715000
31
  0.00000000
0
LINE
8
DC
6
CONTINUOUS
62
7
10
  0.12480000
20
 -0.10710000
30
  0.00000000
11
  0.12540000
21
 -0.10710000
31
  0.00000000
0
LINE
8
DC
6
CONTINUOUS
62
7
10
  0.12488206
20
 -0.10705000
30
  0.00000000
11
  0.12531794
21
 -0.10705000
31
  0.00000000
0
CIRCLE
8
DC
6
CONTINUOUS
62
7
10
  0.12510000
20
 -0.10750000
30
  0.00000000
40
  0.00050000
0
LINE
8
DC
6
CONTINUOUS
62
7
10
  0.12290000
20
 -0.10800000
30
  0.00000000
11
  0.12590000
21
 -0.10800000
31
  0.00000000
0
LINE
8
DC
6
CONTINUOUS
62
7
10
  0.12210000
20
 -0.10990000
30
  0.00000000
11
  0.12210000
21
 -0.10990000
31
  0.00000000
0
LINE
8
DC
6
CONTINUOUS
62
7
10
  0.12196771
20
 -0.10985000
30
  0.00000000
11
  0.12223229
21
 -0.10985000
31
  0.00000000
0
LINE
8
DC
6
CONTINUOUS
62
7
10
  0.12192679
20
 -0.10980000
30
  0.00000000
11
  0.12227321
21
 -0.10980000
31
  0.00000000
0
LINE
8
DC
6
CONTINUOUS
62
7
10
  0.12190635
20
 -0.10975000
30
  0.00000000
11
  0.12229365
21
 -0.10975000
31
  0.00000000
0
LINE
8
DC
6
CONTINUOUS
62
7
10
  0.12190000
20
 -0.10970000
30
  0.00000000
11
  0.12230000
21
 -0.10970000
31
  0.00000000
0
LINE
8
DC
6
CONTINUOUS
62
7
10
  0.12190635
20
 -0.10965000
30
  0.00000000
11
  0.12229365
21
 -0.10965000
31
  0.00000000
0
LINE
8
DC
6
CONTINUOUS
62
7
10
  0.12192679
20
 -0.10960000
30
  0.00000000
11
  0.12227321
21
 -0.10960000
31
  0.00000000
0
LINE
8
DC
6
CONTINUOUS
62
7
10
  0.12196771
20
 -0.10955000
30
  0.00000000
11
  0.12223229
21
 -0.10955000
31
  0.00000000
0
CIRCLE
8
DC
6
CONTINUOUS
62
7
10
  0.12210000
20
 -0.10970000
30
  0.00000000
40
  0.00020000
0
LINE
8
DC
6
CONTINUOUS
62
7
10
  0.12310000
20
 -0.10990000
30
  0.00000000
11
  0.12310000
21
 -0.10990000
31
  0.00000000
0
LINE
8
DC
6
CONTINUOUS
62
7
10
  0.12296771
20
 -0.10985000
30
  0.00000000
11
  0.12323229
21
 -0.10985000
31
  0.00000000
0
LINE
8
DC
6
CONTINUOUS
62
7
10
  0.12292679
20
 -0.10980000
30
  0.00000000
11
  0.12327321
21
 -0.10980000
31
  0.00000000
0
LINE
8
DC
6
CONTINUOUS
62
7
10
  0.12290635
20
 -0.10975000
30
  0.00000000
11
  0.12329365
21
 -0.10975000
31
  0.00000000
0
LINE
8
DC
6
CONTINUOUS
62
7
10
  0.12290000
20
 -0.10970000
30
  0.00000000
11
  0.12330000
21
 -0.10970000
31
  0.00000000
0
LINE
8
DC
6
CONTINUOUS
62
7
10
  0.12290635
20
 -0.10965000
30
  0.00000000
11
  0.12329365
21
 -0.10965000
31
  0.00000000
0
LINE
8
DC
6
CONTINUOUS
62
7
10
  0.12292679
20
 -0.10960000
30
  0.00000000
11
  0.12327321
21
 -0.10960000
31
  0.00000000
0
LINE
8
DC
6
CONTINUOUS
62
7
10
  0.12296771
20
 -0.10955000
30
  0.00000000
11
  0.12323229
21
 -0.10955000
31
  0.00000000
0
CIRCLE
8
DC
6
CONTINUOUS
62
7
10
  0.12310000
20
 -0.10970000
30
  0.00000000
40
  0.00020000
0
LINE
8
DC
6
CONTINUOUS
62
7
10
  0.12410000
20
 -0.10990000
30
  0.00000000
11
  0.12410000
21
 -0.10990000
31
  0.00000000
0
LINE
8
DC
6
CONTINUOUS
62
7
10
  0.12396771
20
 -0.10985000
30
  0.00000000
11
  0.12423229
21
 -0.10985000
31
  0.00000000
0
LINE
8
DC
6
CONTINUOUS
62
7
10
  0.12392679
20
 -0.10980000
30
  0.00000000
11
  0.12427321
21
 -0.10980000
31
  0.00000000
0
LINE
8
DC
6
CONTINUOUS
62
7
10
  0.12390635
20
 -0.10975000
30
  0.00000000
11
  0.12429365
21
 -0.10975000
31
  0.00000000
0
LINE
8
DC
6
CONTINUOUS
62
7
10
  0.12390000
20
 -0.10970000
30
  0.00000000
11
  0.12430000
21
 -0.10970000
31
  0.00000000
0
LINE
8
DC
6
CONTINUOUS
62
7
10
  0.12390635
20
 -0.10965000
30
  0.00000000
11
  0.12429365
21
 -0.10965000
31
  0.00000000
0
LINE
8
DC
6
CONTINUOUS
62
7
10
  0.12392679
20
 -0.10960000
30
  0.00000000
11
  0.12427321
21
 -0.10960000
31
  0.00000000
0
LINE
8
DC
6
CONTINUOUS
62
7
10
  0.12396771
20
 -0.10955000
30
  0.00000000
11
  0.12423229
21
 -0.10955000
31
  0.00000000
0
CIRCLE
8
DC
6
CONTINUOUS
62
7
10
  0.12410000
20
 -0.10970000
30
  0.00000000
40
  0.00020000
0
LINE
8
DC
6
CONTINUOUS
62
7
10
  0.12510000
20
 -0.10990000
30
  0.00000000
11
  0.12510000
21
 -0.10990000
31
  0.00000000
0
LINE
8
DC
6
CONTINUOUS
62
7
10
  0.12496771
20
 -0.10985000
30
  0.00000000
11
  0.12523229
21
 -0.10985000
31
  0.00000000
0
LINE
8
DC
6
CONTINUOUS
62
7
10
  0.12492679
20
 -0.10980000
30
  0.00000000
11
  0.12527321
21
 -0.10980000
31
  0.00000000
0
LINE
8
DC
6
CONTINUOUS
62
7
10
  0.12490635
20
 -0.10975000
30
  0.00000000
11
  0.12529365
21
 -0.10975000
31
  0.00000000
0
LINE
8
DC
6
CONTINUOUS
62
7
10
  0.12490000
20
 -0.10970000
30
  0.00000000
11
  0.12530000
21
 -0.10970000
31
  0.00000000
0
LINE
8
DC
6
CONTINUOUS
62
7
10
  0.12490635
20
 -0.10965000
30
  0.00000000
11
  0.12529365
21
 -0.10965000
31
  0.00000000
0
LINE
8
DC
6
CONTINUOUS
62
7
10
  0.12492679
20
 -0.10960000
30
  0.00000000
11
  0.12527321
21
 -0.10960000
31
  0.00000000
0
LINE
8
DC
6
CONTINUOUS
62
7
10
  0.12496771
20
 -0.10955000
30
  0.00000000
11
  0.12523229
21
 -0.10955000
31
  0.00000000
0
CIRCLE
8
DC
6
CONTINUOUS
62
7
10
  0.12510000
20
 -0.10970000
30
  0.00000000
40
  0.00020000
0
LINE
8
DC
6
CONTINUOUS
62
7
10
  0.12610000
20
 -0.10990000
30
  0.00000000
11
  0.12610000
21
 -0.10990000
31
  0.00000000
0
LINE
8
DC
6
CONTINUOUS
62
7
10
  0.12596771
20
 -0.10985000
30
  0.00000000
11
  0.12623229
21
 -0.10985000
31
  0.00000000
0
LINE
8
DC
6
CONTINUOUS
62
7
10
  0.12592679
20
 -0.10980000
30
  0.00000000
11
  0.12627321
21
 -0.10980000
31
  0.00000000
0
LINE
8
DC
6
CONTINUOUS
62
7
10
  0.12590635
20
 -0.10975000
30
  0.00000000
11
  0.12629365
21
 -0.10975000
31
  0.00000000
0
LINE
8
DC
6
CONTINUOUS
62
7
10
  0.12590000
20
 -0.10970000
30
  0.00000000
11
  0.12630000
21
 -0.10970000
31
  0.00000000
0
LINE
8
DC
6
CONTINUOUS
62
7
10
  0.12590635
20
 -0.10965000
30
  0.00000000
11
  0.12629365
21
 -0.10965000
31
  0.00000000
0
LINE
8
DC
6
CONTINUOUS
62
7
10
  0.12592679
20
 -0.10960000
30
  0.00000000
11
  0.12627321
21
 -0.10960000
31
  0.00000000
0
LINE
8
DC
6
CONTINUOUS
62
7
10
  0.12596771
20
 -0.10955000
30
  0.00000000
11
  0.12623229
21
 -0.10955000
31
  0.00000000
0
CIRCLE
8
DC
6
CONTINUOUS
62
7
10
  0.12610000
20
 -0.10970000
30
  0.00000000
40
  0.00020000
0
LINE
8
DC
6
CONTINUOUS
62
7
10
  0.12210000
20
 -0.11210000
30
  0.00000000
11
  0.12210000
21
 -0.11210000
31
  0.00000000
0
LINE
8
DC
6
CONTINUOUS
62
7
10
  0.12196771
20
 -0.11205000
30
  0.00000000
11
  0.12223229
21
 -0.11205000
31
  0.00000000
0
LINE
8
DC
6
CONTINUOUS
62
7
10
  0.12192679
20
 -0.11200000
30
  0.00000000
11
  0.12227321
21
 -0.11200000
31
  0.00000000
0
LINE
8
DC
6
CONTINUOUS
62
7
10
  0.12190635
20
 -0.11195000
30
  0.00000000
11
  0.12229365
21
 -0.11195000
31
  0.00000000
0
LINE
8
DC
6
CONTINUOUS
62
7
10
  0.12190000
20
 -0.11190000
30
  0.00000000
11
  0.12230000
21
 -0.11190000
31
  0.00000000
0
LINE
8
DC
6
CONTINUOUS
62
7
10
  0.12190635
20
 -0.11185000
30
  0.00000000
11
  0.12229365
21
 -0.11185000
31
  0.00000000
0
LINE
8
DC
6
CONTINUOUS
62
7
10
  0.12192679
20
 -0.11180000
30
  0.00000000
11
  0.12227321
21
 -0.11180000
31
  0.00000000
0
LINE
8
DC
6
CONTINUOUS
62
7
10
  0.12196771
20
 -0.11175000
30
  0.00000000
11
  0.12223229
21
 -0.11175000
31
  0.00000000
0
CIRCLE
8
DC
6
CONTINUOUS
62
7
10
  0.12210000
20
 -0.11190000
30
  0.00000000
40
  0.00020000
0
LINE
8
DC
6
CONTINUOUS
62
7
10
  0.12310000
20
 -0.11210000
30
  0.00000000
11
  0.12310000
21
 -0.11210000
31
  0.00000000
0
LINE
8
DC
6
CONTINUOUS
62
7
10
  0.12296771
20
 -0.11205000
30
  0.00000000
11
  0.12323229
21
 -0.11205000
31
  0.00000000
0
LINE
8
DC
6
CONTINUOUS
62
7
10
  0.12292679
20
 -0.11200000
30
  0.00000000
11
  0.12327321
21
 -0.11200000
31
  0.00000000
0
LINE
8
DC
6
CONTINUOUS
62
7
10
  0.12290635
20
 -0.11195000
30
  0.00000000
11
  0.12329365
21
 -0.11195000
31
  0.00000000
0
LINE
8
DC
6
CONTINUOUS
62
7
10
  0.12290000
20
 -0.11190000
30
  0.00000000
11
  0.12330000
21
 -0.11190000
31
  0.00000000
0
LINE
8
DC
6
CONTINUOUS
62
7
10
  0.12290635
20
 -0.11185000
30
  0.00000000
11
  0.12329365
21
 -0.11185000
31
  0.00000000
0
LINE
8
DC
6
CONTINUOUS
62
7
10
  0.12292679
20
 -0.11180000
30
  0.00000000
11
  0.12327321
21
 -0.11180000
31
  0.00000000
0
LINE
8
DC
6
CONTINUOUS
62
7
10
  0.12296771
20
 -0.11175000
30
  0.00000000
11
  0.12323229
21
 -0.11175000
31
  0.00000000
0
CIRCLE
8
DC
6
CONTINUOUS
62
7
10
  0.12310000
20
 -0.11190000
30
  0.00000000
40
  0.00020000
0
LINE
8
DC
6
CONTINUOUS
62
7
10
  0.12410000
20
 -0.11210000
30
  0.00000000
11
  0.12410000
21
 -0.11210000
31
  0.00000000
0
LINE
8
DC
6
CONTINUOUS
62
7
10
  0.12396771
20
 -0.11205000
30
  0.00000000
11
  0.12423229
21
 -0.11205000
31
  0.00000000
0
LINE
8
DC
6
CONTINUOUS
62
7
10
  0.12392679
20
 -0.11200000
30
  0.00000000
11
  0.12427321
21
 -0.11200000
31
  0.00000000
0
LINE
8
DC
6
CONTINUOUS
62
7
10
  0.12390635
20
 -0.11195000
30
  0.00000000
11
  0.12429365
21
 -0.11195000
31
  0.00000000
0
LINE
8
DC
6
CONTINUOUS
62
7
10
  0.12390000
20
 -0.11190000
30
  0.00000000
11
  0.12430000
21
 -0.11190000
31
  0.00000000
0
LINE
8
DC
6
CONTINUOUS
62
7
10
  0.12390635
20
 -0.11185000
30
  0.00000000
11
  0.12429365
21
 -0.11185000
31
  0.00000000
0
LINE
8
DC
6
CONTINUOUS
62
7
10
  0.12392679
20
 -0.11180000
30
  0.00000000
11
  0.12427321
21
 -0.11180000
31
  0.00000000
0
LINE
8
DC
6
CONTINUOUS
62
7
10
  0.12396771
20
 -0.11175000
30
  0.00000000
11
  0.12423229
21
 -0.11175000
31
  0.00000000
0
CIRCLE
8
DC
6
CONTINUOUS
62
7
10
  0.12410000
20
 -0.11190000
30
  0.00000000
40
  0.00020000
0
LINE
8
DC
6
CONTINUOUS
62
7
10
  0.12510000
20
 -0.11210000
30
  0.00000000
11
  0.12510000
21
 -0.11210000
31
  0.00000000
0
LINE
8
DC
6
CONTINUOUS
62
7
10
  0.12496771
20
 -0.11205000
30
  0.00000000
11
  0.12523229
21
 -0.11205000
31
  0.00000000
0
LINE
8
DC
6
CONTINUOUS
62
7
10
  0.12492679
20
 -0.11200000
30
  0.00000000
11
  0.12527321
21
 -0.11200000
31
  0.00000000
0
LINE
8
DC
6
CONTINUOUS
62
7
10
  0.12490635
20
 -0.11195000
30
  0.00000000
11
  0.12529365
21
 -0.11195000
31
  0.00000000
0
LINE
8
DC
6
CONTINUOUS
62
7
10
  0.12490000
20
 -0.11190000
30
  0.00000000
11
  0.12530000
21
 -0.11190000
31
  0.00000000
0
LINE
8
DC
6
CONTINUOUS
62
7
10
  0.12490635
20
 -0.11185000
30
  0.00000000
11
  0.12529365
21
 -0.11185000
31
  0.00000000
0
LINE
8
DC
6
CONTINUOUS
62
7
10
  0.12492679
20
 -0.11180000
30
  0.00000000
11
  0.12527321
21
 -0.11180000
31
  0.00000000
0
LINE
8
DC
6
CONTINUOUS
62
7
10
  0.12496771
20
 -0.11175000
30
  0.00000000
11
  0.12523229
21
 -0.11175000
31
  0.00000000
0
CIRCLE
8
DC
6
CONTINUOUS
62
7
10
  0.12510000
20
 -0.11190000
30
  0.00000000
40
  0.00020000
0
LINE
8
DC
6
CONTINUOUS
62
7
10
  0.12610000
20
 -0.11210000
30
  0.00000000
11
  0.12610000
21
 -0.11210000
31
  0.00000000
0
LINE
8
DC
6
CONTINUOUS
62
7
10
  0.12596771
20
 -0.11205000
30
  0.00000000
11
  0.12623229
21
 -0.11205000
31
  0.00000000
0
LINE
8
DC
6
CONTINUOUS
62
7
10
  0.12592679
20
 -0.11200000
30
  0.00000000
11
  0.12627321
21
 -0.11200000
31
  0.00000000
0
LINE
8
DC
6
CONTINUOUS
62
7
10
  0.12590635
20
 -0.11195000
30
  0.00000000
11
  0.12629365
21
 -0.11195000
31
  0.00000000
0
LINE
8
DC
6
CONTINUOUS
62
7
10
  0.12590000
20
 -0.11190000
30
  0.00000000
11
  0.12630000
21
 -0.11190000
31
  0.00000000
0
LINE
8
DC
6
CONTINUOUS
62
7
10
  0.12590635
20
 -0.11185000
30
  0.00000000
11
  0.12629365
21
 -0.11185000
31
  0.00000000
0
LINE
8
DC
6
CONTINUOUS
62
7
10
  0.12592679
20
 -0.11180000
30
  0.00000000
11
  0.12627321
21
 -0.11180000
31
  0.00000000
0
LINE
8
DC
6
CONTINUOUS
62
7
10
  0.12596771
20
 -0.11175000
30
  0.00000000
11
  0.12623229
21
 -0.11175000
31
  0.00000000
0
CIRCLE
8
DC
6
CONTINUOUS
62
7
10
  0.12610000
20
 -0.11190000
30
  0.00000000
40
  0.00020000
0
LINE
8
DC
6
CONTINUOUS
62
7
10
  0.12260000
20
 -0.11100000
30
  0.00000000
11
  0.12260000
21
 -0.11100000
31
  0.00000000
0
LINE
8
DC
6
CONTINUOUS
62
7
10
  0.12246771
20
 -0.11095000
30
  0.00000000
11
  0.12273229
21
 -0.11095000
31
  0.00000000
0
LINE
8
DC
6
CONTINUOUS
62
7
10
  0.12242679
20
 -0.11090000
30
  0.00000000
11
  0.12277321
21
 -0.11090000
31
  0.00000000
0
LINE
8
DC
6
CONTINUOUS
62
7
10
  0.12240635
20
 -0.11085000
30
  0.00000000
11
  0.12279365
21
 -0.11085000
31
  0.00000000
0
LINE
8
DC
6
CONTINUOUS
62
7
10
  0.12240000
20
 -0.11080000
30
  0.00000000
11
  0.12280000
21
 -0.11080000
31
  0.00000000
0
LINE
8
DC
6
CONTINUOUS
62
7
10
  0.12240635
20
 -0.11075000
30
  0.00000000
11
  0.12279365
21
 -0.11075000
31
  0.00000000
0
LINE
8
DC
6
CONTINUOUS
62
7
10
  0.12242679
20
 -0.11070000
30
  0.00000000
11
  0.12277321
21
 -0.11070000
31
  0.00000000
0
LINE
8
DC
6
CONTINUOUS
62
7
10
  0.12246771
20
 -0.11065000
30
  0.00000000
11
  0.12273229
21
 -0.11065000
31
  0.00000000
0
CIRCLE
8
DC
6
CONTINUOUS
62
7
10
  0.12260000
20
 -0.11080000
30
  0.00000000
40
  0.00020000
0
LINE
8
DC
6
CONTINUOUS
62
7
10
  0.12360000
20
 -0.11100000
30
  0.00000000
11
  0.12360000
21
 -0.11100000
31
  0.00000000
0
LINE
8
DC
6
CONTINUOUS
62
7
10
  0.12346771
20
 -0.11095000
30
  0.00000000
11
  0.12373229
21
 -0.11095000
31
  0.00000000
0
LINE
8
DC
6
CONTINUOUS
62
7
10
  0.12342679
20
 -0.11090000
30
  0.00000000
11
  0.12377321
21
 -0.11090000
31
  0.00000000
0
LINE
8
DC
6
CONTINUOUS
62
7
10
  0.12340635
20
 -0.11085000
30
  0.00000000
11
  0.12379365
21
 -0.11085000
31
  0.00000000
0
LINE
8
DC
6
CONTINUOUS
62
7
10
  0.12340000
20
 -0.11080000
30
  0.00000000
11
  0.12380000
21
 -0.11080000
31
  0.00000000
0
LINE
8
DC
6
CONTINUOUS
62
7
10
  0.12340635
20
 -0.11075000
30
  0.00000000
11
  0.12379365
21
 -0.11075000
31
  0.00000000
0
LINE
8
DC
6
CONTINUOUS
62
7
10
  0.12342679
20
 -0.11070000
30
  0.00000000
11
  0.12377321
21
 -0.11070000
31
  0.00000000
0
LINE
8
DC
6
CONTINUOUS
62
7
10
  0.12346771
20
 -0.11065000
30
  0.00000000
11
  0.12373229
21
 -0.11065000
31
  0.00000000
0
CIRCLE
8
DC
6
CONTINUOUS
62
7
10
  0.12360000
20
 -0.11080000
30
  0.00000000
40
  0.00020000
0
LINE
8
DC
6
CONTINUOUS
62
7
10
  0.12460000
20
 -0.11100000
30
  0.00000000
11
  0.12460000
21
 -0.11100000
31
  0.00000000
0
LINE
8
DC
6
CONTINUOUS
62
7
10
  0.12446771
20
 -0.11095000
30
  0.00000000
11
  0.12473229
21
 -0.11095000
31
  0.00000000
0
LINE
8
DC
6
CONTINUOUS
62
7
10
  0.12442679
20
 -0.11090000
30
  0.00000000
11
  0.12477321
21
 -0.11090000
31
  0.00000000
0
LINE
8
DC
6
CONTINUOUS
62
7
10
  0.12440635
20
 -0.11085000
30
  0.00000000
11
  0.12479365
21
 -0.11085000
31
  0.00000000
0
LINE
8
DC
6
CONTINUOUS
62
7
10
  0.12440000
20
 -0.11080000
30
  0.00000000
11
  0.12480000
21
 -0.11080000
31
  0.00000000
0
LINE
8
DC
6
CONTINUOUS
62
7
10
  0.12440635
20
 -0.11075000
30
  0.00000000
11
  0.12479365
21
 -0.11075000
31
  0.00000000
0
LINE
8
DC
6
CONTINUOUS
62
7
10
  0.12442679
20
 -0.11070000
30
  0.00000000
11
  0.12477321
21
 -0.11070000
31
  0.00000000
0
LINE
8
DC
6
CONTINUOUS
62
7
10
  0.12446771
20
 -0.11065000
30
  0.00000000
11
  0.12473229
21
 -0.11065000
31
  0.00000000
0
CIRCLE
8
DC
6
CONTINUOUS
62
7
10
  0.12460000
20
 -0.11080000
30
  0.00000000
40
  0.00020000
0
LINE
8
DC
6
CONTINUOUS
62
7
10
  0.12560000
20
 -0.11100000
30
  0.00000000
11
  0.12560000
21
 -0.11100000
31
  0.00000000
0
LINE
8
DC
6
CONTINUOUS
62
7
10
  0.12546771
20
 -0.11095000
30
  0.00000000
11
  0.12573229
21
 -0.11095000
31
  0.00000000
0
LINE
8
DC
6
CONTINUOUS
62
7
10
  0.12542679
20
 -0.11090000
30
  0.00000000
11
  0.12577321
21
 -0.11090000
31
  0.00000000
0
LINE
8
DC
6
CONTINUOUS
62
7
10
  0.12540635
20
 -0.11085000
30
  0.00000000
11
  0.12579365
21
 -0.11085000
31
  0.00000000
0
LINE
8
DC
6
CONTINUOUS
62
7
10
  0.12540000
20
 -0.11080000
30
  0.00000000
11
  0.12580000
21
 -0.11080000
31
  0.00000000
0
LINE
8
DC
6
CONTINUOUS
62
7
10
  0.12540635
20
 -0.11075000
30
  0.00000000
11
  0.12579365
21
 -0.11075000
31
  0.00000000
0
LINE
8
DC
6
CONTINUOUS
62
7
10
  0.12542679
20
 -0.11070000
30
  0.00000000
11
  0.12577321
21
 -0.11070000
31
  0.00000000
0
LINE
8
DC
6
CONTINUOUS
62
7
10
  0.12546771
20
 -0.11065000
30
  0.00000000
11
  0.12573229
21
 -0.11065000
31
  0.00000000
0
CIRCLE
8
DC
6
CONTINUOUS
62
7
10
  0.12560000
20
 -0.11080000
30
  0.00000000
40
  0.00020000
0
LINE
8
DC
6
CONTINUOUS
62
7
10
  0.12660000
20
 -0.11100000
30
  0.00000000
11
  0.12660000
21
 -0.11100000
31
  0.00000000
0
LINE
8
DC
6
CONTINUOUS
62
7
10
  0.12646771
20
 -0.11095000
30
  0.00000000
11
  0.12673229
21
 -0.11095000
31
  0.00000000
0
LINE
8
DC
6
CONTINUOUS
62
7
10
  0.12642679
20
 -0.11090000
30
  0.00000000
11
  0.12677321
21
 -0.11090000
31
  0.00000000
0
LINE
8
DC
6
CONTINUOUS
62
7
10
  0.12640635
20
 -0.11085000
30
  0.00000000
11
  0.12679365
21
 -0.11085000
31
  0.00000000
0
LINE
8
DC
6
CONTINUOUS
62
7
10
  0.12640000
20
 -0.11080000
30
  0.00000000
11
  0.12680000
21
 -0.11080000
31
  0.00000000
0
LINE
8
DC
6
CONTINUOUS
62
7
10
  0.12640635
20
 -0.11075000
30
  0.00000000
11
  0.12679365
21
 -0.11075000
31
  0.00000000
0
LINE
8
DC
6
CONTINUOUS
62
7
10
  0.12642679
20
 -0.11070000
30
  0.00000000
11
  0.12677321
21
 -0.11070000
31
  0.00000000
0
LINE
8
DC
6
CONTINUOUS
62
7
10
  0.12646771
20
 -0.11065000
30
  0.00000000
11
  0.12673229
21
 -0.11065000
31
  0.00000000
0
CIRCLE
8
DC
6
CONTINUOUS
62
7
10
  0.12660000
20
 -0.11080000
30
  0.00000000
40
  0.00020000
0
LINE
8
DC
6
CONTINUOUS
62
7
10
  0.12190000
20
 -0.11500000
30
  0.00000000
11
  0.12440000
21
 -0.11250000
31
  0.00000000
0
LINE
8
DC
6
CONTINUOUS
62
7
10
  0.12440000
20
 -0.11750000
30
  0.00000000
11
  0.12690000
21
 -0.11500000
31
  0.00000000
0
LINE
8
DC
6
CONTINUOUS
62
7
10
  0.12190000
20
 -0.11750000
30
  0.00000000
11
  0.12690000
21
 -0.11250000
31
  0.00000000
0
CIRCLE
8
DC
6
CONTINUOUS
62
7
10
  0.12390000
20
 -0.11420000
30
  0.00000000
40
  0.00060000
0
CIRCLE
8
DC
6
CONTINUOUS
62
7
10
  0.12620000
20
 -0.11420000
30
  0.00000000
40
  0.00060000
0
CIRCLE
8
DC
6
CONTINUOUS
62
7
10
  0.12390000
20
 -0.11660000
30
  0.00000000
40
  0.00060000
0
CIRCLE
8
DC
6
CONTINUOUS
62
7
10
  0.12620000
20
 -0.11660000
30
  0.00000000
40
  0.00060000
0
LINE
8
DC
6
CONTINUOUS
62
7
10
  0.12220000
20
 -0.11530000
30
  0.00000000
11
  0.12270000
21
 -0.11480000
31
  0.00000000
0
LINE
8
DC
6
CONTINUOUS
62
7
10
  0.12240000
20
 -0.11500000
30
  0.00000000
11
  0.12320000
21
 -0.11580000
31
  0.00000000
0
LINE
8
DC
6
CONTINUOUS
62
7
10
  0.12290000
20
 -0.11600000
30
  0.00000000
11
  0.12340000
21
 -0.11550000
31
  0.00000000
0
LINE
8
DC
6
CONTINUOUS
62
7
10
  0.12440000
20
 -0.11310000
30
  0.00000000
11
  0.12490000
21
 -0.11260000
31
  0.00000000
0
LINE
8
DC
6
CONTINUOUS
62
7
10
  0.12460000
20
 -0.11280000
30
  0.00000000
11
  0.12540000
21
 -0.11360000
31
  0.00000000
0
LINE
8
DC
6
CONTINUOUS
62
7
10
  0.12510000
20
 -0.11380000
30
  0.00000000
11
  0.12560000
21
 -0.11330000
31
  0.00000000
0
LINE
8
DC
6
CONTINUOUS
62
7
10
  0.12450000
20
 -0.11530000
30
  0.00000000
11
  0.12500000
21
 -0.11480000
31
  0.00000000
0
LINE
8
DC
6
CONTINUOUS
62
7
10
  0.12470000
20
 -0.11500000
30
  0.00000000
11
  0.12550000
21
 -0.11580000
31
  0.00000000
0
LINE
8
DC
6
CONTINUOUS
62
7
10
  0.12520000
20
 -0.11600000
30
  0.00000000
11
  0.12570000
21
 -0.11550000
31
  0.00000000
0
LINE
8
DC
6
CONTINUOUS
62
7
10
  0.12200000
20
 -0.11300000
30
  0.00000000
11
  0.12250000
21
 -0.11250000
31
  0.00000000
0
LINE
8
DC
6
CONTINUOUS
62
7
10
  0.12220000
20
 -0.11270000
30
  0.00000000
11
  0.12300000
21
 -0.11350000
31
  0.00000000
0
LINE
8
DC
6
CONTINUOUS
62
7
10
  0.12270000
20
 -0.11370000
30
  0.00000000
11
  0.12320000
21
 -0.11320000
31
  0.00000000
0
LINE
8
DC
6
CONTINUOUS
62
7
10
  0.12240000
20
 -0.11830000
30
  0.00000000
11
  0.12540000
21
 -0.11830000
31
  0.00000000
0
LINE
8
DC
6
CONTINUOUS
62
7
10
  0.12340000
20
 -0.11990000
30
  0.00000000
11
  0.12640000
21
 -0.11990000
31
  0.00000000
0
LINE
8
DC
6
CONTINUOUS
62
7
10
  0.12350000
20
 -0.12290000
30
  0.00000000
11
  0.12350000
21
 -0.12290000
31
  0.00000000
0
LINE
8
DC
6
CONTINUOUS
62
7
10
  0.12328206
20
 -0.12285000
30
  0.00000000
11
  0.12371794
21
 -0.12285000
31
  0.00000000
0
LINE
8
DC
6
CONTINUOUS
62
7
10
  0.12320000
20
 -0.12280000
30
  0.00000000
11
  0.12380000
21
 -0.12280000
31
  0.00000000
0
LINE
8
DC
6
CONTINUOUS
62
7
10
  0.12314293
20
 -0.12275000
30
  0.00000000
11
  0.12385707
21
 -0.12275000
31
  0.00000000
0
LINE
8
DC
6
CONTINUOUS
62
7
10
  0.12310000
20
 -0.12270000
30
  0.00000000
11
  0.12390000
21
 -0.12270000
31
  0.00000000
0
LINE
8
DC
6
CONTINUOUS
62
7
10
  0.12306699
20
 -0.12265000
30
  0.00000000
11
  0.12393301
21
 -0.12265000
31
  0.00000000
0
LINE
8
DC
6
CONTINUOUS
62
7
10
  0.12304174
20
 -0.12260000
30
  0.00000000
11
  0.12395826
21
 -0.12260000
31
  0.00000000
0
LINE
8
DC
6
CONTINUOUS
62
7
10
  0.12302303
20
 -0.12255000
30
  0.00000000
11
  0.12397697
21
 -0.12255000
31
  0.00000000
0
LINE
8
DC
6
CONTINUOUS
62
7
10
  0.12301010
20
 -0.12250000
30
  0.00000000
11
  0.12398990
21
 -0.12250000
31
  0.00000000
0
LINE
8
DC
6
CONTINUOUS
62
7
10
  0.12300251
20
 -0.12245000
30
  0.00000000
11
  0.12399749
21
 -0.12245000
31
  0.00000000
0
LINE
8
DC
6
CONTINUOUS
62
7
10
  0.12300000
20
 -0.12240000
30
  0.00000000
11
  0.12400000
21
 -0.12240000
31
  0.00000000
0
LINE
8
DC
6
CONTINUOUS
62
7
10
  0.12300251
20
 -0.12235000
30
  0.00000000
11
  0.12399749
21
 -0.12235000
31
  0.00000000
0
LINE
8
DC
6
CONTINUOUS
62
7
10
  0.12301010
20
 -0.12230000
30
  0.00000000
11
  0.12398990
21
 -0.12230000
31
  0.00000000
0
LINE
8
DC
6
CONTINUOUS
62
7
10
  0.12302303
20
 -0.12225000
30
  0.00000000
11
  0.12397697
21
 -0.12225000
31
  0.00000000
0
LINE
8
DC
6
CONTINUOUS
62
7
10
  0.12304174
20
 -0.12220000
30
  0.00000000
11
  0.12395826
21
 -0.12220000
31
  0.00000000
0
LINE
8
DC
6
CONTINUOUS
62
7
10
  0.12306699
20
 -0.12215000
30
  0.00000000
11
  0.12393301
21
 -0.12215000
31
  0.00000000
0
LINE
8
DC
6
CONTINUOUS
62
7
10
  0.12310000
20
 -0.12210000
30
  0.00000000
11
  0.12390000
21
 -0.12210000
31
  0.00000000
0
LINE
8
DC
6
CONTINUOUS
62
7
10
  0.12314293
20
 -0.12205000
30
  0.00000000
11
  0.12385707
21
 -0.12205000
31
  0.00000000
0
LINE
8
DC
6
CONTINUOUS
62
7
10
  0.12320000
20
 -0.12200000
30
  0.00000000
11
  0.12380000
21
 -0.12200000
31
  0.00000000
0
LINE
8
DC
6
CONTINUOUS
62
7
10
  0.12328206
20
 -0.12195000
30
  0.00000000
11
  0.12371794
21
 -0.12195000
31
  0.00000000
0
CIRCLE
8
DC
6
CONTINUOUS
62
7
10
  0.12350000
20
 -0.12240000
30
  0.00000000
40
  0.00050000
0
LINE
8
DC
6
CONTINUOUS
62
7
10
  0.12510000
20
 -0.12290000
30
  0.00000000
11
  0.12510000
21
 -0.12290000
31
  0.00000000
0
LINE
8
DC
6
CONTINUOUS
62
7
10
  0.12488206
20
 -0.12285000
30
  0.00000000
11
  0.12531794
21
 -0.12285000
31
  0.00000000
0
LINE
8
DC
6
CONTINUOUS
62
7
10
  0.12480000
20
 -0.12280000
30
  0.00000000
11
  0.12540000
21
 -0.12280000
31
  0.00000000
0
LINE
8
DC
6
CONTINUOUS
62
7
10
  0.12474293
20
 -0.12275000
30
  0.00000000
11
  0.12545707
21
 -0.12275000
31
  0.00000000
0
LINE
8
DC
6
CONTINUOUS
62
7
10
  0.12470000
20
 -0.12270000
30
  0.00000000
11
  0.12550000
21
 -0.12270000
31
  0.00000000
0
LINE
8
DC
6
CONTINUOUS
62
7
10
  0.12466699
20
 -0.12265000
30
  0.00000000
11
  0.12553301
21
 -0.12265000
31
  0.00000000
0
LINE
8
DC
6
CONTINUOUS
62
7
10
  0.12464174
20
 -0.12260000
30
  0.00000000
11
  0.12555826
21
 -0.12260000
31
  0.00000000
0
LINE
8
DC
6
CONTINUOUS
62
7
10
  0.12462303
20
 -0.12255000
30
  0.00000000
11
  0.12557697
21
 -0.12255000
31
  0.00000000
0
LINE
8
DC
6
CONTINUOUS
62
7
10
  0.12461010
20
 -0.12250000
30
  0.00000000
11
  0.12558990
21
 -0.12250000
31
  0.00000000
0
LINE
8
DC
6
CONTINUOUS
62
7
10
  0.12460251
20
 -0.12245000
30
  0.00000000
11
  0.12559749
21
 -0.12245000
31
  0.00000000
0
LINE
8
DC
6
CONTINUOUS
62
7
10
  0.12460000
20
 -0.12240000
30
  0.00000000
11
  0.12560000
21
 -0.12240000
31
  0.00000000
0
LINE
8
DC
6
CONTINUOUS
62
7
10
  0.12460251
20
 -0.12235000
30
  0.00000000
11
  0.12559749
21
 -0.12235000
31
  0.00000000
0
LINE
8
DC
6
CONTINUOUS
62
7
10
  0.12461010
20
 -0.12230000
30
  0.00000000
11
  0.12558990
21
 -0.12230000
31
  0.00000000
0
LINE
8
DC
6
CONTINUOUS
62
7
10
  0.12462303
20
 -0.12225000
30
  0.00000000
11
  0.12557697
21
 -0.12225000
31
  0.00000000
0
LINE
8
DC
6
CONTINUOUS
62
7
10
  0.12464174
20
 -0.12220000
30
  0.00000000
11
  0.12555826
21
 -0.12220000
31
  0.00000000
0
LINE
8
DC
6
CONTINUOUS
62
7
10
  0.12466699
20
 -0.12215000
30
  0.00000000
11
  0.12553301
21
 -0.12215000
31
  0.00000000
0
LINE
8
DC
6
CONTINUOUS
62
7
10
  0.12470000
20
 -0.12210000
30
  0.00000000
11
  0.12550000
21
 -0.12210000
31
  0.00000000
0
LINE
8
DC
6
CONTINUOUS
62
7
10
  0.12474293
20
 -0.12205000
30
  0.00000000
11
  0.12545707
21
 -0.12205000
31
  0.00000000
0
LINE
8
DC
6
CONTINUOUS
62
7
10
  0.12480000
20
 -0.12200000
30
  0.00000000
11
  0.12540000
21
 -0.12200000
31
  0.00000000
0
LINE
8
DC
6
CONTINUOUS
62
7
10
  0.12488206
20
 -0.12195000
30
  0.00000000
11
  0.12531794
21
 -0.12195000
31
  0.00000000
0
CIRCLE
8
DC
6
CONTINUOUS
62
7
10
  0.12510000
20
 -0.12240000
30
  0.00000000
40
  0.00050000
0
LINE
8
DC
6
CONTINUOUS
62
7
10
  0.12290000
20
 -0.12290000
30
  0.00000000
11
  0.12590000
21
 -0.12290000
31
  0.00000000
0
LINE
8
DC
6
CONTINUOUS
62
7
10
  0.12210000
20
 -0.12480000
30
  0.00000000
11
  0.12210000
21
 -0.12480000
31
  0.00000000
0
LINE
8
DC
6
CONTINUOUS
62
7
10
  0.12196771
20
 -0.12475000
30
  0.00000000
11
  0.12223229
21
 -0.12475000
31
  0.00000000
0
LINE
8
DC
6
CONTINUOUS
62
7
10
  0.12192679
20
 -0.12470000
30
  0.00000000
11
  0.12227321
21
 -0.12470000
31
  0.00000000
0
LINE
8
DC
6
CONTINUOUS
62
7
10
  0.12190635
20
 -0.12465000
30
  0.00000000
11
  0.12229365
21
 -0.12465000
31
  0.00000000
0
LINE
8
DC
6
CONTINUOUS
62
7
10
  0.12190000
20
 -0.12460000
30
  0.00000000
11
  0.12230000
21
 -0.12460000
31
  0.00000000
0
LINE
8
DC
6
CONTINUOUS
62
7
10
  0.12190635
20
 -0.12455000
30
  0.00000000
11
  0.12229365
21
 -0.12455000
31
  0.00000000
0
LINE
8
DC
6
CONTINUOUS
62
7
10
  0.12192679
20
 -0.12450000
30
  0.00000000
11
  0.12227321
21
 -0.12450000
31
  0.00000000
0
LINE
8
DC
6
CONTINUOUS
62
7
10
  0.12196771
20
 -0.12445000
30
  0.00000000
11
  0.12223229
21
 -0.12445000
31
  0.00000000
0
CIRCLE
8
DC
6
CONTINUOUS
62
7
10
  0.12210000
20
 -0.12460000
30
  0.00000000
40
  0.00020000
0
LINE
8
DC
6
CONTINUOUS
62
7
10
  0.12310000
20
 -0.12480000
30
  0.00000000
11
  0.12310000
21
 -0.12480000
31
  0.00000000
0
LINE
8
DC
6
CONTINUOUS
62
7
10
  0.12296771
20
 -0.12475000
30
  0.00000000
11
  0.12323229
21
 -0.12475000
31
  0.00000000
0
LINE
8
DC
6
CONTINUOUS
62
7
10
  0.12292679
20
 -0.12470000
30
  0.00000000
11
  0.12327321
21
 -0.12470000
31
  0.00000000
0
LINE
8
DC
6
CONTINUOUS
62
7
10
  0.12290635
20
 -0.12465000
30
  0.00000000
11
  0.12329365
21
 -0.12465000
31
  0.00000000
0
LINE
8
DC
6
CONTINUOUS
62
7
10
  0.12290000
20
 -0.12460000
30
  0.00000000
11
  0.12330000
21
 -0.12460000
31
  0.00000000
0
LINE
8
DC
6
CONTINUOUS
62
7
10
  0.12290635
20
 -0.12455000
30
  0.00000000
11
  0.12329365
21
 -0.12455000
31
  0.00000000
0
LINE
8
DC
6
CONTINUOUS
62
7
10
  0.12292679
20
 -0.12450000
30
  0.00000000
11
  0.12327321
21
 -0.12450000
31
  0.00000000
0
LINE
8
DC
6
CONTINUOUS
62
7
10
  0.12296771
20
 -0.12445000
30
  0.00000000
11
  0.12323229
21
 -0.12445000
31
  0.00000000
0
CIRCLE
8
DC
6
CONTINUOUS
62
7
10
  0.12310000
20
 -0.12460000
30
  0.00000000
40
  0.00020000
0
LINE
8
DC
6
CONTINUOUS
62
7
10
  0.12410000
20
 -0.12480000
30
  0.00000000
11
  0.12410000
21
 -0.12480000
31
  0.00000000
0
LINE
8
DC
6
CONTINUOUS
62
7
10
  0.12396771
20
 -0.12475000
30
  0.00000000
11
  0.12423229
21
 -0.12475000
31
  0.00000000
0
LINE
8
DC
6
CONTINUOUS
62
7
10
  0.12392679
20
 -0.12470000
30
  0.00000000
11
  0.12427321
21
 -0.12470000
31
  0.00000000
0
LINE
8
DC
6
CONTINUOUS
62
7
10
  0.12390635
20
 -0.12465000
30
  0.00000000
11
  0.12429365
21
 -0.12465000
31
  0.00000000
0
LINE
8
DC
6
CONTINUOUS
62
7
10
  0.12390000
20
 -0.12460000
30
  0.00000000
11
  0.12430000
21
 -0.12460000
31
  0.00000000
0
LINE
8
DC
6
CONTINUOUS
62
7
10
  0.12390635
20
 -0.12455000
30
  0.00000000
11
  0.12429365
21
 -0.12455000
31
  0.00000000
0
LINE
8
DC
6
CONTINUOUS
62
7
10
  0.12392679
20
 -0.12450000
30
  0.00000000
11
  0.12427321
21
 -0.12450000
31
  0.00000000
0
LINE
8
DC
6
CONTINUOUS
62
7
10
  0.12396771
20
 -0.12445000
30
  0.00000000
11
  0.12423229
21
 -0.12445000
31
  0.00000000
0
CIRCLE
8
DC
6
CONTINUOUS
62
7
10
  0.12410000
20
 -0.12460000
30
  0.00000000
40
  0.00020000
0
LINE
8
DC
6
CONTINUOUS
62
7
10
  0.12510000
20
 -0.12480000
30
  0.00000000
11
  0.12510000
21
 -0.12480000
31
  0.00000000
0
LINE
8
DC
6
CONTINUOUS
62
7
10
  0.12496771
20
 -0.12475000
30
  0.00000000
11
  0.12523229
21
 -0.12475000
31
  0.00000000
0
LINE
8
DC
6
CONTINUOUS
62
7
10
  0.12492679
20
 -0.12470000
30
  0.00000000
11
  0.12527321
21
 -0.12470000
31
  0.00000000
0
LINE
8
DC
6
CONTINUOUS
62
7
10
  0.12490635
20
 -0.12465000
30
  0.00000000
11
  0.12529365
21
 -0.12465000
31
  0.00000000
0
LINE
8
DC
6
CONTINUOUS
62
7
10
  0.12490000
20
 -0.12460000
30
  0.00000000
11
  0.12530000
21
 -0.12460000
31
  0.00000000
0
LINE
8
DC
6
CONTINUOUS
62
7
10
  0.12490635
20
 -0.12455000
30
  0.00000000
11
  0.12529365
21
 -0.12455000
31
  0.00000000
0
LINE
8
DC
6
CONTINUOUS
62
7
10
  0.12492679
20
 -0.12450000
30
  0.00000000
11
  0.12527321
21
 -0.12450000
31
  0.00000000
0
LINE
8
DC
6
CONTINUOUS
62
7
10
  0.12496771
20
 -0.12445000
30
  0.00000000
11
  0.12523229
21
 -0.12445000
31
  0.00000000
0
CIRCLE
8
DC
6
CONTINUOUS
62
7
10
  0.12510000
20
 -0.12460000
30
  0.00000000
40
  0.00020000
0
LINE
8
DC
6
CONTINUOUS
62
7
10
  0.12610000
20
 -0.12480000
30
  0.00000000
11
  0.12610000
21
 -0.12480000
31
  0.00000000
0
LINE
8
DC
6
CONTINUOUS
62
7
10
  0.12596771
20
 -0.12475000
30
  0.00000000
11
  0.12623229
21
 -0.12475000
31
  0.00000000
0
LINE
8
DC
6
CONTINUOUS
62
7
10
  0.12592679
20
 -0.12470000
30
  0.00000000
11
  0.12627321
21
 -0.12470000
31
  0.00000000
0
LINE
8
DC
6
CONTINUOUS
62
7
10
  0.12590635
20
 -0.12465000
30
  0.00000000
11
  0.12629365
21
 -0.12465000
31
  0.00000000
0
LINE
8
DC
6
CONTINUOUS
62
7
10
  0.12590000
20
 -0.12460000
30
  0.00000000
11
  0.12630000
21
 -0.12460000
31
  0.00000000
0
LINE
8
DC
6
CONTINUOUS
62
7
10
  0.12590635
20
 -0.12455000
30
  0.00000000
11
  0.12629365
21
 -0.12455000
31
  0.00000000
0
LINE
8
DC
6
CONTINUOUS
62
7
10
  0.12592679
20
 -0.12450000
30
  0.00000000
11
  0.12627321
21
 -0.12450000
31
  0.00000000
0
LINE
8
DC
6
CONTINUOUS
62
7
10
  0.12596771
20
 -0.12445000
30
  0.00000000
11
  0.12623229
21
 -0.12445000
31
  0.00000000
0
CIRCLE
8
DC
6
CONTINUOUS
62
7
10
  0.12610000
20
 -0.12460000
30
  0.00000000
40
  0.00020000
0
LINE
8
DC
6
CONTINUOUS
62
7
10
  0.12210000
20
 -0.12700000
30
  0.00000000
11
  0.12210000
21
 -0.12700000
31
  0.00000000
0
LINE
8
DC
6
CONTINUOUS
62
7
10
  0.12196771
20
 -0.12695000
30
  0.00000000
11
  0.12223229
21
 -0.12695000
31
  0.00000000
0
LINE
8
DC
6
CONTINUOUS
62
7
10
  0.12192679
20
 -0.12690000
30
  0.00000000
11
  0.12227321
21
 -0.12690000
31
  0.00000000
0
LINE
8
DC
6
CONTINUOUS
62
7
10
  0.12190635
20
 -0.12685000
30
  0.00000000
11
  0.12229365
21
 -0.12685000
31
  0.00000000
0
LINE
8
DC
6
CONTINUOUS
62
7
10
  0.12190000
20
 -0.12680000
30
  0.00000000
11
  0.12230000
21
 -0.12680000
31
  0.00000000
0
LINE
8
DC
6
CONTINUOUS
62
7
10
  0.12190635
20
 -0.12675000
30
  0.00000000
11
  0.12229365
21
 -0.12675000
31
  0.00000000
0
LINE
8
DC
6
CONTINUOUS
62
7
10
  0.12192679
20
 -0.12670000
30
  0.00000000
11
  0.12227321
21
 -0.12670000
31
  0.00000000
0
LINE
8
DC
6
CONTINUOUS
62
7
10
  0.12196771
20
 -0.12665000
30
  0.00000000
11
  0.12223229
21
 -0.12665000
31
  0.00000000
0
CIRCLE
8
DC
6
CONTINUOUS
62
7
10
  0.12210000
20
 -0.12680000
30
  0.00000000
40
  0.00020000
0
LINE
8
DC
6
CONTINUOUS
62
7
10
  0.12310000
20
 -0.12700000
30
  0.00000000
11
  0.12310000
21
 -0.12700000
31
  0.00000000
0
LINE
8
DC
6
CONTINUOUS
62
7
10
  0.12296771
20
 -0.12695000
30
  0.00000000
11
  0.12323229
21
 -0.12695000
31
  0.00000000
0
LINE
8
DC
6
CONTINUOUS
62
7
10
  0.12292679
20
 -0.12690000
30
  0.00000000
11
  0.12327321
21
 -0.12690000
31
  0.00000000
0
LINE
8
DC
6
CONTINUOUS
62
7
10
  0.12290635
20
 -0.12685000
30
  0.00000000
11
  0.12329365
21
 -0.12685000
31
  0.00000000
0
LINE
8
DC
6
CONTINUOUS
62
7
10
  0.12290000
20
 -0.12680000
30
  0.00000000
11
  0.12330000
21
 -0.12680000
31
  0.00000000
0
LINE
8
DC
6
CONTINUOUS
62
7
10
  0.12290635
20
 -0.12675000
30
  0.00000000
11
  0.12329365
21
 -0.12675000
31
  0.00000000
0
LINE
8
DC
6
CONTINUOUS
62
7
10
  0.12292679
20
 -0.12670000
30
  0.00000000
11
  0.12327321
21
 -0.12670000
31
  0.00000000
0
LINE
8
DC
6
CONTINUOUS
62
7
10
  0.12296771
20
 -0.12665000
30
  0.00000000
11
  0.12323229
21
 -0.12665000
31
  0.00000000
0
CIRCLE
8
DC
6
CONTINUOUS
62
7
10
  0.12310000
20
 -0.12680000
30
  0.00000000
40
  0.00020000
0
LINE
8
DC
6
CONTINUOUS
62
7
10
  0.12410000
20
 -0.12700000
30
  0.00000000
11
  0.12410000
21
 -0.12700000
31
  0.00000000
0
LINE
8
DC
6
CONTINUOUS
62
7
10
  0.12396771
20
 -0.12695000
30
  0.00000000
11
  0.12423229
21
 -0.12695000
31
  0.00000000
0
LINE
8
DC
6
CONTINUOUS
62
7
10
  0.12392679
20
 -0.12690000
30
  0.00000000
11
  0.12427321
21
 -0.12690000
31
  0.00000000
0
LINE
8
DC
6
CONTINUOUS
62
7
10
  0.12390635
20
 -0.12685000
30
  0.00000000
11
  0.12429365
21
 -0.12685000
31
  0.00000000
0
LINE
8
DC
6
CONTINUOUS
62
7
10
  0.12390000
20
 -0.12680000
30
  0.00000000
11
  0.12430000
21
 -0.12680000
31
  0.00000000
0
LINE
8
DC
6
CONTINUOUS
62
7
10
  0.12390635
20
 -0.12675000
30
  0.00000000
11
  0.12429365
21
 -0.12675000
31
  0.00000000
0
LINE
8
DC
6
CONTINUOUS
62
7
10
  0.12392679
20
 -0.12670000
30
  0.00000000
11
  0.12427321
21
 -0.12670000
31
  0.00000000
0
LINE
8
DC
6
CONTINUOUS
62
7
10
  0.12396771
20
 -0.12665000
30
  0.00000000
11
  0.12423229
21
 -0.12665000
31
  0.00000000
0
CIRCLE
8
DC
6
CONTINUOUS
62
7
10
  0.12410000
20
 -0.12680000
30
  0.00000000
40
  0.00020000
0
LINE
8
DC
6
CONTINUOUS
62
7
10
  0.12510000
20
 -0.12700000
30
  0.00000000
11
  0.12510000
21
 -0.12700000
31
  0.00000000
0
LINE
8
DC
6
CONTINUOUS
62
7
10
  0.12496771
20
 -0.12695000
30
  0.00000000
11
  0.12523229
21
 -0.12695000
31
  0.00000000
0
LINE
8
DC
6
CONTINUOUS
62
7
10
  0.12492679
20
 -0.12690000
30
  0.00000000
11
  0.12527321
21
 -0.12690000
31
  0.00000000
0
LINE
8
DC
6
CONTINUOUS
62
7
10
  0.12490635
20
 -0.12685000
30
  0.00000000
11
  0.12529365
21
 -0.12685000
31
  0.00000000
0
LINE
8
DC
6
CONTINUOUS
62
7
10
  0.12490000
20
 -0.12680000
30
  0.00000000
11
  0.12530000
21
 -0.12680000
31
  0.00000000
0
LINE
8
DC
6
CONTINUOUS
62
7
10
  0.12490635
20
 -0.12675000
30
  0.00000000
11
  0.12529365
21
 -0.12675000
31
  0.00000000
0
LINE
8
DC
6
CONTINUOUS
62
7
10
  0.12492679
20
 -0.12670000
30
  0.00000000
11
  0.12527321
21
 -0.12670000
31
  0.00000000
0
LINE
8
DC
6
CONTINUOUS
62
7
10
  0.12496771
20
 -0.12665000
30
  0.00000000
11
  0.12523229
21
 -0.12665000
31
  0.00000000
0
CIRCLE
8
DC
6
CONTINUOUS
62
7
10
  0.12510000
20
 -0.12680000
30
  0.00000000
40
  0.00020000
0
LINE
8
DC
6
CONTINUOUS
62
7
10
  0.12610000
20
 -0.12700000
30
  0.00000000
11
  0.12610000
21
 -0.12700000
31
  0.00000000
0
LINE
8
DC
6
CONTINUOUS
62
7
10
  0.12596771
20
 -0.12695000
30
  0.00000000
11
  0.12623229
21
 -0.12695000
31
  0.00000000
0
LINE
8
DC
6
CONTINUOUS
62
7
10
  0.12592679
20
 -0.12690000
30
  0.00000000
11
  0.12627321
21
 -0.12690000
31
  0.00000000
0
LINE
8
DC
6
CONTINUOUS
62
7
10
  0.12590635
20
 -0.12685000
30
  0.00000000
11
  0.12629365
21
 -0.12685000
31
  0.00000000
0
LINE
8
DC
6
CONTINUOUS
62
7
10
  0.12590000
20
 -0.12680000
30
  0.00000000
11
  0.12630000
21
 -0.12680000
31
  0.00000000
0
LINE
8
DC
6
CONTINUOUS
62
7
10
  0.12590635
20
 -0.12675000
30
  0.00000000
11
  0.12629365
21
 -0.12675000
31
  0.00000000
0
LINE
8
DC
6
CONTINUOUS
62
7
10
  0.12592679
20
 -0.12670000
30
  0.00000000
11
  0.12627321
21
 -0.12670000
31
  0.00000000
0
LINE
8
DC
6
CONTINUOUS
62
7
10
  0.12596771
20
 -0.12665000
30
  0.00000000
11
  0.12623229
21
 -0.12665000
31
  0.00000000
0
CIRCLE
8
DC
6
CONTINUOUS
62
7
10
  0.12610000
20
 -0.12680000
30
  0.00000000
40
  0.00020000
0
LINE
8
DC
6
CONTINUOUS
62
7
10
  0.12260000
20
 -0.12590000
30
  0.00000000
11
  0.12260000
21
 -0.12590000
31
  0.00000000
0
LINE
8
DC
6
CONTINUOUS
62
7
10
  0.12246771
20
 -0.12585000
30
  0.00000000
11
  0.12273229
21
 -0.12585000
31
  0.00000000
0
LINE
8
DC
6
CONTINUOUS
62
7
10
  0.12242679
20
 -0.12580000
30
  0.00000000
11
  0.12277321
21
 -0.12580000
31
  0.00000000
0
LINE
8
DC
6
CONTINUOUS
62
7
10
  0.12240635
20
 -0.12575000
30
  0.00000000
11
  0.12279365
21
 -0.12575000
31
  0.00000000
0
LINE
8
DC
6
CONTINUOUS
62
7
10
  0.12240000
20
 -0.12570000
30
  0.00000000
11
  0.12280000
21
 -0.12570000
31
  0.00000000
0
LINE
8
DC
6
CONTINUOUS
62
7
10
  0.12240635
20
 -0.12565000
30
  0.00000000
11
  0.12279365
21
 -0.12565000
31
  0.00000000
0
LINE
8
DC
6
CONTINUOUS
62
7
10
  0.12242679
20
 -0.12560000
30
  0.00000000
11
  0.12277321
21
 -0.12560000
31
  0.00000000
0
LINE
8
DC
6
CONTINUOUS
62
7
10
  0.12246771
20
 -0.12555000
30
  0.00000000
11
  0.12273229
21
 -0.12555000
31
  0.00000000
0
CIRCLE
8
DC
6
CONTINUOUS
62
7
10
  0.12260000
20
 -0.12570000
30
  0.00000000
40
  0.00020000
0
LINE
8
DC
6
CONTINUOUS
62
7
10
  0.12360000
20
 -0.12590000
30
  0.00000000
11
  0.12360000
21
 -0.12590000
31
  0.00000000
0
LINE
8
DC
6
CONTINUOUS
62
7
10
  0.12346771
20
 -0.12585000
30
  0.00000000
11
  0.12373229
21
 -0.12585000
31
  0.00000000
0
LINE
8
DC
6
CONTINUOUS
62
7
10
  0.12342679
20
 -0.12580000
30
  0.00000000
11
  0.12377321
21
 -0.12580000
31
  0.00000000
0
LINE
8
DC
6
CONTINUOUS
62
7
10
  0.12340635
20
 -0.12575000
30
  0.00000000
11
  0.12379365
21
 -0.12575000
31
  0.00000000
0
LINE
8
DC
6
CONTINUOUS
62
7
10
  0.12340000
20
 -0.12570000
30
  0.00000000
11
  0.12380000
21
 -0.12570000
31
  0.00000000
0
LINE
8
DC
6
CONTINUOUS
62
7
10
  0.12340635
20
 -0.12565000
30
  0.00000000
11
  0.12379365
21
 -0.12565000
31
  0.00000000
0
LINE
8
DC
6
CONTINUOUS
62
7
10
  0.12342679
20
 -0.12560000
30
  0.00000000
11
  0.12377321
21
 -0.12560000
31
  0.00000000
0
LINE
8
DC
6
CONTINUOUS
62
7
10
  0.12346771
20
 -0.12555000
30
  0.00000000
11
  0.12373229
21
 -0.12555000
31
  0.00000000
0
CIRCLE
8
DC
6
CONTINUOUS
62
7
10
  0.12360000
20
 -0.12570000
30
  0.00000000
40
  0.00020000
0
LINE
8
DC
6
CONTINUOUS
62
7
10
  0.12460000
20
 -0.12590000
30
  0.00000000
11
  0.12460000
21
 -0.12590000
31
  0.00000000
0
LINE
8
DC
6
CONTINUOUS
62
7
10
  0.12446771
20
 -0.12585000
30
  0.00000000
11
  0.12473229
21
 -0.12585000
31
  0.00000000
0
LINE
8
DC
6
CONTINUOUS
62
7
10
  0.12442679
20
 -0.12580000
30
  0.00000000
11
  0.12477321
21
 -0.12580000
31
  0.00000000
0
LINE
8
DC
6
CONTINUOUS
62
7
10
  0.12440635
20
 -0.12575000
30
  0.00000000
11
  0.12479365
21
 -0.12575000
31
  0.00000000
0
LINE
8
DC
6
CONTINUOUS
62
7
10
  0.12440000
20
 -0.12570000
30
  0.00000000
11
  0.12480000
21
 -0.12570000
31
  0.00000000
0
LINE
8
DC
6
CONTINUOUS
62
7
10
  0.12440635
20
 -0.12565000
30
  0.00000000
11
  0.12479365
21
 -0.12565000
31
  0.00000000
0
LINE
8
DC
6
CONTINUOUS
62
7
10
  0.12442679
20
 -0.12560000
30
  0.00000000
11
  0.12477321
21
 -0.12560000
31
  0.00000000
0
LINE
8
DC
6
CONTINUOUS
62
7
10
  0.12446771
20
 -0.12555000
30
  0.00000000
11
  0.12473229
21
 -0.12555000
31
  0.00000000
0
CIRCLE
8
DC
6
CONTINUOUS
62
7
10
  0.12460000
20
 -0.12570000
30
  0.00000000
40
  0.00020000
0
LINE
8
DC
6
CONTINUOUS
62
7
10
  0.12560000
20
 -0.12590000
30
  0.00000000
11
  0.12560000
21
 -0.12590000
31
  0.00000000
0
LINE
8
DC
6
CONTINUOUS
62
7
10
  0.12546771
20
 -0.12585000
30
  0.00000000
11
  0.12573229
21
 -0.12585000
31
  0.00000000
0
LINE
8
DC
6
CONTINUOUS
62
7
10
  0.12542679
20
 -0.12580000
30
  0.00000000
11
  0.12577321
21
 -0.12580000
31
  0.00000000
0
LINE
8
DC
6
CONTINUOUS
62
7
10
  0.12540635
20
 -0.12575000
30
  0.00000000
11
  0.12579365
21
 -0.12575000
31
  0.00000000
0
LINE
8
DC
6
CONTINUOUS
62
7
10
  0.12540000
20
 -0.12570000
30
  0.00000000
11
  0.12580000
21
 -0.12570000
31
  0.00000000
0
LINE
8
DC
6
CONTINUOUS
62
7
10
  0.12540635
20
 -0.12565000
30
  0.00000000
11
  0.12579365
21
 -0.12565000
31
  0.00000000
0
LINE
8
DC
6
CONTINUOUS
62
7
10
  0.12542679
20
 -0.12560000
30
  0.00000000
11
  0.12577321
21
 -0.12560000
31
  0.00000000
0
LINE
8
DC
6
CONTINUOUS
62
7
10
  0.12546771
20
 -0.12555000
30
  0.00000000
11
  0.12573229
21
 -0.12555000
31
  0.00000000
0
CIRCLE
8
DC
6
CONTINUOUS
62
7
10
  0.12560000
20
 -0.12570000
30
  0.00000000
40
  0.00020000
0
LINE
8
DC
6
CONTINUOUS
62
7
10
  0.12660000
20
 -0.12590000
30
  0.00000000
11
  0.12660000
21
 -0.12590000
31
  0.00000000
0
LINE
8
DC
6
CONTINUOUS
62
7
10
  0.12646771
20
 -0.12585000
30
  0.00000000
11
  0.12673229
21
 -0.12585000
31
  0.00000000
0
LINE
8
DC
6
CONTINUOUS
62
7
10
  0.12642679
20
 -0.12580000
30
  0.00000000
11
  0.12677321
21
 -0.12580000
31
  0.00000000
0
LINE
8
DC
6
CONTINUOUS
62
7
10
  0.12640635
20
 -0.12575000
30
  0.00000000
11
  0.12679365
21
 -0.12575000
31
  0.00000000
0
LINE
8
DC
6
CONTINUOUS
62
7
10
  0.12640000
20
 -0.12570000
30
  0.00000000
11
  0.12680000
21
 -0.12570000
31
  0.00000000
0
LINE
8
DC
6
CONTINUOUS
62
7
10
  0.12640635
20
 -0.12565000
30
  0.00000000
11
  0.12679365
21
 -0.12565000
31
  0.00000000
0
LINE
8
DC
6
CONTINUOUS
62
7
10
  0.12642679
20
 -0.12560000
30
  0.00000000
11
  0.12677321
21
 -0.12560000
31
  0.00000000
0
LINE
8
DC
6
CONTINUOUS
62
7
10
  0.12646771
20
 -0.12555000
30
  0.00000000
11
  0.12673229
21
 -0.12555000
31
  0.00000000
0
CIRCLE
8
DC
6
CONTINUOUS
62
7
10
  0.12660000
20
 -0.12570000
30
  0.00000000
40
  0.00020000
0
LINE
8
DC
6
CONTINUOUS
62
7
10
  0.12190000
20
 -0.12990000
30
  0.00000000
11
  0.12440000
21
 -0.12740000
31
  0.00000000
0
LINE
8
DC
6
CONTINUOUS
62
7
10
  0.12440000
20
 -0.13240000
30
  0.00000000
11
  0.12690000
21
 -0.12990000
31
  0.00000000
0
LINE
8
DC
6
CONTINUOUS
62
7
10
  0.12190000
20
 -0.13240000
30
  0.00000000
11
  0.12690000
21
 -0.12740000
31
  0.00000000
0
CIRCLE
8
DC
6
CONTINUOUS
62
7
10
  0.12390000
20
 -0.12910000
30
  0.00000000
40
  0.00060000
0
CIRCLE
8
DC
6
CONTINUOUS
62
7
10
  0.12620000
20
 -0.12910000
30
  0.00000000
40
  0.00060000
0
CIRCLE
8
DC
6
CONTINUOUS
62
7
10
  0.12390000
20
 -0.13150000
30
  0.00000000
40
  0.00060000
0
CIRCLE
8
DC
6
CONTINUOUS
62
7
10
  0.12620000
20
 -0.13150000
30
  0.00000000
40
  0.00060000
0
LINE
8
DC
6
CONTINUOUS
62
7
10
  0.12220000
20
 -0.13020000
30
  0.00000000
11
  0.12270000
21
 -0.12970000
31
  0.00000000
0
LINE
8
DC
6
CONTINUOUS
62
7
10
  0.12240000
20
 -0.12990000
30
  0.00000000
11
  0.12320000
21
 -0.13070000
31
  0.00000000
0
LINE
8
DC
6
CONTINUOUS
62
7
10
  0.12290000
20
 -0.13090000
30
  0.00000000
11
  0.12340000
21
 -0.13040000
31
  0.00000000
0
LINE
8
DC
6
CONTINUOUS
62
7
10
  0.12440000
20
 -0.12800000
30
  0.00000000
11
  0.12490000
21
 -0.12750000
31
  0.00000000
0
LINE
8
DC
6
CONTINUOUS
62
7
10
  0.12460000
20
 -0.12770000
30
  0.00000000
11
  0.12540000
21
 -0.12850000
31
  0.00000000
0
LINE
8
DC
6
CONTINUOUS
62
7
10
  0.12510000
20
 -0.12870000
30
  0.00000000
11
  0.12560000
21
 -0.12820000
31
  0.00000000
0
LINE
8
DC
6
CONTINUOUS
62
7
10
  0.12450000
20
 -0.13020000
30
  0.00000000
11
  0.12500000
21
 -0.12970000
31
  0.00000000
0
LINE
8
DC
6
CONTINUOUS
62
7
10
  0.12470000
20
 -0.12990000
30
  0.00000000
11
  0.12550000
21
 -0.13070000
31
  0.00000000
0
LINE
8
DC
6
CONTINUOUS
62
7
10
  0.12520000
20
 -0.13090000
30
  0.00000000
11
  0.12570000
21
 -0.13040000
31
  0.00000000
0
LINE
8
DC
6
CONTINUOUS
62
7
10
  0.12200000
20
 -0.12790000
30
  0.00000000
11
  0.12250000
21
 -0.12740000
31
  0.00000000
0
LINE
8
DC
6
CONTINUOUS
62
7
10
  0.12220000
20
 -0.12760000
30
  0.00000000
11
  0.12300000
21
 -0.12840000
31
  0.00000000
0
LINE
8
DC
6
CONTINUOUS
62
7
10
  0.12270000
20
 -0.12860000
30
  0.00000000
11
  0.12320000
21
 -0.12810000
31
  0.00000000
0
LINE
8
DC
6
CONTINUOUS
62
7
10
  0.12240000
20
 -0.13320000
30
  0.00000000
11
  0.12540000
21
 -0.13320000
31
  0.00000000
0
LINE
8
DC
6
CONTINUOUS
62
7
10
  0.12340000
20
 -0.13480000
30
  0.00000000
11
  0.12640000
21
 -0.13480000
31
  0.00000000
0
LINE
8
DC
6
CONTINUOUS
62
7
10
  0.12350000
20
 -0.13780000
30
  0.00000000
11
  0.12350000
21
 -0.13780000
31
  0.00000000
0
LINE
8
DC
6
CONTINUOUS
62
7
10
  0.12328206
20
 -0.13775000
30
  0.00000000
11
  0.12371794
21
 -0.13775000
31
  0.00000000
0
LINE
8
DC
6
CONTINUOUS
62
7
10
  0.12320000
20
 -0.13770000
30
  0.00000000
11
  0.12380000
21
 -0.13770000
31
  0.00000000
0
LINE
8
DC
6
CONTINUOUS
62
7
10
  0.12314293
20
 -0.13765000
30
  0.00000000
11
  0.12385707
21
 -0.13765000
31
  0.00000000
0
LINE
8
DC
6
CONTINUOUS
62
7
10
  0.12310000
20
 -0.13760000
30
  0.00000000
11
  0.12390000
21
 -0.13760000
31
  0.00000000
0
LINE
8
DC
6
CONTINUOUS
62
7
10
  0.12306699
20
 -0.13755000
30
  0.00000000
11
  0.12393301
21
 -0.13755000
31
  0.00000000
0
LINE
8
DC
6
CONTINUOUS
62
7
10
  0.12304174
20
 -0.13750000
30
  0.00000000
11
  0.12395826
21
 -0.13750000
31
  0.00000000
0
LINE
8
DC
6
CONTINUOUS
62
7
10
  0.12302303
20
 -0.13745000
30
  0.00000000
11
  0.12397697
21
 -0.13745000
31
  0.00000000
0
LINE
8
DC
6
CONTINUOUS
62
7
10
  0.12301010
20
 -0.13740000
30
  0.00000000
11
  0.12398990
21
 -0.13740000
31
  0.00000000
0
LINE
8
DC
6
CONTINUOUS
62
7
10
  0.12300251
20
 -0.13735000
30
  0.00000000
11
  0.12399749
21
 -0.13735000
31
  0.00000000
0
LINE
8
DC
6
CONTINUOUS
62
7
10
  0.12300000
20
 -0.13730000
30
  0.00000000
11
  0.12400000
21
 -0.13730000
31
  0.00000000
0
LINE
8
DC
6
CONTINUOUS
62
7
10
  0.12300251
20
 -0.13725000
30
  0.00000000
11
  0.12399749
21
 -0.13725000
31
  0.00000000
0
LINE
8
DC
6
CONTINUOUS
62
7
10
  0.12301010
20
 -0.13720000
30
  0.00000000
11
  0.12398990
21
 -0.13720000
31
  0.00000000
0
LINE
8
DC
6
CONTINUOUS
62
7
10
  0.12302303
20
 -0.13715000
30
  0.00000000
11
  0.12397697
21
 -0.13715000
31
  0.00000000
0
LINE
8
DC
6
CONTINUOUS
62
7
10
  0.12304174
20
 -0.13710000
30
  0.00000000
11
  0.12395826
21
 -0.13710000
31
  0.00000000
0
LINE
8
DC
6
CONTINUOUS
62
7
10
  0.12306699
20
 -0.13705000
30
  0.00000000
11
  0.12393301
21
 -0.13705000
31
  0.00000000
0
LINE
8
DC
6
CONTINUOUS
62
7
10
  0.12310000
20
 -0.13700000
30
  0.00000000
11
  0.12390000
21
 -0.13700000
31
  0.00000000
0
LINE
8
DC
6
CONTINUOUS
62
7
10
  0.12314293
20
 -0.13695000
30
  0.00000000
11
  0.12385707
21
 -0.13695000
31
  0.00000000
0
LINE
8
DC
6
CONTINUOUS
62
7
10
  0.12320000
20
 -0.13690000
30
  0.00000000
11
  0.12380000
21
 -0.13690000
31
  0.00000000
0
LINE
8
DC
6
CONTINUOUS
62
7
10
  0.12328206
20
 -0.13685000
30
  0.00000000
11
  0.12371794
21
 -0.13685000
31
  0.00000000
0
CIRCLE
8
DC
6
CONTINUOUS
62
7
10
  0.12350000
20
 -0.13730000
30
  0.00000000
40
  0.00050000
0
LINE
8
DC
6
CONTINUOUS
62
7
10
  0.12510000
20
 -0.13780000
30
  0.00000000
11
  0.12510000
21
 -0.13780000
31
  0.00000000
0
LINE
8
DC
6
CONTINUOUS
62
7
10
  0.12488206
20
 -0.13775000
30
  0.00000000
11
  0.12531794
21
 -0.13775000
31
  0.00000000
0
LINE
8
DC
6
CONTINUOUS
62
7
10
  0.12480000
20
 -0.13770000
30
  0.00000000
11
  0.12540000
21
 -0.13770000
31
  0.00000000
0
LINE
8
DC
6
CONTINUOUS
62
7
10
  0.12474293
20
 -0.13765000
30
  0.00000000
11
  0.12545707
21
 -0.13765000
31
  0.00000000
0
LINE
8
DC
6
CONTINUOUS
62
7
10
  0.12470000
20
 -0.13760000
30
  0.00000000
11
  0.12550000
21
 -0.13760000
31
  0.00000000
0
LINE
8
DC
6
CONTINUOUS
62
7
10
  0.12466699
20
 -0.13755000
30
  0.00000000
11
  0.12553301
21
 -0.13755000
31
  0.00000000
0
LINE
8
DC
6
CONTINUOUS
62
7
10
  0.12464174
20
 -0.13750000
30
  0.00000000
11
  0.12555826
21
 -0.13750000
31
  0.00000000
0
LINE
8
DC
6
CONTINUOUS
62
7
10
  0.12462303
20
 -0.13745000
30
  0.00000000
11
  0.12557697
21
 -0.13745000
31
  0.00000000
0
LINE
8
DC
6
CONTINUOUS
62
7
10
  0.12461010
20
 -0.13740000
30
  0.00000000
11
  0.12558990
21
 -0.13740000
31
  0.00000000
0
LINE
8
DC
6
CONTINUOUS
62
7
10
  0.12460251
20
 -0.13735000
30
  0.00000000
11
  0.12559749
21
 -0.13735000
31
  0.00000000
0
LINE
8
DC
6
CONTINUOUS
62
7
10
  0.12460000
20
 -0.13730000
30
  0.00000000
11
  0.12560000
21
 -0.13730000
31
  0.00000000
0
LINE
8
DC
6
CONTINUOUS
62
7
10
  0.12460251
20
 -0.13725000
30
  0.00000000
11
  0.12559749
21
 -0.13725000
31
  0.00000000
0
LINE
8
DC
6
CONTINUOUS
62
7
10
  0.12461010
20
 -0.13720000
30
  0.00000000
11
  0.12558990
21
 -0.13720000
31
  0.00000000
0
LINE
8
DC
6
CONTINUOUS
62
7
10
  0.12462303
20
 -0.13715000
30
  0.00000000
11
  0.12557697
21
 -0.13715000
31
  0.00000000
0
LINE
8
DC
6
CONTINUOUS
62
7
10
  0.12464174
20
 -0.13710000
30
  0.00000000
11
  0.12555826
21
 -0.13710000
31
  0.00000000
0
LINE
8
DC
6
CONTINUOUS
62
7
10
  0.12466699
20
 -0.13705000
30
  0.00000000
11
  0.12553301
21
 -0.13705000
31
  0.00000000
0
LINE
8
DC
6
CONTINUOUS
62
7
10
  0.12470000
20
 -0.13700000
30
  0.00000000
11
  0.12550000
21
 -0.13700000
31
  0.00000000
0
LINE
8
DC
6
CONTINUOUS
62
7
10
  0.12474293
20
 -0.13695000
30
  0.00000000
11
  0.12545707
21
 -0.13695000
31
  0.00000000
0
LINE
8
DC
6
CONTINUOUS
62
7
10
  0.12480000
20
 -0.13690000
30
  0.00000000
11
  0.12540000
21
 -0.13690000
31
  0.00000000
0
LINE
8
DC
6
CONTINUOUS
62
7
10
  0.12488206
20
 -0.13685000
30
  0.00000000
11
  0.12531794
21
 -0.13685000
31
  0.00000000
0
CIRCLE
8
DC
6
CONTINUOUS
62
7
10
  0.12510000
20
 -0.13730000
30
  0.00000000
40
  0.00050000
0
LINE
8
DC
6
CONTINUOUS
62
7
10
  0.12290000
20
 -0.13780000
30
  0.00000000
11
  0.12590000
21
 -0.13780000
31
  0.00000000
0
LINE
8
DC
6
CONTINUOUS
62
7
10
  0.12210000
20
 -0.13970000
30
  0.00000000
11
  0.12210000
21
 -0.13970000
31
  0.00000000
0
LINE
8
DC
6
CONTINUOUS
62
7
10
  0.12196771
20
 -0.13965000
30
  0.00000000
11
  0.12223229
21
 -0.13965000
31
  0.00000000
0
LINE
8
DC
6
CONTINUOUS
62
7
10
  0.12192679
20
 -0.13960000
30
  0.00000000
11
  0.12227321
21
 -0.13960000
31
  0.00000000
0
LINE
8
DC
6
CONTINUOUS
62
7
10
  0.12190635
20
 -0.13955000
30
  0.00000000
11
  0.12229365
21
 -0.13955000
31
  0.00000000
0
LINE
8
DC
6
CONTINUOUS
62
7
10
  0.12190000
20
 -0.13950000
30
  0.00000000
11
  0.12230000
21
 -0.13950000
31
  0.00000000
0
LINE
8
DC
6
CONTINUOUS
62
7
10
  0.12190635
20
 -0.13945000
30
  0.00000000
11
  0.12229365
21
 -0.13945000
31
  0.00000000
0
LINE
8
DC
6
CONTINUOUS
62
7
10
  0.12192679
20
 -0.13940000
30
  0.00000000
11
  0.12227321
21
 -0.13940000
31
  0.00000000
0
LINE
8
DC
6
CONTINUOUS
62
7
10
  0.12196771
20
 -0.13935000
30
  0.00000000
11
  0.12223229
21
 -0.13935000
31
  0.00000000
0
CIRCLE
8
DC
6
CONTINUOUS
62
7
10
  0.12210000
20
 -0.13950000
30
  0.00000000
40
  0.00020000
0
LINE
8
DC
6
CONTINUOUS
62
7
10
  0.12310000
20
 -0.13970000
30
  0.00000000
11
  0.12310000
21
 -0.13970000
31
  0.00000000
0
LINE
8
DC
6
CONTINUOUS
62
7
10
  0.12296771
20
 -0.13965000
30
  0.00000000
11
  0.12323229
21
 -0.13965000
31
  0.00000000
0
LINE
8
DC
6
CONTINUOUS
62
7
10
  0.12292679
20
 -0.13960000
30
  0.00000000
11
  0.12327321
21
 -0.13960000
31
  0.00000000
0
LINE
8
DC
6
CONTINUOUS
62
7
10
  0.12290635
20
 -0.13955000
30
  0.00000000
11
  0.12329365
21
 -0.13955000
31
  0.00000000
0
LINE
8
DC
6
CONTINUOUS
62
7
10
  0.12290000
20
 -0.13950000
30
  0.00000000
11
  0.12330000
21
 -0.13950000
31
  0.00000000
0
LINE
8
DC
6
CONTINUOUS
62
7
10
  0.12290635
20
 -0.13945000
30
  0.00000000
11
  0.12329365
21
 -0.13945000
31
  0.00000000
0
LINE
8
DC
6
CONTINUOUS
62
7
10
  0.12292679
20
 -0.13940000
30
  0.00000000
11
  0.12327321
21
 -0.13940000
31
  0.00000000
0
LINE
8
DC
6
CONTINUOUS
62
7
10
  0.12296771
20
 -0.13935000
30
  0.00000000
11
  0.12323229
21
 -0.13935000
31
  0.00000000
0
CIRCLE
8
DC
6
CONTINUOUS
62
7
10
  0.12310000
20
 -0.13950000
30
  0.00000000
40
  0.00020000
0
LINE
8
DC
6
CONTINUOUS
62
7
10
  0.12410000
20
 -0.13970000
30
  0.00000000
11
  0.12410000
21
 -0.13970000
31
  0.00000000
0
LINE
8
DC
6
CONTINUOUS
62
7
10
  0.12396771
20
 -0.13965000
30
  0.00000000
11
  0.12423229
21
 -0.13965000
31
  0.00000000
0
LINE
8
DC
6
CONTINUOUS
62
7
10
  0.12392679
20
 -0.13960000
30
  0.00000000
11
  0.12427321
21
 -0.13960000
31
  0.00000000
0
LINE
8
DC
6
CONTINUOUS
62
7
10
  0.12390635
20
 -0.13955000
30
  0.00000000
11
  0.12429365
21
 -0.13955000
31
  0.00000000
0
LINE
8
DC
6
CONTINUOUS
62
7
10
  0.12390000
20
 -0.13950000
30
  0.00000000
11
  0.12430000
21
 -0.13950000
31
  0.00000000
0
LINE
8
DC
6
CONTINUOUS
62
7
10
  0.12390635
20
 -0.13945000
30
  0.00000000
11
  0.12429365
21
 -0.13945000
31
  0.00000000
0
LINE
8
DC
6
CONTINUOUS
62
7
10
  0.12392679
20
 -0.13940000
30
  0.00000000
11
  0.12427321
21
 -0.13940000
31
  0.00000000
0
LINE
8
DC
6
CONTINUOUS
62
7
10
  0.12396771
20
 -0.13935000
30
  0.00000000
11
  0.12423229
21
 -0.13935000
31
  0.00000000
0
CIRCLE
8
DC
6
CONTINUOUS
62
7
10
  0.12410000
20
 -0.13950000
30
  0.00000000
40
  0.00020000
0
LINE
8
DC
6
CONTINUOUS
62
7
10
  0.12510000
20
 -0.13970000
30
  0.00000000
11
  0.12510000
21
 -0.13970000
31
  0.00000000
0
LINE
8
DC
6
CONTINUOUS
62
7
10
  0.12496771
20
 -0.13965000
30
  0.00000000
11
  0.12523229
21
 -0.13965000
31
  0.00000000
0
LINE
8
DC
6
CONTINUOUS
62
7
10
  0.12492679
20
 -0.13960000
30
  0.00000000
11
  0.12527321
21
 -0.13960000
31
  0.00000000
0
LINE
8
DC
6
CONTINUOUS
62
7
10
  0.12490635
20
 -0.13955000
30
  0.00000000
11
  0.12529365
21
 -0.13955000
31
  0.00000000
0
LINE
8
DC
6
CONTINUOUS
62
7
10
  0.12490000
20
 -0.13950000
30
  0.00000000
11
  0.12530000
21
 -0.13950000
31
  0.00000000
0
LINE
8
DC
6
CONTINUOUS
62
7
10
  0.12490635
20
 -0.13945000
30
  0.00000000
11
  0.12529365
21
 -0.13945000
31
  0.00000000
0
LINE
8
DC
6
CONTINUOUS
62
7
10
  0.12492679
20
 -0.13940000
30
  0.00000000
11
  0.12527321
21
 -0.13940000
31
  0.00000000
0
LINE
8
DC
6
CONTINUOUS
62
7
10
  0.12496771
20
 -0.13935000
30
  0.00000000
11
  0.12523229
21
 -0.13935000
31
  0.00000000
0
CIRCLE
8
DC
6
CONTINUOUS
62
7
10
  0.12510000
20
 -0.13950000
30
  0.00000000
40
  0.00020000
0
LINE
8
DC
6
CONTINUOUS
62
7
10
  0.12610000
20
 -0.13970000
30
  0.00000000
11
  0.12610000
21
 -0.13970000
31
  0.00000000
0
LINE
8
DC
6
CONTINUOUS
62
7
10
  0.12596771
20
 -0.13965000
30
  0.00000000
11
  0.12623229
21
 -0.13965000
31
  0.00000000
0
LINE
8
DC
6
CONTINUOUS
62
7
10
  0.12592679
20
 -0.13960000
30
  0.00000000
11
  0.12627321
21
 -0.13960000
31
  0.00000000
0
LINE
8
DC
6
CONTINUOUS
62
7
10
  0.12590635
20
 -0.13955000
30
  0.00000000
11
  0.12629365
21
 -0.13955000
31
  0.00000000
0
LINE
8
DC
6
CONTINUOUS
62
7
10
  0.12590000
20
 -0.13950000
30
  0.00000000
11
  0.12630000
21
 -0.13950000
31
  0.00000000
0
LINE
8
DC
6
CONTINUOUS
62
7
10
  0.12590635
20
 -0.13945000
30
  0.00000000
11
  0.12629365
21
 -0.13945000
31
  0.00000000
0
LINE
8
DC
6
CONTINUOUS
62
7
10
  0.12592679
20
 -0.13940000
30
  0.00000000
11
  0.12627321
21
 -0.13940000
31
  0.00000000
0
LINE
8
DC
6
CONTINUOUS
62
7
10
  0.12596771
20
 -0.13935000
30
  0.00000000
11
  0.12623229
21
 -0.13935000
31
  0.00000000
0
CIRCLE
8
DC
6
CONTINUOUS
62
7
10
  0.12610000
20
 -0.13950000
30
  0.00000000
40
  0.00020000
0
LINE
8
DC
6
CONTINUOUS
62
7
10
  0.12210000
20
 -0.14190000
30
  0.00000000
11
  0.12210000
21
 -0.14190000
31
  0.00000000
0
LINE
8
DC
6
CONTINUOUS
62
7
10
  0.12196771
20
 -0.14185000
30
  0.00000000
11
  0.12223229
21
 -0.14185000
31
  0.00000000
0
LINE
8
DC
6
CONTINUOUS
62
7
10
  0.12192679
20
 -0.14180000
30
  0.00000000
11
  0.12227321
21
 -0.14180000
31
  0.00000000
0
LINE
8
DC
6
CONTINUOUS
62
7
10
  0.12190635
20
 -0.14175000
30
  0.00000000
11
  0.12229365
21
 -0.14175000
31
  0.00000000
0
LINE
8
DC
6
CONTINUOUS
62
7
10
  0.12190000
20
 -0.14170000
30
  0.00000000
11
  0.12230000
21
 -0.14170000
31
  0.00000000
0
LINE
8
DC
6
CONTINUOUS
62
7
10
  0.12190635
20
 -0.14165000
30
  0.00000000
11
  0.12229365
21
 -0.14165000
31
  0.00000000
0
LINE
8
DC
6
CONTINUOUS
62
7
10
  0.12192679
20
 -0.14160000
30
  0.00000000
11
  0.12227321
21
 -0.14160000
31
  0.00000000
0
LINE
8
DC
6
CONTINUOUS
62
7
10
  0.12196771
20
 -0.14155000
30
  0.00000000
11
  0.12223229
21
 -0.14155000
31
  0.00000000
0
CIRCLE
8
DC
6
CONTINUOUS
62
7
10
  0.12210000
20
 -0.14170000
30
  0.00000000
40
  0.00020000
0
LINE
8
DC
6
CONTINUOUS
62
7
10
  0.12310000
20
 -0.14190000
30
  0.00000000
11
  0.12310000
21
 -0.14190000
31
  0.00000000
0
LINE
8
DC
6
CONTINUOUS
62
7
10
  0.12296771
20
 -0.14185000
30
  0.00000000
11
  0.12323229
21
 -0.14185000
31
  0.00000000
0
LINE
8
DC
6
CONTINUOUS
62
7
10
  0.12292679
20
 -0.14180000
30
  0.00000000
11
  0.12327321
21
 -0.14180000
31
  0.00000000
0
LINE
8
DC
6
CONTINUOUS
62
7
10
  0.12290635
20
 -0.14175000
30
  0.00000000
11
  0.12329365
21
 -0.14175000
31
  0.00000000
0
LINE
8
DC
6
CONTINUOUS
62
7
10
  0.12290000
20
 -0.14170000
30
  0.00000000
11
  0.12330000
21
 -0.14170000
31
  0.00000000
0
LINE
8
DC
6
CONTINUOUS
62
7
10
  0.12290635
20
 -0.14165000
30
  0.00000000
11
  0.12329365
21
 -0.14165000
31
  0.00000000
0
LINE
8
DC
6
CONTINUOUS
62
7
10
  0.12292679
20
 -0.14160000
30
  0.00000000
11
  0.12327321
21
 -0.14160000
31
  0.00000000
0
LINE
8
DC
6
CONTINUOUS
62
7
10
  0.12296771
20
 -0.14155000
30
  0.00000000
11
  0.12323229
21
 -0.14155000
31
  0.00000000
0
CIRCLE
8
DC
6
CONTINUOUS
62
7
10
  0.12310000
20
 -0.14170000
30
  0.00000000
40
  0.00020000
0
LINE
8
DC
6
CONTINUOUS
62
7
10
  0.12410000
20
 -0.14190000
30
  0.00000000
11
  0.12410000
21
 -0.14190000
31
  0.00000000
0
LINE
8
DC
6
CONTINUOUS
62
7
10
  0.12396771
20
 -0.14185000
30
  0.00000000
11
  0.12423229
21
 -0.14185000
31
  0.00000000
0
LINE
8
DC
6
CONTINUOUS
62
7
10
  0.12392679
20
 -0.14180000
30
  0.00000000
11
  0.12427321
21
 -0.14180000
31
  0.00000000
0
LINE
8
DC
6
CONTINUOUS
62
7
10
  0.12390635
20
 -0.14175000
30
  0.00000000
11
  0.12429365
21
 -0.14175000
31
  0.00000000
0
LINE
8
DC
6
CONTINUOUS
62
7
10
  0.12390000
20
 -0.14170000
30
  0.00000000
11
  0.12430000
21
 -0.14170000
31
  0.00000000
0
LINE
8
DC
6
CONTINUOUS
62
7
10
  0.12390635
20
 -0.14165000
30
  0.00000000
11
  0.12429365
21
 -0.14165000
31
  0.00000000
0
LINE
8
DC
6
CONTINUOUS
62
7
10
  0.12392679
20
 -0.14160000
30
  0.00000000
11
  0.12427321
21
 -0.14160000
31
  0.00000000
0
LINE
8
DC
6
CONTINUOUS
62
7
10
  0.12396771
20
 -0.14155000
30
  0.00000000
11
  0.12423229
21
 -0.14155000
31
  0.00000000
0
CIRCLE
8
DC
6
CONTINUOUS
62
7
10
  0.12410000
20
 -0.14170000
30
  0.00000000
40
  0.00020000
0
LINE
8
DC
6
CONTINUOUS
62
7
10
  0.12510000
20
 -0.14190000
30
  0.00000000
11
  0.12510000
21
 -0.14190000
31
  0.00000000
0
LINE
8
DC
6
CONTINUOUS
62
7
10
  0.12496771
20
 -0.14185000
30
  0.00000000
11
  0.12523229
21
 -0.14185000
31
  0.00000000
0
LINE
8
DC
6
CONTINUOUS
62
7
10
  0.12492679
20
 -0.14180000
30
  0.00000000
11
  0.12527321
21
 -0.14180000
31
  0.00000000
0
LINE
8
DC
6
CONTINUOUS
62
7
10
  0.12490635
20
 -0.14175000
30
  0.00000000
11
  0.12529365
21
 -0.14175000
31
  0.00000000
0
LINE
8
DC
6
CONTINUOUS
62
7
10
  0.12490000
20
 -0.14170000
30
  0.00000000
11
  0.12530000
21
 -0.14170000
31
  0.00000000
0
LINE
8
DC
6
CONTINUOUS
62
7
10
  0.12490635
20
 -0.14165000
30
  0.00000000
11
  0.12529365
21
 -0.14165000
31
  0.00000000
0
LINE
8
DC
6
CONTINUOUS
62
7
10
  0.12492679
20
 -0.14160000
30
  0.00000000
11
  0.12527321
21
 -0.14160000
31
  0.00000000
0
LINE
8
DC
6
CONTINUOUS
62
7
10
  0.12496771
20
 -0.14155000
30
  0.00000000
11
  0.12523229
21
 -0.14155000
31
  0.00000000
0
CIRCLE
8
DC
6
CONTINUOUS
62
7
10
  0.12510000
20
 -0.14170000
30
  0.00000000
40
  0.00020000
0
LINE
8
DC
6
CONTINUOUS
62
7
10
  0.12610000
20
 -0.14190000
30
  0.00000000
11
  0.12610000
21
 -0.14190000
31
  0.00000000
0
LINE
8
DC
6
CONTINUOUS
62
7
10
  0.12596771
20
 -0.14185000
30
  0.00000000
11
  0.12623229
21
 -0.14185000
31
  0.00000000
0
LINE
8
DC
6
CONTINUOUS
62
7
10
  0.12592679
20
 -0.14180000
30
  0.00000000
11
  0.12627321
21
 -0.14180000
31
  0.00000000
0
LINE
8
DC
6
CONTINUOUS
62
7
10
  0.12590635
20
 -0.14175000
30
  0.00000000
11
  0.12629365
21
 -0.14175000
31
  0.00000000
0
LINE
8
DC
6
CONTINUOUS
62
7
10
  0.12590000
20
 -0.14170000
30
  0.00000000
11
  0.12630000
21
 -0.14170000
31
  0.00000000
0
LINE
8
DC
6
CONTINUOUS
62
7
10
  0.12590635
20
 -0.14165000
30
  0.00000000
11
  0.12629365
21
 -0.14165000
31
  0.00000000
0
LINE
8
DC
6
CONTINUOUS
62
7
10
  0.12592679
20
 -0.14160000
30
  0.00000000
11
  0.12627321
21
 -0.14160000
31
  0.00000000
0
LINE
8
DC
6
CONTINUOUS
62
7
10
  0.12596771
20
 -0.14155000
30
  0.00000000
11
  0.12623229
21
 -0.14155000
31
  0.00000000
0
CIRCLE
8
DC
6
CONTINUOUS
62
7
10
  0.12610000
20
 -0.14170000
30
  0.00000000
40
  0.00020000
0
LINE
8
DC
6
CONTINUOUS
62
7
10
  0.12260000
20
 -0.14080000
30
  0.00000000
11
  0.12260000
21
 -0.14080000
31
  0.00000000
0
LINE
8
DC
6
CONTINUOUS
62
7
10
  0.12246771
20
 -0.14075000
30
  0.00000000
11
  0.12273229
21
 -0.14075000
31
  0.00000000
0
LINE
8
DC
6
CONTINUOUS
62
7
10
  0.12242679
20
 -0.14070000
30
  0.00000000
11
  0.12277321
21
 -0.14070000
31
  0.00000000
0
LINE
8
DC
6
CONTINUOUS
62
7
10
  0.12240635
20
 -0.14065000
30
  0.00000000
11
  0.12279365
21
 -0.14065000
31
  0.00000000
0
LINE
8
DC
6
CONTINUOUS
62
7
10
  0.12240000
20
 -0.14060000
30
  0.00000000
11
  0.12280000
21
 -0.14060000
31
  0.00000000
0
LINE
8
DC
6
CONTINUOUS
62
7
10
  0.12240635
20
 -0.14055000
30
  0.00000000
11
  0.12279365
21
 -0.14055000
31
  0.00000000
0
LINE
8
DC
6
CONTINUOUS
62
7
10
  0.12242679
20
 -0.14050000
30
  0.00000000
11
  0.12277321
21
 -0.14050000
31
  0.00000000
0
LINE
8
DC
6
CONTINUOUS
62
7
10
  0.12246771
20
 -0.14045000
30
  0.00000000
11
  0.12273229
21
 -0.14045000
31
  0.00000000
0
CIRCLE
8
DC
6
CONTINUOUS
62
7
10
  0.12260000
20
 -0.14060000
30
  0.00000000
40
  0.00020000
0
LINE
8
DC
6
CONTINUOUS
62
7
10
  0.12360000
20
 -0.14080000
30
  0.00000000
11
  0.12360000
21
 -0.14080000
31
  0.00000000
0
LINE
8
DC
6
CONTINUOUS
62
7
10
  0.12346771
20
 -0.14075000
30
  0.00000000
11
  0.12373229
21
 -0.14075000
31
  0.00000000
0
LINE
8
DC
6
CONTINUOUS
62
7
10
  0.12342679
20
 -0.14070000
30
  0.00000000
11
  0.12377321
21
 -0.14070000
31
  0.00000000
0
LINE
8
DC
6
CONTINUOUS
62
7
10
  0.12340635
20
 -0.14065000
30
  0.00000000
11
  0.12379365
21
 -0.14065000
31
  0.00000000
0
LINE
8
DC
6
CONTINUOUS
62
7
10
  0.12340000
20
 -0.14060000
30
  0.00000000
11
  0.12380000
21
 -0.14060000
31
  0.00000000
0
LINE
8
DC
6
CONTINUOUS
62
7
10
  0.12340635
20
 -0.14055000
30
  0.00000000
11
  0.12379365
21
 -0.14055000
31
  0.00000000
0
LINE
8
DC
6
CONTINUOUS
62
7
10
  0.12342679
20
 -0.14050000
30
  0.00000000
11
  0.12377321
21
 -0.14050000
31
  0.00000000
0
LINE
8
DC
6
CONTINUOUS
62
7
10
  0.12346771
20
 -0.14045000
30
  0.00000000
11
  0.12373229
21
 -0.14045000
31
  0.00000000
0
CIRCLE
8
DC
6
CONTINUOUS
62
7
10
  0.12360000
20
 -0.14060000
30
  0.00000000
40
  0.00020000
0
LINE
8
DC
6
CONTINUOUS
62
7
10
  0.12460000
20
 -0.14080000
30
  0.00000000
11
  0.12460000
21
 -0.14080000
31
  0.00000000
0
LINE
8
DC
6
CONTINUOUS
62
7
10
  0.12446771
20
 -0.14075000
30
  0.00000000
11
  0.12473229
21
 -0.14075000
31
  0.00000000
0
LINE
8
DC
6
CONTINUOUS
62
7
10
  0.12442679
20
 -0.14070000
30
  0.00000000
11
  0.12477321
21
 -0.14070000
31
  0.00000000
0
LINE
8
DC
6
CONTINUOUS
62
7
10
  0.12440635
20
 -0.14065000
30
  0.00000000
11
  0.12479365
21
 -0.14065000
31
  0.00000000
0
LINE
8
DC
6
CONTINUOUS
62
7
10
  0.12440000
20
 -0.14060000
30
  0.00000000
11
  0.12480000
21
 -0.14060000
31
  0.00000000
0
LINE
8
DC
6
CONTINUOUS
62
7
10
  0.12440635
20
 -0.14055000
30
  0.00000000
11
  0.12479365
21
 -0.14055000
31
  0.00000000
0
LINE
8
DC
6
CONTINUOUS
62
7
10
  0.12442679
20
 -0.14050000
30
  0.00000000
11
  0.12477321
21
 -0.14050000
31
  0.00000000
0
LINE
8
DC
6
CONTINUOUS
62
7
10
  0.12446771
20
 -0.14045000
30
  0.00000000
11
  0.12473229
21
 -0.14045000
31
  0.00000000
0
CIRCLE
8
DC
6
CONTINUOUS
62
7
10
  0.12460000
20
 -0.14060000
30
  0.00000000
40
  0.00020000
0
LINE
8
DC
6
CONTINUOUS
62
7
10
  0.12560000
20
 -0.14080000
30
  0.00000000
11
  0.12560000
21
 -0.14080000
31
  0.00000000
0
LINE
8
DC
6
CONTINUOUS
62
7
10
  0.12546771
20
 -0.14075000
30
  0.00000000
11
  0.12573229
21
 -0.14075000
31
  0.00000000
0
LINE
8
DC
6
CONTINUOUS
62
7
10
  0.12542679
20
 -0.14070000
30
  0.00000000
11
  0.12577321
21
 -0.14070000
31
  0.00000000
0
LINE
8
DC
6
CONTINUOUS
62
7
10
  0.12540635
20
 -0.14065000
30
  0.00000000
11
  0.12579365
21
 -0.14065000
31
  0.00000000
0
LINE
8
DC
6
CONTINUOUS
62
7
10
  0.12540000
20
 -0.14060000
30
  0.00000000
11
  0.12580000
21
 -0.14060000
31
  0.00000000
0
LINE
8
DC
6
CONTINUOUS
62
7
10
  0.12540635
20
 -0.14055000
30
  0.00000000
11
  0.12579365
21
 -0.14055000
31
  0.00000000
0
LINE
8
DC
6
CONTINUOUS
62
7
10
  0.12542679
20
 -0.14050000
30
  0.00000000
11
  0.12577321
21
 -0.14050000
31
  0.00000000
0
LINE
8
DC
6
CONTINUOUS
62
7
10
  0.12546771
20
 -0.14045000
30
  0.00000000
11
  0.12573229
21
 -0.14045000
31
  0.00000000
0
CIRCLE
8
DC
6
CONTINUOUS
62
7
10
  0.12560000
20
 -0.14060000
30
  0.00000000
40
  0.00020000
0
LINE
8
DC
6
CONTINUOUS
62
7
10
  0.12660000
20
 -0.14080000
30
  0.00000000
11
  0.12660000
21
 -0.14080000
31
  0.00000000
0
LINE
8
DC
6
CONTINUOUS
62
7
10
  0.12646771
20
 -0.14075000
30
  0.00000000
11
  0.12673229
21
 -0.14075000
31
  0.00000000
0
LINE
8
DC
6
CONTINUOUS
62
7
10
  0.12642679
20
 -0.14070000
30
  0.00000000
11
  0.12677321
21
 -0.14070000
31
  0.00000000
0
LINE
8
DC
6
CONTINUOUS
62
7
10
  0.12640635
20
 -0.14065000
30
  0.00000000
11
  0.12679365
21
 -0.14065000
31
  0.00000000
0
LINE
8
DC
6
CONTINUOUS
62
7
10
  0.12640000
20
 -0.14060000
30
  0.00000000
11
  0.12680000
21
 -0.14060000
31
  0.00000000
0
LINE
8
DC
6
CONTINUOUS
62
7
10
  0.12640635
20
 -0.14055000
30
  0.00000000
11
  0.12679365
21
 -0.14055000
31
  0.00000000
0
LINE
8
DC
6
CONTINUOUS
62
7
10
  0.12642679
20
 -0.14050000
30
  0.00000000
11
  0.12677321
21
 -0.14050000
31
  0.00000000
0
LINE
8
DC
6
CONTINUOUS
62
7
10
  0.12646771
20
 -0.14045000
30
  0.00000000
11
  0.12673229
21
 -0.14045000
31
  0.00000000
0
CIRCLE
8
DC
6
CONTINUOUS
62
7
10
  0.12660000
20
 -0.14060000
30
  0.00000000
40
  0.00020000
0
LINE
8
DC
6
CONTINUOUS
62
7
10
  0.12190000
20
 -0.14480000
30
  0.00000000
11
  0.12440000
21
 -0.14230000
31
  0.00000000
0
LINE
8
DC
6
CONTINUOUS
62
7
10
  0.12660000
20
 -0.14510000
30
  0.00000000
11
  0.12690000
21
 -0.14480000
31
  0.00000000
0
LINE
8
DC
6
CONTINUOUS
62
7
10
  0.12410000
20
 -0.14510000
30
  0.00000000
11
  0.12690000
21
 -0.14230000
31
  0.00000000
0
CIRCLE
8
DC
6
CONTINUOUS
62
7
10
  0.12390000
20
 -0.14400000
30
  0.00000000
40
  0.00060000
0
CIRCLE
8
DC
6
CONTINUOUS
62
7
10
  0.12620000
20
 -0.14400000
30
  0.00000000
40
  0.00060000
0
LINE
8
DC
6
CONTINUOUS
62
7
10
  0.12440000
20
 -0.14290000
30
  0.00000000
11
  0.12490000
21
 -0.14240000
31
  0.00000000
0
LINE
8
DC
6
CONTINUOUS
62
7
10
  0.12460000
20
 -0.14260000
30
  0.00000000
11
  0.12540000
21
 -0.14340000
31
  0.00000000
0
LINE
8
DC
6
CONTINUOUS
62
7
10
  0.12510000
20
 -0.14360000
30
  0.00000000
11
  0.12560000
21
 -0.14310000
31
  0.00000000
0
LINE
8
DC
6
CONTINUOUS
62
7
10
  0.12200000
20
 -0.14280000
30
  0.00000000
11
  0.12250000
21
 -0.14230000
31
  0.00000000
0
LINE
8
DC
6
CONTINUOUS
62
7
10
  0.12220000
20
 -0.14250000
30
  0.00000000
11
  0.12300000
21
 -0.14330000
31
  0.00000000
0
LINE
8
DC
6
CONTINUOUS
62
7
10
  0.12270000
20
 -0.14350000
30
  0.00000000
11
  0.12320000
21
 -0.14300000
31
  0.00000000
0
LINE
8
DC
6
CONTINUOUS
62
7
10
  0.11690000
20
 -0.09100000
30
  0.00000000
11
  0.13190000
21
 -0.09100000
31
  0.00000000
0
LINE
8
DC
6
CONTINUOUS
62
7
10
  0.13190000
20
 -0.09100000
30
  0.00000000
11
  0.13290000
21
 -0.09700000
31
  0.00000000
0
LINE
8
DC
6
CONTINUOUS
62
7
10
  0.13290000
20
 -0.09700000
30
  0.00000000
11
  0.17390000
21
 -0.09700000
31
  0.00000000
0
LINE
8
DC
6
CONTINUOUS
62
7
10
  0.11690000
20
 -0.14500000
30
  0.00000000
11
  0.11590000
21
 -0.14500000
31
  0.00000000
0
LINE
8
DC
6
CONTINUOUS
62
7
10
  0.10650000
20
 -0.14500000
30
  0.00000000
11
  0.11590000
21
 -0.14500000
31
  0.00000000
0
TEXT
8
DC
62
7
10
  0.11590000
20
 -0.14450000
30
  0.00000000
40
  0.00250000
41
  0.60000000
1
    5.00m
50
  0.00000000
72
2
73
0
11
  0.11590000
21
 -0.14450000
31
  0.00000000
0
TEXT
8
DC
62
7
10
  0.13390000
20
 -0.11630000
30
  0.00000000
40
  0.00216667
41
  0.60000000
1
Geschiebemergel, Ton, stark 
50
  0.00000000
72
0
73
1
11
  0.13390000
21
 -0.11630000
31
  0.00000000
0
TEXT
8
DC
62
7
10
  0.13390000
20
 -0.11940000
30
  0.00000000
40
  0.00216667
41
  0.60000000
1
schluffig, schwach feinsandig
50
  0.00000000
72
0
73
1
11
  0.13390000
21
 -0.11940000
31
  0.00000000
0
TEXT
8
DC
62
7
10
  0.13390000
20
 -0.12250000
30
  0.00000000
40
  0.00216667
41
  0.60000000
1
halbfest
50
  0.00000000
72
0
73
1
11
  0.13390000
21
 -0.12250000
31
  0.00000000
0
TEXT
8
DC
62
7
10
  0.13390000
20
 -0.12560000
30
  0.00000000
40
  0.00216667
41
  0.60000000
1
erdfeucht
50
  0.00000000
72
0
73
1
11
  0.13390000
21
 -0.12560000
31
  0.00000000
0
TEXT
8
DC
62
7
10
  0.13390000
20
 -0.12870000
30
  0.00000000
40
  0.00216667
41
  0.60000000
1
grüngrau
50
  0.00000000
72
0
73
1
11
  0.13390000
21
 -0.12870000
31
  0.00000000
0
CIRCLE
8
DC
6
CONTINUOUS
62
7
10
  0.18210000
20
 -0.12100000
30
  0.00000000
40
  0.00720000
0
TEXT
8
DC
62
7
10
  0.18010000
20
 -0.12300000
30
  0.00000000
40
  0.00250000
41
  0.60000000
1
TL
50
  0.00000000
72
0
73
1
11
  0.18010000
21
 -0.12300000
31
  0.00000000
0
LINE
8
DC
6
CONTINUOUS
62
7
10
  0.16770000
20
 -0.11790000
30
  0.00000000
11
  0.17390000
21
 -0.11790000
31
  0.00000000
0
LINE
8
DC
6
CONTINUOUS
62
7
10
  0.17390000
20
 -0.11790000
30
  0.00000000
11
  0.17390000
21
 -0.12410000
31
  0.00000000
0
LINE
8
DC
6
CONTINUOUS
62
7
10
  0.17390000
20
 -0.12410000
30
  0.00000000
11
  0.16770000
21
 -0.12410000
31
  0.00000000
0
LINE
8
DC
6
CONTINUOUS
62
7
10
  0.16770000
20
 -0.12410000
30
  0.00000000
11
  0.16770000
21
 -0.11790000
31
  0.00000000
0
TEXT
8
DC
62
7
10
  0.17080000
20
 -0.12300000
30
  0.00000000
40
  0.00250000
41
  0.60000000
1
4
50
  0.00000000
72
1
73
1
11
  0.17080000
21
 -0.12300000
31
  0.00000000
0
LINE
8
DC
6
CONTINUOUS
62
7
10
  0.11690000
20
 -0.14500000
30
  0.00000000
11
  0.17390000
21
 -0.14500000
31
  0.00000000
0
TEXT
8
DC
62
7
10
  0.11690000
20
 -0.14850000
30
  0.00000000
40
  0.00250000
41
  0.60000000
1
Endtiefe
50
  0.00000000
72
2
73
1
11
  0.11690000
21
 -0.14850000
31
  0.00000000
0
TEXT
8
DC
62
7
10
  0.12190000
20
 -0.15250000
30
  0.00000000
40
  0.00250000
41
  0.60000000
1
Station 0+964.000
50
  0.00000000
72
1
73
1
11
  0.12190000
21
 -0.15250000
31
  0.00000000
0
LINE
8
DC
6
CONTINUOUS
62
7
10
  0.11690000
20
 -0.04500000
30
  0.00000000
11
  0.12690000
21
 -0.04500000
31
  0.00000000
0
LINE
8
DC
6
CONTINUOUS
62
7
10
  0.12690000
20
 -0.04500000
30
  0.00000000
11
  0.12690000
21
 -0.14500000
31
  0.00000000
0
LINE
8
DC
6
CONTINUOUS
62
7
10
  0.12690000
20
 -0.14500000
30
  0.00000000
11
  0.11690000
21
 -0.14500000
31
  0.00000000
0
LINE
8
DC
6
CONTINUOUS
62
7
10
  0.11690000
20
 -0.14500000
30
  0.00000000
11
  0.11690000
21
 -0.04500000
31
  0.00000000
0
TEXT
8
DC
62
7
10
  0.12190000
20
 -0.03600000
30
  0.00000000
40
  0.00500000
41
  0.60000000
1
BS 4/22
50
  0.00000000
72
1
73
0
11
  0.12190000
21
 -0.03600000
31
  0.00000000
0
TEXT
8
DC
62
7
10
  0.12190000
20
 -0.04100000
30
  0.00000000
40
  0.00250000
41
  0.60000000
1
Ansatzpunkt:GOK
50
  0.00000000
72
1
73
0
11
  0.12190000
21
 -0.04100000
31
  0.00000000
0
LINE
8
DC
6
CONTINUOUS
62
7
10
  0.03470000
20
 -0.04500000
30
  0.00000000
11
  0.05110000
21
 -0.04500000
31
  0.00000000
0
LINE
8
DC
6
CONTINUOUS
62
7
10
  0.03610000
20
 -0.04500000
30
  0.00000000
11
  0.03470000
21
 -0.04210000
31
  0.00000000
0
LINE
8
DC
6
CONTINUOUS
62
7
10
  0.03470000
20
 -0.04210000
30
  0.00000000
11
  0.03760000
21
 -0.04210000
31
  0.00000000
0
LINE
8
DC
6
CONTINUOUS
62
7
10
  0.03760000
20
 -0.04210000
30
  0.00000000
11
  0.03610000
21
 -0.04500000
31
  0.00000000
0
TEXT
8
DC
62
7
10
  0.03890000
20
 -0.04300000
30
  0.00000000
40
  0.00250000
41
  0.60000000
1
   0.00m
50
  0.00000000
72
0
73
0
11
  0.03890000
21
 -0.04300000
31
  0.00000000
0
LINE
8
DC
6
CONTINUOUS
62
7
10
  0.03470000
20
 -0.06500000
30
  0.00000000
11
  0.05110000
21
 -0.06500000
31
  0.00000000
0
LINE
8
DC
6
CONTINUOUS
62
7
10
  0.03610000
20
 -0.06500000
30
  0.00000000
11
  0.03470000
21
 -0.06210000
31
  0.00000000
0
LINE
8
DC
6
CONTINUOUS
62
7
10
  0.03470000
20
 -0.06210000
30
  0.00000000
11
  0.03760000
21
 -0.06210000
31
  0.00000000
0
LINE
8
DC
6
CONTINUOUS
62
7
10
  0.03760000
20
 -0.06210000
30
  0.00000000
11
  0.03610000
21
 -0.06500000
31
  0.00000000
0
TEXT
8
DC
62
7
10
  0.03890000
20
 -0.06300000
30
  0.00000000
40
  0.00250000
41
  0.60000000
1
  -1.00m
50
  0.00000000
72
0
73
0
11
  0.03890000
21
 -0.06300000
31
  0.00000000
0
LINE
8
DC
6
CONTINUOUS
62
7
10
  0.03470000
20
 -0.08500000
30
  0.00000000
11
  0.05110000
21
 -0.08500000
31
  0.00000000
0
LINE
8
DC
6
CONTINUOUS
62
7
10
  0.03610000
20
 -0.08500000
30
  0.00000000
11
  0.03470000
21
 -0.08210000
31
  0.00000000
0
LINE
8
DC
6
CONTINUOUS
62
7
10
  0.03470000
20
 -0.08210000
30
  0.00000000
11
  0.03760000
21
 -0.08210000
31
  0.00000000
0
LINE
8
DC
6
CONTINUOUS
62
7
10
  0.03760000
20
 -0.08210000
30
  0.00000000
11
  0.03610000
21
 -0.08500000
31
  0.00000000
0
TEXT
8
DC
62
7
10
  0.03890000
20
 -0.08300000
30
  0.00000000
40
  0.00250000
41
  0.60000000
1
  -2.00m
50
  0.00000000
72
0
73
0
11
  0.03890000
21
 -0.08300000
31
  0.00000000
0
LINE
8
DC
6
CONTINUOUS
62
7
10
  0.03470000
20
 -0.10500000
30
  0.00000000
11
  0.05110000
21
 -0.10500000
31
  0.00000000
0
LINE
8
DC
6
CONTINUOUS
62
7
10
  0.03610000
20
 -0.10500000
30
  0.00000000
11
  0.03470000
21
 -0.10210000
31
  0.00000000
0
LINE
8
DC
6
CONTINUOUS
62
7
10
  0.03470000
20
 -0.10210000
30
  0.00000000
11
  0.03760000
21
 -0.10210000
31
  0.00000000
0
LINE
8
DC
6
CONTINUOUS
62
7
10
  0.03760000
20
 -0.10210000
30
  0.00000000
11
  0.03610000
21
 -0.10500000
31
  0.00000000
0
TEXT
8
DC
62
7
10
  0.03890000
20
 -0.10300000
30
  0.00000000
40
  0.00250000
41
  0.60000000
1
  -3.00m
50
  0.00000000
72
0
73
0
11
  0.03890000
21
 -0.10300000
31
  0.00000000
0
LINE
8
DC
6
CONTINUOUS
62
7
10
  0.03470000
20
 -0.12500000
30
  0.00000000
11
  0.05110000
21
 -0.12500000
31
  0.00000000
0
LINE
8
DC
6
CONTINUOUS
62
7
10
  0.03610000
20
 -0.12500000
30
  0.00000000
11
  0.03470000
21
 -0.12210000
31
  0.00000000
0
LINE
8
DC
6
CONTINUOUS
62
7
10
  0.03470000
20
 -0.12210000
30
  0.00000000
11
  0.03760000
21
 -0.12210000
31
  0.00000000
0
LINE
8
DC
6
CONTINUOUS
62
7
10
  0.03760000
20
 -0.12210000
30
  0.00000000
11
  0.03610000
21
 -0.12500000
31
  0.00000000
0
TEXT
8
DC
62
7
10
  0.03890000
20
 -0.12300000
30
  0.00000000
40
  0.00250000
41
  0.60000000
1
  -4.00m
50
  0.00000000
72
0
73
0
11
  0.03890000
21
 -0.12300000
31
  0.00000000
0
LINE
8
DC
6
CONTINUOUS
62
7
10
  0.03470000
20
 -0.14500000
30
  0.00000000
11
  0.05110000
21
 -0.14500000
31
  0.00000000
0
LINE
8
DC
6
CONTINUOUS
62
7
10
  0.03610000
20
 -0.14500000
30
  0.00000000
11
  0.03470000
21
 -0.14210000
31
  0.00000000
0
LINE
8
DC
6
CONTINUOUS
62
7
10
  0.03470000
20
 -0.14210000
30
  0.00000000
11
  0.03760000
21
 -0.14210000
31
  0.00000000
0
LINE
8
DC
6
CONTINUOUS
62
7
10
  0.03760000
20
 -0.14210000
30
  0.00000000
11
  0.03610000
21
 -0.14500000
31
  0.00000000
0
TEXT
8
DC
62
7
10
  0.03890000
20
 -0.14300000
30
  0.00000000
40
  0.00250000
41
  0.60000000
1
  -5.00m
50
  0.00000000
72
0
73
0
11
  0.03890000
21
 -0.14300000
31
  0.00000000
0
LINE
8
DC
6
CONTINUOUS
62
7
10
  0.03470000
20
 -0.16500000
30
  0.00000000
11
  0.05110000
21
 -0.16500000
31
  0.00000000
0
LINE
8
DC
6
CONTINUOUS
62
7
10
  0.03610000
20
 -0.16500000
30
  0.00000000
11
  0.03470000
21
 -0.16210000
31
  0.00000000
0
LINE
8
DC
6
CONTINUOUS
62
7
10
  0.03470000
20
 -0.16210000
30
  0.00000000
11
  0.03760000
21
 -0.16210000
31
  0.00000000
0
LINE
8
DC
6
CONTINUOUS
62
7
10
  0.03760000
20
 -0.16210000
30
  0.00000000
11
  0.03610000
21
 -0.16500000
31
  0.00000000
0
TEXT
8
DC
62
7
10
  0.03890000
20
 -0.16300000
30
  0.00000000
40
  0.00250000
41
  0.60000000
1
  -6.00m
50
  0.00000000
72
0
73
0
11
  0.03890000
21
 -0.16300000
31
  0.00000000
0
ENDSEC
0
EOF
