0
SECTION
2
HEADER
9
$EXTMIN
10
  0.0000
20
  0.0000
30
  0.0000
9
$EXTMAX
10
  0.2090
20
  0.2960
30
  0.0000
9
$LIMMIN
10
  0.0000
20
  0.0000
9
$LIMMAX
10
  0.2090
20
  0.2960
0
ENDSEC
0
SECTION
2
TABLES
0
TABLE
2
LTYPE
70
5
0
LTYPE
2
CONTINUOUS
70
64
3
CONTINUOUS
72
65
73
2
40
0
0
LTYPE
2
GESTRICHELT
70
64
3
GESTRICHELT
72
65
73
2
40
0.00125
49
0.000875
49
-0.000375
0
LTYPE
2
PUNKT
70
64
3
PUNKT
72
65
73
2
40
0.000625
49
0.000125
49
-0.0005
0
LTYPE
2
STRICHPUNKT
70
64
3
STRICHPUNKT
72
65
73
4
40
0.00175
49
0.000875
49
-0.000375
49
0.000125
49
-0.000375
0
LTYPE
2
GETRENNT
70
64
3
GETRENNT
72
65
73
6
40
0.00225
49
0.000875
49
-0.000375
49
0.000125
49
-0.000375
49
0.000125
49
-0.000375
0
ENDTAB
0
TABLE
2
LAYER
70
2
0
LAYER
2
Rahmen
70
0
62
7
6
CONTINUOUS
0
LAYER
2
DC
70
0
62
7
6
CONTINUOUS
0
ENDTAB
0
ENDSEC
0
SECTION
2
ENTITIES
0
LINE
8
Rahmen
6
CONTINUOUS
62
7
10
  0.00020000
20
 -0.00020000
30
  0.00000000
11
  0.20880000
21
 -0.00020000
31
  0.00000000
0
LINE
8
Rahmen
6
CONTINUOUS
62
7
10
  0.20880000
20
 -0.00020000
30
  0.00000000
11
  0.20880000
21
 -0.29580000
31
  0.00000000
0
LINE
8
Rahmen
6
CONTINUOUS
62
7
10
  0.20880000
20
 -0.29580000
30
  0.00000000
11
  0.00020000
21
 -0.29580000
31
  0.00000000
0
LINE
8
Rahmen
6
CONTINUOUS
62
7
10
  0.00020000
20
 -0.29580000
30
  0.00000000
11
  0.00020000
21
 -0.00020000
31
  0.00000000
0
LINE
8
Rahmen
6
CONTINUOUS
62
7
10
  0.00020000
20
 -0.14790000
30
  0.00000000
11
  0.01020000
21
 -0.14790000
31
  0.00000000
0
SOLID
8
Rahmen
62
255
10
  0.20430000
20
 -0.29530000
30
  0.00000000
11
  0.20830000
21
 -0.29530000
31
  0.00000000
12
  0.20430000
22
 -0.29130000
32
  0.00000000
13
  0.20830000
23
 -0.29130000
33
  0.00000000
0
LINE
8
Rahmen
6
CONTINUOUS
62
7
10
  0.20430000
20
 -0.29530000
30
  0.00000000
11
  0.20830000
21
 -0.29530000
31
  0.00000000
0
LINE
8
Rahmen
6
CONTINUOUS
62
7
10
  0.20830000
20
 -0.29530000
30
  0.00000000
11
  0.20830000
21
 -0.29130000
31
  0.00000000
0
LINE
8
Rahmen
6
CONTINUOUS
62
7
10
  0.20830000
20
 -0.29130000
30
  0.00000000
11
  0.20430000
21
 -0.29130000
31
  0.00000000
0
LINE
8
Rahmen
6
CONTINUOUS
62
7
10
  0.20430000
20
 -0.29130000
30
  0.00000000
11
  0.20430000
21
 -0.29530000
31
  0.00000000
0
TEXT
8
Rahmen
62
7
10
  0.20630000
20
 -0.29450000
30
  0.00000000
40
  0.00191667
41
  0.60000000
1
DC
50
  0.00000000
72
1
73
1
11
  0.20630000
21
 -0.29450000
31
  0.00000000
0
LINE
8
Rahmen
6
CONTINUOUS
62
7
10
  0.02000000
20
 -0.00500000
30
  0.00000000
11
  0.20400000
21
 -0.00500000
31
  0.00000000
0
LINE
8
Rahmen
6
CONTINUOUS
62
7
10
  0.20400000
20
 -0.00500000
30
  0.00000000
11
  0.20400000
21
 -0.29100000
31
  0.00000000
0
LINE
8
Rahmen
6
CONTINUOUS
62
7
10
  0.20400000
20
 -0.29100000
30
  0.00000000
11
  0.02000000
21
 -0.29100000
31
  0.00000000
0
LINE
8
Rahmen
6
CONTINUOUS
62
7
10
  0.02000000
20
 -0.29100000
30
  0.00000000
11
  0.02000000
21
 -0.00500000
31
  0.00000000
0
LINE
8
Rahmen
6
CONTINUOUS
62
7
10
  0.02000000
20
 -0.00500000
30
  0.00000000
11
  0.09000000
21
 -0.00500000
31
  0.00000000
0
LINE
8
Rahmen
6
CONTINUOUS
62
7
10
  0.02000000
20
 -0.01000000
30
  0.00000000
11
  0.09000000
21
 -0.01000000
31
  0.00000000
0
LINE
8
Rahmen
6
CONTINUOUS
62
7
10
  0.02000000
20
 -0.00500000
30
  0.00000000
11
  0.02000000
21
 -0.01000000
31
  0.00000000
0
LINE
8
Rahmen
6
CONTINUOUS
62
7
10
  0.09000000
20
 -0.00500000
30
  0.00000000
11
  0.09000000
21
 -0.01000000
31
  0.00000000
0
TEXT
8
Rahmen
62
7
10
  0.02100000
20
 -0.00970000
30
  0.00000000
40
  0.00300000
41
  0.60000000
1
Ingenieurbüro TBV GmbH
50
  0.00000000
72
0
73
1
11
  0.02100000
21
 -0.00970000
31
  0.00000000
0
LINE
8
Rahmen
6
CONTINUOUS
62
7
10
  0.09000000
20
 -0.00500000
30
  0.00000000
11
  0.20400000
21
 -0.00500000
31
  0.00000000
0
LINE
8
Rahmen
6
CONTINUOUS
62
7
10
  0.09000000
20
 -0.01000000
30
  0.00000000
11
  0.20400000
21
 -0.01000000
31
  0.00000000
0
LINE
8
Rahmen
6
CONTINUOUS
62
7
10
  0.09000000
20
 -0.00500000
30
  0.00000000
11
  0.09000000
21
 -0.01000000
31
  0.00000000
0
LINE
8
Rahmen
6
CONTINUOUS
62
7
10
  0.20400000
20
 -0.00500000
30
  0.00000000
11
  0.20400000
21
 -0.01000000
31
  0.00000000
0
TEXT
8
Rahmen
62
7
10
  0.09100000
20
 -0.00970000
30
  0.00000000
40
  0.00300000
41
  0.60000000
1
Projekt     :
50
  0.00000000
72
0
73
1
11
  0.09100000
21
 -0.00970000
31
  0.00000000
0
TEXT
8
Rahmen
62
7
10
  0.11100000
20
 -0.00970000
30
  0.00000000
40
  0.00300000
41
  0.60000000
1
Neuverlegung VBL SW-Kanal Söhesten-Stößwitz
50
  0.00000000
72
0
73
1
11
  0.11100000
21
 -0.00970000
31
  0.00000000
0
LINE
8
Rahmen
6
CONTINUOUS
62
7
10
  0.02000000
20
 -0.01000000
30
  0.00000000
11
  0.09000000
21
 -0.01000000
31
  0.00000000
0
LINE
8
Rahmen
6
CONTINUOUS
62
7
10
  0.02000000
20
 -0.01500000
30
  0.00000000
11
  0.09000000
21
 -0.01500000
31
  0.00000000
0
LINE
8
Rahmen
6
CONTINUOUS
62
7
10
  0.02000000
20
 -0.01000000
30
  0.00000000
11
  0.02000000
21
 -0.01500000
31
  0.00000000
0
LINE
8
Rahmen
6
CONTINUOUS
62
7
10
  0.09000000
20
 -0.01000000
30
  0.00000000
11
  0.09000000
21
 -0.01500000
31
  0.00000000
0
TEXT
8
Rahmen
62
7
10
  0.02100000
20
 -0.01470000
30
  0.00000000
40
  0.00300000
41
  0.60000000
1
Baenschstraße 6
50
  0.00000000
72
0
73
1
11
  0.02100000
21
 -0.01470000
31
  0.00000000
0
LINE
8
Rahmen
6
CONTINUOUS
62
7
10
  0.09000000
20
 -0.01000000
30
  0.00000000
11
  0.20400000
21
 -0.01000000
31
  0.00000000
0
LINE
8
Rahmen
6
CONTINUOUS
62
7
10
  0.09000000
20
 -0.01500000
30
  0.00000000
11
  0.20400000
21
 -0.01500000
31
  0.00000000
0
LINE
8
Rahmen
6
CONTINUOUS
62
7
10
  0.09000000
20
 -0.01000000
30
  0.00000000
11
  0.09000000
21
 -0.01500000
31
  0.00000000
0
LINE
8
Rahmen
6
CONTINUOUS
62
7
10
  0.20400000
20
 -0.01000000
30
  0.00000000
11
  0.20400000
21
 -0.01500000
31
  0.00000000
0
TEXT
8
Rahmen
62
7
10
  0.09100000
20
 -0.01470000
30
  0.00000000
40
  0.00300000
41
  0.60000000
1
Projektnr.:
50
  0.00000000
72
0
73
1
11
  0.09100000
21
 -0.01470000
31
  0.00000000
0
TEXT
8
Rahmen
62
7
10
  0.11100000
20
 -0.01470000
30
  0.00000000
40
  0.00300000
41
  0.60000000
1
22/12068.1
50
  0.00000000
72
0
73
1
11
  0.11100000
21
 -0.01470000
31
  0.00000000
0
LINE
8
Rahmen
6
CONTINUOUS
62
7
10
  0.02000000
20
 -0.01500000
30
  0.00000000
11
  0.09000000
21
 -0.01500000
31
  0.00000000
0
LINE
8
Rahmen
6
CONTINUOUS
62
7
10
  0.02000000
20
 -0.02000000
30
  0.00000000
11
  0.09000000
21
 -0.02000000
31
  0.00000000
0
LINE
8
Rahmen
6
CONTINUOUS
62
7
10
  0.02000000
20
 -0.01500000
30
  0.00000000
11
  0.02000000
21
 -0.02000000
31
  0.00000000
0
LINE
8
Rahmen
6
CONTINUOUS
62
7
10
  0.09000000
20
 -0.01500000
30
  0.00000000
11
  0.09000000
21
 -0.02000000
31
  0.00000000
0
TEXT
8
Rahmen
62
7
10
  0.02100000
20
 -0.01970000
30
  0.00000000
40
  0.00300000
41
  0.60000000
1
06712 Zeitz
50
  0.00000000
72
0
73
1
11
  0.02100000
21
 -0.01970000
31
  0.00000000
0
LINE
8
Rahmen
6
CONTINUOUS
62
7
10
  0.09000000
20
 -0.01500000
30
  0.00000000
11
  0.20400000
21
 -0.01500000
31
  0.00000000
0
LINE
8
Rahmen
6
CONTINUOUS
62
7
10
  0.09000000
20
 -0.02000000
30
  0.00000000
11
  0.20400000
21
 -0.02000000
31
  0.00000000
0
LINE
8
Rahmen
6
CONTINUOUS
62
7
10
  0.09000000
20
 -0.01500000
30
  0.00000000
11
  0.09000000
21
 -0.02000000
31
  0.00000000
0
LINE
8
Rahmen
6
CONTINUOUS
62
7
10
  0.20400000
20
 -0.01500000
30
  0.00000000
11
  0.20400000
21
 -0.02000000
31
  0.00000000
0
TEXT
8
Rahmen
62
7
10
  0.09100000
20
 -0.01970000
30
  0.00000000
40
  0.00300000
41
  0.60000000
1
Anlage     :
50
  0.00000000
72
0
73
1
11
  0.09100000
21
 -0.01970000
31
  0.00000000
0
TEXT
8
Rahmen
62
7
10
  0.11100000
20
 -0.01970000
30
  0.00000000
40
  0.00300000
41
  0.60000000
1
Bereich 1: VS Kreischau-Stößwitz
50
  0.00000000
72
0
73
1
11
  0.11100000
21
 -0.01970000
31
  0.00000000
0
LINE
8
Rahmen
6
CONTINUOUS
62
7
10
  0.02000000
20
 -0.02000000
30
  0.00000000
11
  0.09000000
21
 -0.02000000
31
  0.00000000
0
LINE
8
Rahmen
6
CONTINUOUS
62
7
10
  0.02000000
20
 -0.02500000
30
  0.00000000
11
  0.09000000
21
 -0.02500000
31
  0.00000000
0
LINE
8
Rahmen
6
CONTINUOUS
62
7
10
  0.02000000
20
 -0.02000000
30
  0.00000000
11
  0.02000000
21
 -0.02500000
31
  0.00000000
0
LINE
8
Rahmen
6
CONTINUOUS
62
7
10
  0.09000000
20
 -0.02000000
30
  0.00000000
11
  0.09000000
21
 -0.02500000
31
  0.00000000
0
TEXT
8
Rahmen
62
7
10
  0.02100000
20
 -0.02470000
30
  0.00000000
40
  0.00300000
41
  0.60000000
1
Tel: 03441 215737
50
  0.00000000
72
0
73
1
11
  0.02100000
21
 -0.02470000
31
  0.00000000
0
LINE
8
Rahmen
6
CONTINUOUS
62
7
10
  0.09000000
20
 -0.02000000
30
  0.00000000
11
  0.20400000
21
 -0.02000000
31
  0.00000000
0
LINE
8
Rahmen
6
CONTINUOUS
62
7
10
  0.09000000
20
 -0.02500000
30
  0.00000000
11
  0.20400000
21
 -0.02500000
31
  0.00000000
0
LINE
8
Rahmen
6
CONTINUOUS
62
7
10
  0.09000000
20
 -0.02000000
30
  0.00000000
11
  0.09000000
21
 -0.02500000
31
  0.00000000
0
LINE
8
Rahmen
6
CONTINUOUS
62
7
10
  0.20400000
20
 -0.02000000
30
  0.00000000
11
  0.20400000
21
 -0.02500000
31
  0.00000000
0
TEXT
8
Rahmen
62
7
10
  0.09100000
20
 -0.02470000
30
  0.00000000
40
  0.00300000
41
  0.60000000
1
Maßstab  :
50
  0.00000000
72
0
73
1
11
  0.09100000
21
 -0.02470000
31
  0.00000000
0
TEXT
8
Rahmen
62
7
10
  0.11100000
20
 -0.02470000
30
  0.00000000
40
  0.00300000
41
  0.60000000
1
1: 50
50
  0.00000000
72
0
73
1
11
  0.11100000
21
 -0.02470000
31
  0.00000000
0
TEXT
8
Rahmen
62
7
10
  0.02100000
20
 -0.27570000
30
  0.00000000
40
  0.00300000
41
  0.60000000
1
Bemerkung
50
  0.00000000
72
0
73
1
11
  0.02100000
21
 -0.27570000
31
  0.00000000
0
LINE
8
Rahmen
6
CONTINUOUS
62
7
10
  0.02000000
20
 -0.00500000
30
  0.00000000
11
  0.09000000
21
 -0.00500000
31
  0.00000000
0
LINE
8
Rahmen
6
CONTINUOUS
62
7
10
  0.02000000
20
 -0.01000000
30
  0.00000000
11
  0.09000000
21
 -0.01000000
31
  0.00000000
0
LINE
8
Rahmen
6
CONTINUOUS
62
7
10
  0.02000000
20
 -0.00500000
30
  0.00000000
11
  0.02000000
21
 -0.01000000
31
  0.00000000
0
LINE
8
Rahmen
6
CONTINUOUS
62
7
10
  0.09000000
20
 -0.00500000
30
  0.00000000
11
  0.09000000
21
 -0.01000000
31
  0.00000000
0
LINE
8
Rahmen
6
CONTINUOUS
62
7
10
  0.09000000
20
 -0.00500000
30
  0.00000000
11
  0.20400000
21
 -0.00500000
31
  0.00000000
0
LINE
8
Rahmen
6
CONTINUOUS
62
7
10
  0.09000000
20
 -0.01000000
30
  0.00000000
11
  0.20400000
21
 -0.01000000
31
  0.00000000
0
LINE
8
Rahmen
6
CONTINUOUS
62
7
10
  0.09000000
20
 -0.00500000
30
  0.00000000
11
  0.09000000
21
 -0.01000000
31
  0.00000000
0
LINE
8
Rahmen
6
CONTINUOUS
62
7
10
  0.20400000
20
 -0.00500000
30
  0.00000000
11
  0.20400000
21
 -0.01000000
31
  0.00000000
0
LINE
8
Rahmen
6
CONTINUOUS
62
7
10
  0.02000000
20
 -0.01000000
30
  0.00000000
11
  0.09000000
21
 -0.01000000
31
  0.00000000
0
LINE
8
Rahmen
6
CONTINUOUS
62
7
10
  0.02000000
20
 -0.01500000
30
  0.00000000
11
  0.09000000
21
 -0.01500000
31
  0.00000000
0
LINE
8
Rahmen
6
CONTINUOUS
62
7
10
  0.02000000
20
 -0.01000000
30
  0.00000000
11
  0.02000000
21
 -0.01500000
31
  0.00000000
0
LINE
8
Rahmen
6
CONTINUOUS
62
7
10
  0.09000000
20
 -0.01000000
30
  0.00000000
11
  0.09000000
21
 -0.01500000
31
  0.00000000
0
LINE
8
Rahmen
6
CONTINUOUS
62
7
10
  0.09000000
20
 -0.01000000
30
  0.00000000
11
  0.20400000
21
 -0.01000000
31
  0.00000000
0
LINE
8
Rahmen
6
CONTINUOUS
62
7
10
  0.09000000
20
 -0.01500000
30
  0.00000000
11
  0.20400000
21
 -0.01500000
31
  0.00000000
0
LINE
8
Rahmen
6
CONTINUOUS
62
7
10
  0.09000000
20
 -0.01000000
30
  0.00000000
11
  0.09000000
21
 -0.01500000
31
  0.00000000
0
LINE
8
Rahmen
6
CONTINUOUS
62
7
10
  0.20400000
20
 -0.01000000
30
  0.00000000
11
  0.20400000
21
 -0.01500000
31
  0.00000000
0
LINE
8
Rahmen
6
CONTINUOUS
62
7
10
  0.02000000
20
 -0.01500000
30
  0.00000000
11
  0.09000000
21
 -0.01500000
31
  0.00000000
0
LINE
8
Rahmen
6
CONTINUOUS
62
7
10
  0.02000000
20
 -0.02000000
30
  0.00000000
11
  0.09000000
21
 -0.02000000
31
  0.00000000
0
LINE
8
Rahmen
6
CONTINUOUS
62
7
10
  0.02000000
20
 -0.01500000
30
  0.00000000
11
  0.02000000
21
 -0.02000000
31
  0.00000000
0
LINE
8
Rahmen
6
CONTINUOUS
62
7
10
  0.09000000
20
 -0.01500000
30
  0.00000000
11
  0.09000000
21
 -0.02000000
31
  0.00000000
0
LINE
8
Rahmen
6
CONTINUOUS
62
7
10
  0.09000000
20
 -0.01500000
30
  0.00000000
11
  0.20400000
21
 -0.01500000
31
  0.00000000
0
LINE
8
Rahmen
6
CONTINUOUS
62
7
10
  0.09000000
20
 -0.02000000
30
  0.00000000
11
  0.20400000
21
 -0.02000000
31
  0.00000000
0
LINE
8
Rahmen
6
CONTINUOUS
62
7
10
  0.09000000
20
 -0.01500000
30
  0.00000000
11
  0.09000000
21
 -0.02000000
31
  0.00000000
0
LINE
8
Rahmen
6
CONTINUOUS
62
7
10
  0.20400000
20
 -0.01500000
30
  0.00000000
11
  0.20400000
21
 -0.02000000
31
  0.00000000
0
LINE
8
Rahmen
6
CONTINUOUS
62
7
10
  0.02000000
20
 -0.02000000
30
  0.00000000
11
  0.09000000
21
 -0.02000000
31
  0.00000000
0
LINE
8
Rahmen
6
CONTINUOUS
62
7
10
  0.02000000
20
 -0.02500000
30
  0.00000000
11
  0.09000000
21
 -0.02500000
31
  0.00000000
0
LINE
8
Rahmen
6
CONTINUOUS
62
7
10
  0.02000000
20
 -0.02000000
30
  0.00000000
11
  0.02000000
21
 -0.02500000
31
  0.00000000
0
LINE
8
Rahmen
6
CONTINUOUS
62
7
10
  0.09000000
20
 -0.02000000
30
  0.00000000
11
  0.09000000
21
 -0.02500000
31
  0.00000000
0
LINE
8
Rahmen
6
CONTINUOUS
62
7
10
  0.09000000
20
 -0.02000000
30
  0.00000000
11
  0.20400000
21
 -0.02000000
31
  0.00000000
0
LINE
8
Rahmen
6
CONTINUOUS
62
7
10
  0.09000000
20
 -0.02500000
30
  0.00000000
11
  0.20400000
21
 -0.02500000
31
  0.00000000
0
LINE
8
Rahmen
6
CONTINUOUS
62
7
10
  0.09000000
20
 -0.02000000
30
  0.00000000
11
  0.09000000
21
 -0.02500000
31
  0.00000000
0
LINE
8
Rahmen
6
CONTINUOUS
62
7
10
  0.20400000
20
 -0.02000000
30
  0.00000000
11
  0.20400000
21
 -0.02500000
31
  0.00000000
0
LINE
8
Rahmen
6
CONTINUOUS
62
7
10
  0.02000000
20
 -0.27100000
30
  0.00000000
11
  0.20400000
21
 -0.27100000
31
  0.00000000
0
LINE
8
Rahmen
6
CONTINUOUS
62
7
10
  0.02000000
20
 -0.00500000
30
  0.00000000
11
  0.20400000
21
 -0.00500000
31
  0.00000000
0
LINE
8
Rahmen
6
CONTINUOUS
62
7
10
  0.20400000
20
 -0.00500000
30
  0.00000000
11
  0.20400000
21
 -0.29100000
31
  0.00000000
0
LINE
8
Rahmen
6
CONTINUOUS
62
7
10
  0.20400000
20
 -0.29100000
30
  0.00000000
11
  0.02000000
21
 -0.29100000
31
  0.00000000
0
LINE
8
Rahmen
6
CONTINUOUS
62
7
10
  0.02000000
20
 -0.29100000
30
  0.00000000
11
  0.02000000
21
 -0.00500000
31
  0.00000000
0
TEXT
8
DC
62
7
10
  0.09820000
20
 -0.14690000
30
  0.00000000
40
  0.00250000
41
  0.60000000
1
Kein Wasser
50
  0.00000000
72
2
73
0
11
  0.09820000
21
 -0.14690000
31
  0.00000000
0
TEXT
8
DC
62
7
10
  0.09820000
20
 -0.15100000
30
  0.00000000
40
  0.00250000
41
  0.60000000
1
(23.11.2022)
50
  0.00000000
72
2
73
0
11
  0.09820000
21
 -0.15100000
31
  0.00000000
0
LINE
8
DC
6
CONTINUOUS
62
7
10
  0.11960000
20
 -0.04500000
30
  0.00000000
11
  0.11860000
21
 -0.04500000
31
  0.00000000
0
LINE
8
DC
6
CONTINUOUS
62
7
10
  0.10920000
20
 -0.04500000
30
  0.00000000
11
  0.11860000
21
 -0.04500000
31
  0.00000000
0
TEXT
8
DC
62
7
10
  0.11860000
20
 -0.04450000
30
  0.00000000
40
  0.00250000
41
  0.60000000
1
    0.00m
50
  0.00000000
72
2
73
0
11
  0.11860000
21
 -0.04450000
31
  0.00000000
0
SOLID
8
DC
62
255
10
  0.11960000
20
 -0.04500000
30
  0.00000000
11
  0.12970000
21
 -0.04500000
31
  0.00000000
12
  0.11960000
22
 -0.04730000
32
  0.00000000
13
  0.12970000
23
 -0.04730000
33
  0.00000000
0
LINE
8
DC
6
CONTINUOUS
62
7
10
  0.11960000
20
 -0.04500000
30
  0.00000000
11
  0.12970000
21
 -0.04500000
31
  0.00000000
0
LINE
8
DC
6
CONTINUOUS
62
7
10
  0.12970000
20
 -0.04500000
30
  0.00000000
11
  0.12970000
21
 -0.04730000
31
  0.00000000
0
LINE
8
DC
6
CONTINUOUS
62
7
10
  0.12970000
20
 -0.04730000
30
  0.00000000
11
  0.11960000
21
 -0.04730000
31
  0.00000000
0
LINE
8
DC
6
CONTINUOUS
62
7
10
  0.11960000
20
 -0.04730000
30
  0.00000000
11
  0.11960000
21
 -0.04500000
31
  0.00000000
0
LINE
8
DC
6
CONTINUOUS
62
7
10
  0.11960000
20
 -0.04500000
30
  0.00000000
11
  0.17660000
21
 -0.04500000
31
  0.00000000
0
LINE
8
DC
6
CONTINUOUS
62
7
10
  0.11960000
20
 -0.04720000
30
  0.00000000
11
  0.11860000
21
 -0.04910000
31
  0.00000000
0
LINE
8
DC
6
CONTINUOUS
62
7
10
  0.10920000
20
 -0.04910000
30
  0.00000000
11
  0.11860000
21
 -0.04910000
31
  0.00000000
0
TEXT
8
DC
62
7
10
  0.11860000
20
 -0.04860000
30
  0.00000000
40
  0.00250000
41
  0.60000000
1
    0.11m
50
  0.00000000
72
2
73
0
11
  0.11860000
21
 -0.04860000
31
  0.00000000
0
TEXT
8
DC
62
7
10
  0.13660000
20
 -0.04860000
30
  0.00000000
40
  0.00216667
41
  0.60000000
1
Auffüllung, Asphalt
50
  0.00000000
72
0
73
1
11
  0.13660000
21
 -0.04860000
31
  0.00000000
0
TEXT
8
DC
62
7
10
  0.13660000
20
 -0.05170000
30
  0.00000000
40
  0.00216667
41
  0.60000000
1
rotgrau
50
  0.00000000
72
0
73
1
11
  0.13660000
21
 -0.05170000
31
  0.00000000
0
LINE
8
DC
6
CONTINUOUS
62
7
10
  0.13070000
20
 -0.04850000
30
  0.00000000
11
  0.13070000
21
 -0.04850000
31
  0.00000000
0
LINE
8
DC
6
CONTINUOUS
62
7
10
  0.13053417
20
 -0.04845000
30
  0.00000000
11
  0.13086583
21
 -0.04845000
31
  0.00000000
0
LINE
8
DC
6
CONTINUOUS
62
7
10
  0.13047639
20
 -0.04840000
30
  0.00000000
11
  0.13092361
21
 -0.04840000
31
  0.00000000
0
LINE
8
DC
6
CONTINUOUS
62
7
10
  0.13044019
20
 -0.04835000
30
  0.00000000
11
  0.13095981
21
 -0.04835000
31
  0.00000000
0
LINE
8
DC
6
CONTINUOUS
62
7
10
  0.13041716
20
 -0.04830000
30
  0.00000000
11
  0.13098284
21
 -0.04830000
31
  0.00000000
0
LINE
8
DC
6
CONTINUOUS
62
7
10
  0.13040420
20
 -0.04825000
30
  0.00000000
11
  0.13099580
21
 -0.04825000
31
  0.00000000
0
LINE
8
DC
6
CONTINUOUS
62
7
10
  0.13040000
20
 -0.04820000
30
  0.00000000
11
  0.13100000
21
 -0.04820000
31
  0.00000000
0
LINE
8
DC
6
CONTINUOUS
62
7
10
  0.13040420
20
 -0.04815000
30
  0.00000000
11
  0.13099580
21
 -0.04815000
31
  0.00000000
0
LINE
8
DC
6
CONTINUOUS
62
7
10
  0.13041716
20
 -0.04810000
30
  0.00000000
11
  0.13098284
21
 -0.04810000
31
  0.00000000
0
LINE
8
DC
6
CONTINUOUS
62
7
10
  0.13044019
20
 -0.04805000
30
  0.00000000
11
  0.13095981
21
 -0.04805000
31
  0.00000000
0
LINE
8
DC
6
CONTINUOUS
62
7
10
  0.13047639
20
 -0.04800000
30
  0.00000000
11
  0.13092361
21
 -0.04800000
31
  0.00000000
0
LINE
8
DC
6
CONTINUOUS
62
7
10
  0.13053417
20
 -0.04795000
30
  0.00000000
11
  0.13086583
21
 -0.04795000
31
  0.00000000
0
CIRCLE
8
DC
6
CONTINUOUS
62
7
10
  0.13070000
20
 -0.04820000
30
  0.00000000
40
  0.00030000
0
LINE
8
DC
6
CONTINUOUS
62
7
10
  0.13070000
20
 -0.05050000
30
  0.00000000
11
  0.13070000
21
 -0.05050000
31
  0.00000000
0
LINE
8
DC
6
CONTINUOUS
62
7
10
  0.13053417
20
 -0.05045000
30
  0.00000000
11
  0.13086583
21
 -0.05045000
31
  0.00000000
0
LINE
8
DC
6
CONTINUOUS
62
7
10
  0.13047639
20
 -0.05040000
30
  0.00000000
11
  0.13092361
21
 -0.05040000
31
  0.00000000
0
LINE
8
DC
6
CONTINUOUS
62
7
10
  0.13044019
20
 -0.05035000
30
  0.00000000
11
  0.13095981
21
 -0.05035000
31
  0.00000000
0
LINE
8
DC
6
CONTINUOUS
62
7
10
  0.13041716
20
 -0.05030000
30
  0.00000000
11
  0.13098284
21
 -0.05030000
31
  0.00000000
0
LINE
8
DC
6
CONTINUOUS
62
7
10
  0.13040420
20
 -0.05025000
30
  0.00000000
11
  0.13099580
21
 -0.05025000
31
  0.00000000
0
LINE
8
DC
6
CONTINUOUS
62
7
10
  0.13040000
20
 -0.05020000
30
  0.00000000
11
  0.13100000
21
 -0.05020000
31
  0.00000000
0
LINE
8
DC
6
CONTINUOUS
62
7
10
  0.13040420
20
 -0.05015000
30
  0.00000000
11
  0.13099580
21
 -0.05015000
31
  0.00000000
0
LINE
8
DC
6
CONTINUOUS
62
7
10
  0.13041716
20
 -0.05010000
30
  0.00000000
11
  0.13098284
21
 -0.05010000
31
  0.00000000
0
LINE
8
DC
6
CONTINUOUS
62
7
10
  0.13044019
20
 -0.05005000
30
  0.00000000
11
  0.13095981
21
 -0.05005000
31
  0.00000000
0
LINE
8
DC
6
CONTINUOUS
62
7
10
  0.13047639
20
 -0.05000000
30
  0.00000000
11
  0.13092361
21
 -0.05000000
31
  0.00000000
0
LINE
8
DC
6
CONTINUOUS
62
7
10
  0.13053417
20
 -0.04995000
30
  0.00000000
11
  0.13086583
21
 -0.04995000
31
  0.00000000
0
CIRCLE
8
DC
6
CONTINUOUS
62
7
10
  0.13070000
20
 -0.05020000
30
  0.00000000
40
  0.00030000
0
LINE
8
DC
6
CONTINUOUS
62
7
10
  0.13070000
20
 -0.05250000
30
  0.00000000
11
  0.13070000
21
 -0.05250000
31
  0.00000000
0
LINE
8
DC
6
CONTINUOUS
62
7
10
  0.13053417
20
 -0.05245000
30
  0.00000000
11
  0.13086583
21
 -0.05245000
31
  0.00000000
0
LINE
8
DC
6
CONTINUOUS
62
7
10
  0.13047639
20
 -0.05240000
30
  0.00000000
11
  0.13092361
21
 -0.05240000
31
  0.00000000
0
LINE
8
DC
6
CONTINUOUS
62
7
10
  0.13044019
20
 -0.05235000
30
  0.00000000
11
  0.13095981
21
 -0.05235000
31
  0.00000000
0
LINE
8
DC
6
CONTINUOUS
62
7
10
  0.13041716
20
 -0.05230000
30
  0.00000000
11
  0.13098284
21
 -0.05230000
31
  0.00000000
0
LINE
8
DC
6
CONTINUOUS
62
7
10
  0.13040420
20
 -0.05225000
30
  0.00000000
11
  0.13099580
21
 -0.05225000
31
  0.00000000
0
LINE
8
DC
6
CONTINUOUS
62
7
10
  0.13040000
20
 -0.05220000
30
  0.00000000
11
  0.13100000
21
 -0.05220000
31
  0.00000000
0
LINE
8
DC
6
CONTINUOUS
62
7
10
  0.13040420
20
 -0.05215000
30
  0.00000000
11
  0.13099580
21
 -0.05215000
31
  0.00000000
0
LINE
8
DC
6
CONTINUOUS
62
7
10
  0.13041716
20
 -0.05210000
30
  0.00000000
11
  0.13098284
21
 -0.05210000
31
  0.00000000
0
LINE
8
DC
6
CONTINUOUS
62
7
10
  0.13044019
20
 -0.05205000
30
  0.00000000
11
  0.13095981
21
 -0.05205000
31
  0.00000000
0
LINE
8
DC
6
CONTINUOUS
62
7
10
  0.13047639
20
 -0.05200000
30
  0.00000000
11
  0.13092361
21
 -0.05200000
31
  0.00000000
0
LINE
8
DC
6
CONTINUOUS
62
7
10
  0.13053417
20
 -0.05195000
30
  0.00000000
11
  0.13086583
21
 -0.05195000
31
  0.00000000
0
CIRCLE
8
DC
6
CONTINUOUS
62
7
10
  0.13070000
20
 -0.05220000
30
  0.00000000
40
  0.00030000
0
LINE
8
DC
6
CONTINUOUS
62
7
10
  0.13070000
20
 -0.05450000
30
  0.00000000
11
  0.13070000
21
 -0.05450000
31
  0.00000000
0
LINE
8
DC
6
CONTINUOUS
62
7
10
  0.13053417
20
 -0.05445000
30
  0.00000000
11
  0.13086583
21
 -0.05445000
31
  0.00000000
0
LINE
8
DC
6
CONTINUOUS
62
7
10
  0.13047639
20
 -0.05440000
30
  0.00000000
11
  0.13092361
21
 -0.05440000
31
  0.00000000
0
LINE
8
DC
6
CONTINUOUS
62
7
10
  0.13044019
20
 -0.05435000
30
  0.00000000
11
  0.13095981
21
 -0.05435000
31
  0.00000000
0
LINE
8
DC
6
CONTINUOUS
62
7
10
  0.13041716
20
 -0.05430000
30
  0.00000000
11
  0.13098284
21
 -0.05430000
31
  0.00000000
0
LINE
8
DC
6
CONTINUOUS
62
7
10
  0.13040420
20
 -0.05425000
30
  0.00000000
11
  0.13099580
21
 -0.05425000
31
  0.00000000
0
LINE
8
DC
6
CONTINUOUS
62
7
10
  0.13040000
20
 -0.05420000
30
  0.00000000
11
  0.13100000
21
 -0.05420000
31
  0.00000000
0
LINE
8
DC
6
CONTINUOUS
62
7
10
  0.13040420
20
 -0.05415000
30
  0.00000000
11
  0.13099580
21
 -0.05415000
31
  0.00000000
0
LINE
8
DC
6
CONTINUOUS
62
7
10
  0.13041716
20
 -0.05410000
30
  0.00000000
11
  0.13098284
21
 -0.05410000
31
  0.00000000
0
LINE
8
DC
6
CONTINUOUS
62
7
10
  0.13044019
20
 -0.05405000
30
  0.00000000
11
  0.13095981
21
 -0.05405000
31
  0.00000000
0
LINE
8
DC
6
CONTINUOUS
62
7
10
  0.13047639
20
 -0.05400000
30
  0.00000000
11
  0.13092361
21
 -0.05400000
31
  0.00000000
0
LINE
8
DC
6
CONTINUOUS
62
7
10
  0.13053417
20
 -0.05395000
30
  0.00000000
11
  0.13086583
21
 -0.05395000
31
  0.00000000
0
CIRCLE
8
DC
6
CONTINUOUS
62
7
10
  0.13070000
20
 -0.05420000
30
  0.00000000
40
  0.00030000
0
LINE
8
DC
6
CONTINUOUS
62
7
10
  0.13070000
20
 -0.05650000
30
  0.00000000
11
  0.13070000
21
 -0.05650000
31
  0.00000000
0
LINE
8
DC
6
CONTINUOUS
62
7
10
  0.13053417
20
 -0.05645000
30
  0.00000000
11
  0.13086583
21
 -0.05645000
31
  0.00000000
0
LINE
8
DC
6
CONTINUOUS
62
7
10
  0.13047639
20
 -0.05640000
30
  0.00000000
11
  0.13092361
21
 -0.05640000
31
  0.00000000
0
LINE
8
DC
6
CONTINUOUS
62
7
10
  0.13044019
20
 -0.05635000
30
  0.00000000
11
  0.13095981
21
 -0.05635000
31
  0.00000000
0
LINE
8
DC
6
CONTINUOUS
62
7
10
  0.13041716
20
 -0.05630000
30
  0.00000000
11
  0.13098284
21
 -0.05630000
31
  0.00000000
0
LINE
8
DC
6
CONTINUOUS
62
7
10
  0.13040420
20
 -0.05625000
30
  0.00000000
11
  0.13099580
21
 -0.05625000
31
  0.00000000
0
LINE
8
DC
6
CONTINUOUS
62
7
10
  0.13040000
20
 -0.05620000
30
  0.00000000
11
  0.13100000
21
 -0.05620000
31
  0.00000000
0
LINE
8
DC
6
CONTINUOUS
62
7
10
  0.13040420
20
 -0.05615000
30
  0.00000000
11
  0.13099580
21
 -0.05615000
31
  0.00000000
0
LINE
8
DC
6
CONTINUOUS
62
7
10
  0.13041716
20
 -0.05610000
30
  0.00000000
11
  0.13098284
21
 -0.05610000
31
  0.00000000
0
LINE
8
DC
6
CONTINUOUS
62
7
10
  0.13044019
20
 -0.05605000
30
  0.00000000
11
  0.13095981
21
 -0.05605000
31
  0.00000000
0
LINE
8
DC
6
CONTINUOUS
62
7
10
  0.13047639
20
 -0.05600000
30
  0.00000000
11
  0.13092361
21
 -0.05600000
31
  0.00000000
0
LINE
8
DC
6
CONTINUOUS
62
7
10
  0.13053417
20
 -0.05595000
30
  0.00000000
11
  0.13086583
21
 -0.05595000
31
  0.00000000
0
CIRCLE
8
DC
6
CONTINUOUS
62
7
10
  0.13070000
20
 -0.05620000
30
  0.00000000
40
  0.00030000
0
LINE
8
DC
6
CONTINUOUS
62
7
10
  0.13170000
20
 -0.04850000
30
  0.00000000
11
  0.13170000
21
 -0.04850000
31
  0.00000000
0
LINE
8
DC
6
CONTINUOUS
62
7
10
  0.13153417
20
 -0.04845000
30
  0.00000000
11
  0.13186583
21
 -0.04845000
31
  0.00000000
0
LINE
8
DC
6
CONTINUOUS
62
7
10
  0.13147639
20
 -0.04840000
30
  0.00000000
11
  0.13192361
21
 -0.04840000
31
  0.00000000
0
LINE
8
DC
6
CONTINUOUS
62
7
10
  0.13144019
20
 -0.04835000
30
  0.00000000
11
  0.13195981
21
 -0.04835000
31
  0.00000000
0
LINE
8
DC
6
CONTINUOUS
62
7
10
  0.13141716
20
 -0.04830000
30
  0.00000000
11
  0.13198284
21
 -0.04830000
31
  0.00000000
0
LINE
8
DC
6
CONTINUOUS
62
7
10
  0.13140420
20
 -0.04825000
30
  0.00000000
11
  0.13199580
21
 -0.04825000
31
  0.00000000
0
LINE
8
DC
6
CONTINUOUS
62
7
10
  0.13140000
20
 -0.04820000
30
  0.00000000
11
  0.13200000
21
 -0.04820000
31
  0.00000000
0
LINE
8
DC
6
CONTINUOUS
62
7
10
  0.13140420
20
 -0.04815000
30
  0.00000000
11
  0.13199580
21
 -0.04815000
31
  0.00000000
0
LINE
8
DC
6
CONTINUOUS
62
7
10
  0.13141716
20
 -0.04810000
30
  0.00000000
11
  0.13198284
21
 -0.04810000
31
  0.00000000
0
LINE
8
DC
6
CONTINUOUS
62
7
10
  0.13144019
20
 -0.04805000
30
  0.00000000
11
  0.13195981
21
 -0.04805000
31
  0.00000000
0
LINE
8
DC
6
CONTINUOUS
62
7
10
  0.13147639
20
 -0.04800000
30
  0.00000000
11
  0.13192361
21
 -0.04800000
31
  0.00000000
0
LINE
8
DC
6
CONTINUOUS
62
7
10
  0.13153417
20
 -0.04795000
30
  0.00000000
11
  0.13186583
21
 -0.04795000
31
  0.00000000
0
CIRCLE
8
DC
6
CONTINUOUS
62
7
10
  0.13170000
20
 -0.04820000
30
  0.00000000
40
  0.00030000
0
LINE
8
DC
6
CONTINUOUS
62
7
10
  0.13170000
20
 -0.05050000
30
  0.00000000
11
  0.13170000
21
 -0.05050000
31
  0.00000000
0
LINE
8
DC
6
CONTINUOUS
62
7
10
  0.13153417
20
 -0.05045000
30
  0.00000000
11
  0.13186583
21
 -0.05045000
31
  0.00000000
0
LINE
8
DC
6
CONTINUOUS
62
7
10
  0.13147639
20
 -0.05040000
30
  0.00000000
11
  0.13192361
21
 -0.05040000
31
  0.00000000
0
LINE
8
DC
6
CONTINUOUS
62
7
10
  0.13144019
20
 -0.05035000
30
  0.00000000
11
  0.13195981
21
 -0.05035000
31
  0.00000000
0
LINE
8
DC
6
CONTINUOUS
62
7
10
  0.13141716
20
 -0.05030000
30
  0.00000000
11
  0.13198284
21
 -0.05030000
31
  0.00000000
0
LINE
8
DC
6
CONTINUOUS
62
7
10
  0.13140420
20
 -0.05025000
30
  0.00000000
11
  0.13199580
21
 -0.05025000
31
  0.00000000
0
LINE
8
DC
6
CONTINUOUS
62
7
10
  0.13140000
20
 -0.05020000
30
  0.00000000
11
  0.13200000
21
 -0.05020000
31
  0.00000000
0
LINE
8
DC
6
CONTINUOUS
62
7
10
  0.13140420
20
 -0.05015000
30
  0.00000000
11
  0.13199580
21
 -0.05015000
31
  0.00000000
0
LINE
8
DC
6
CONTINUOUS
62
7
10
  0.13141716
20
 -0.05010000
30
  0.00000000
11
  0.13198284
21
 -0.05010000
31
  0.00000000
0
LINE
8
DC
6
CONTINUOUS
62
7
10
  0.13144019
20
 -0.05005000
30
  0.00000000
11
  0.13195981
21
 -0.05005000
31
  0.00000000
0
LINE
8
DC
6
CONTINUOUS
62
7
10
  0.13147639
20
 -0.05000000
30
  0.00000000
11
  0.13192361
21
 -0.05000000
31
  0.00000000
0
LINE
8
DC
6
CONTINUOUS
62
7
10
  0.13153417
20
 -0.04995000
30
  0.00000000
11
  0.13186583
21
 -0.04995000
31
  0.00000000
0
CIRCLE
8
DC
6
CONTINUOUS
62
7
10
  0.13170000
20
 -0.05020000
30
  0.00000000
40
  0.00030000
0
LINE
8
DC
6
CONTINUOUS
62
7
10
  0.13170000
20
 -0.05250000
30
  0.00000000
11
  0.13170000
21
 -0.05250000
31
  0.00000000
0
LINE
8
DC
6
CONTINUOUS
62
7
10
  0.13153417
20
 -0.05245000
30
  0.00000000
11
  0.13186583
21
 -0.05245000
31
  0.00000000
0
LINE
8
DC
6
CONTINUOUS
62
7
10
  0.13147639
20
 -0.05240000
30
  0.00000000
11
  0.13192361
21
 -0.05240000
31
  0.00000000
0
LINE
8
DC
6
CONTINUOUS
62
7
10
  0.13144019
20
 -0.05235000
30
  0.00000000
11
  0.13195981
21
 -0.05235000
31
  0.00000000
0
LINE
8
DC
6
CONTINUOUS
62
7
10
  0.13141716
20
 -0.05230000
30
  0.00000000
11
  0.13198284
21
 -0.05230000
31
  0.00000000
0
LINE
8
DC
6
CONTINUOUS
62
7
10
  0.13140420
20
 -0.05225000
30
  0.00000000
11
  0.13199580
21
 -0.05225000
31
  0.00000000
0
LINE
8
DC
6
CONTINUOUS
62
7
10
  0.13140000
20
 -0.05220000
30
  0.00000000
11
  0.13200000
21
 -0.05220000
31
  0.00000000
0
LINE
8
DC
6
CONTINUOUS
62
7
10
  0.13140420
20
 -0.05215000
30
  0.00000000
11
  0.13199580
21
 -0.05215000
31
  0.00000000
0
LINE
8
DC
6
CONTINUOUS
62
7
10
  0.13141716
20
 -0.05210000
30
  0.00000000
11
  0.13198284
21
 -0.05210000
31
  0.00000000
0
LINE
8
DC
6
CONTINUOUS
62
7
10
  0.13144019
20
 -0.05205000
30
  0.00000000
11
  0.13195981
21
 -0.05205000
31
  0.00000000
0
LINE
8
DC
6
CONTINUOUS
62
7
10
  0.13147639
20
 -0.05200000
30
  0.00000000
11
  0.13192361
21
 -0.05200000
31
  0.00000000
0
LINE
8
DC
6
CONTINUOUS
62
7
10
  0.13153417
20
 -0.05195000
30
  0.00000000
11
  0.13186583
21
 -0.05195000
31
  0.00000000
0
CIRCLE
8
DC
6
CONTINUOUS
62
7
10
  0.13170000
20
 -0.05220000
30
  0.00000000
40
  0.00030000
0
LINE
8
DC
6
CONTINUOUS
62
7
10
  0.13170000
20
 -0.05450000
30
  0.00000000
11
  0.13170000
21
 -0.05450000
31
  0.00000000
0
LINE
8
DC
6
CONTINUOUS
62
7
10
  0.13153417
20
 -0.05445000
30
  0.00000000
11
  0.13186583
21
 -0.05445000
31
  0.00000000
0
LINE
8
DC
6
CONTINUOUS
62
7
10
  0.13147639
20
 -0.05440000
30
  0.00000000
11
  0.13192361
21
 -0.05440000
31
  0.00000000
0
LINE
8
DC
6
CONTINUOUS
62
7
10
  0.13144019
20
 -0.05435000
30
  0.00000000
11
  0.13195981
21
 -0.05435000
31
  0.00000000
0
LINE
8
DC
6
CONTINUOUS
62
7
10
  0.13141716
20
 -0.05430000
30
  0.00000000
11
  0.13198284
21
 -0.05430000
31
  0.00000000
0
LINE
8
DC
6
CONTINUOUS
62
7
10
  0.13140420
20
 -0.05425000
30
  0.00000000
11
  0.13199580
21
 -0.05425000
31
  0.00000000
0
LINE
8
DC
6
CONTINUOUS
62
7
10
  0.13140000
20
 -0.05420000
30
  0.00000000
11
  0.13200000
21
 -0.05420000
31
  0.00000000
0
LINE
8
DC
6
CONTINUOUS
62
7
10
  0.13140420
20
 -0.05415000
30
  0.00000000
11
  0.13199580
21
 -0.05415000
31
  0.00000000
0
LINE
8
DC
6
CONTINUOUS
62
7
10
  0.13141716
20
 -0.05410000
30
  0.00000000
11
  0.13198284
21
 -0.05410000
31
  0.00000000
0
LINE
8
DC
6
CONTINUOUS
62
7
10
  0.13144019
20
 -0.05405000
30
  0.00000000
11
  0.13195981
21
 -0.05405000
31
  0.00000000
0
LINE
8
DC
6
CONTINUOUS
62
7
10
  0.13147639
20
 -0.05400000
30
  0.00000000
11
  0.13192361
21
 -0.05400000
31
  0.00000000
0
LINE
8
DC
6
CONTINUOUS
62
7
10
  0.13153417
20
 -0.05395000
30
  0.00000000
11
  0.13186583
21
 -0.05395000
31
  0.00000000
0
CIRCLE
8
DC
6
CONTINUOUS
62
7
10
  0.13170000
20
 -0.05420000
30
  0.00000000
40
  0.00030000
0
LINE
8
DC
6
CONTINUOUS
62
7
10
  0.13170000
20
 -0.05650000
30
  0.00000000
11
  0.13170000
21
 -0.05650000
31
  0.00000000
0
LINE
8
DC
6
CONTINUOUS
62
7
10
  0.13153417
20
 -0.05645000
30
  0.00000000
11
  0.13186583
21
 -0.05645000
31
  0.00000000
0
LINE
8
DC
6
CONTINUOUS
62
7
10
  0.13147639
20
 -0.05640000
30
  0.00000000
11
  0.13192361
21
 -0.05640000
31
  0.00000000
0
LINE
8
DC
6
CONTINUOUS
62
7
10
  0.13144019
20
 -0.05635000
30
  0.00000000
11
  0.13195981
21
 -0.05635000
31
  0.00000000
0
LINE
8
DC
6
CONTINUOUS
62
7
10
  0.13141716
20
 -0.05630000
30
  0.00000000
11
  0.13198284
21
 -0.05630000
31
  0.00000000
0
LINE
8
DC
6
CONTINUOUS
62
7
10
  0.13140420
20
 -0.05625000
30
  0.00000000
11
  0.13199580
21
 -0.05625000
31
  0.00000000
0
LINE
8
DC
6
CONTINUOUS
62
7
10
  0.13140000
20
 -0.05620000
30
  0.00000000
11
  0.13200000
21
 -0.05620000
31
  0.00000000
0
LINE
8
DC
6
CONTINUOUS
62
7
10
  0.13140420
20
 -0.05615000
30
  0.00000000
11
  0.13199580
21
 -0.05615000
31
  0.00000000
0
LINE
8
DC
6
CONTINUOUS
62
7
10
  0.13141716
20
 -0.05610000
30
  0.00000000
11
  0.13198284
21
 -0.05610000
31
  0.00000000
0
LINE
8
DC
6
CONTINUOUS
62
7
10
  0.13144019
20
 -0.05605000
30
  0.00000000
11
  0.13195981
21
 -0.05605000
31
  0.00000000
0
LINE
8
DC
6
CONTINUOUS
62
7
10
  0.13147639
20
 -0.05600000
30
  0.00000000
11
  0.13192361
21
 -0.05600000
31
  0.00000000
0
LINE
8
DC
6
CONTINUOUS
62
7
10
  0.13153417
20
 -0.05595000
30
  0.00000000
11
  0.13186583
21
 -0.05595000
31
  0.00000000
0
CIRCLE
8
DC
6
CONTINUOUS
62
7
10
  0.13170000
20
 -0.05620000
30
  0.00000000
40
  0.00030000
0
SOLID
8
DC
62
255
10
  0.11960000
20
 -0.04720000
30
  0.00000000
11
  0.12970000
21
 -0.04720000
31
  0.00000000
12
  0.11960000
22
 -0.05710000
32
  0.00000000
13
  0.12970000
23
 -0.05710000
33
  0.00000000
0
LINE
8
DC
6
CONTINUOUS
62
7
10
  0.11960000
20
 -0.04720000
30
  0.00000000
11
  0.12970000
21
 -0.04720000
31
  0.00000000
0
LINE
8
DC
6
CONTINUOUS
62
7
10
  0.12970000
20
 -0.04720000
30
  0.00000000
11
  0.12970000
21
 -0.05710000
31
  0.00000000
0
LINE
8
DC
6
CONTINUOUS
62
7
10
  0.12970000
20
 -0.05710000
30
  0.00000000
11
  0.11960000
21
 -0.05710000
31
  0.00000000
0
LINE
8
DC
6
CONTINUOUS
62
7
10
  0.11960000
20
 -0.05710000
30
  0.00000000
11
  0.11960000
21
 -0.04720000
31
  0.00000000
0
TEXT
8
DC
62
7
10
  0.12210000
20
 -0.04740000
30
  0.00000000
40
  0.00325000
41
  0.60000000
1
A
50
  0.00000000
72
1
73
3
11
  0.12210000
21
 -0.04740000
31
  0.00000000
0
LINE
8
DC
6
CONTINUOUS
62
7
10
  0.12060000
20
 -0.05220000
30
  0.00000000
11
  0.12060000
21
 -0.05710000
31
  0.00000000
0
LINE
8
DC
6
CONTINUOUS
62
7
10
  0.12160000
20
 -0.05220000
30
  0.00000000
11
  0.12160000
21
 -0.05710000
31
  0.00000000
0
LINE
8
DC
6
CONTINUOUS
62
7
10
  0.12260000
20
 -0.05220000
30
  0.00000000
11
  0.12260000
21
 -0.05710000
31
  0.00000000
0
LINE
8
DC
6
CONTINUOUS
62
7
10
  0.12360000
20
 -0.05220000
30
  0.00000000
11
  0.12360000
21
 -0.05710000
31
  0.00000000
0
LINE
8
DC
6
CONTINUOUS
62
7
10
  0.12460000
20
 -0.05220000
30
  0.00000000
11
  0.12460000
21
 -0.05710000
31
  0.00000000
0
LINE
8
DC
6
CONTINUOUS
62
7
10
  0.12130000
20
 -0.05260000
30
  0.00000000
11
  0.12190000
21
 -0.05310000
31
  0.00000000
0
LINE
8
DC
6
CONTINUOUS
62
7
10
  0.12190000
20
 -0.05310000
30
  0.00000000
11
  0.12170000
21
 -0.05390000
31
  0.00000000
0
LINE
8
DC
6
CONTINUOUS
62
7
10
  0.12170000
20
 -0.05390000
30
  0.00000000
11
  0.12050000
21
 -0.05420000
31
  0.00000000
0
LINE
8
DC
6
CONTINUOUS
62
7
10
  0.12050000
20
 -0.05420000
30
  0.00000000
11
  0.12030000
21
 -0.05310000
31
  0.00000000
0
LINE
8
DC
6
CONTINUOUS
62
7
10
  0.12030000
20
 -0.05310000
30
  0.00000000
11
  0.12130000
21
 -0.05260000
31
  0.00000000
0
LINE
8
DC
6
CONTINUOUS
62
7
10
  0.12390000
20
 -0.05510000
30
  0.00000000
11
  0.12450000
21
 -0.05560000
31
  0.00000000
0
LINE
8
DC
6
CONTINUOUS
62
7
10
  0.12450000
20
 -0.05560000
30
  0.00000000
11
  0.12430000
21
 -0.05640000
31
  0.00000000
0
LINE
8
DC
6
CONTINUOUS
62
7
10
  0.12430000
20
 -0.05640000
30
  0.00000000
11
  0.12310000
21
 -0.05670000
31
  0.00000000
0
LINE
8
DC
6
CONTINUOUS
62
7
10
  0.12310000
20
 -0.05670000
30
  0.00000000
11
  0.12290000
21
 -0.05560000
31
  0.00000000
0
LINE
8
DC
6
CONTINUOUS
62
7
10
  0.12290000
20
 -0.05560000
30
  0.00000000
11
  0.12390000
21
 -0.05510000
31
  0.00000000
0
LINE
8
DC
6
CONTINUOUS
62
7
10
  0.12610000
20
 -0.04840000
30
  0.00000000
11
  0.12610000
21
 -0.04840000
31
  0.00000000
0
LINE
8
DC
6
CONTINUOUS
62
7
10
  0.12593417
20
 -0.04835000
30
  0.00000000
11
  0.12626583
21
 -0.04835000
31
  0.00000000
0
LINE
8
DC
6
CONTINUOUS
62
7
10
  0.12587639
20
 -0.04830000
30
  0.00000000
11
  0.12632361
21
 -0.04830000
31
  0.00000000
0
LINE
8
DC
6
CONTINUOUS
62
7
10
  0.12584019
20
 -0.04825000
30
  0.00000000
11
  0.12635981
21
 -0.04825000
31
  0.00000000
0
LINE
8
DC
6
CONTINUOUS
62
7
10
  0.12581716
20
 -0.04820000
30
  0.00000000
11
  0.12638284
21
 -0.04820000
31
  0.00000000
0
LINE
8
DC
6
CONTINUOUS
62
7
10
  0.12580420
20
 -0.04815000
30
  0.00000000
11
  0.12639580
21
 -0.04815000
31
  0.00000000
0
LINE
8
DC
6
CONTINUOUS
62
7
10
  0.12580000
20
 -0.04810000
30
  0.00000000
11
  0.12640000
21
 -0.04810000
31
  0.00000000
0
LINE
8
DC
6
CONTINUOUS
62
7
10
  0.12580420
20
 -0.04805000
30
  0.00000000
11
  0.12639580
21
 -0.04805000
31
  0.00000000
0
LINE
8
DC
6
CONTINUOUS
62
7
10
  0.12581716
20
 -0.04800000
30
  0.00000000
11
  0.12638284
21
 -0.04800000
31
  0.00000000
0
LINE
8
DC
6
CONTINUOUS
62
7
10
  0.12584019
20
 -0.04795000
30
  0.00000000
11
  0.12635981
21
 -0.04795000
31
  0.00000000
0
LINE
8
DC
6
CONTINUOUS
62
7
10
  0.12587639
20
 -0.04790000
30
  0.00000000
11
  0.12632361
21
 -0.04790000
31
  0.00000000
0
LINE
8
DC
6
CONTINUOUS
62
7
10
  0.12593417
20
 -0.04785000
30
  0.00000000
11
  0.12626583
21
 -0.04785000
31
  0.00000000
0
CIRCLE
8
DC
6
CONTINUOUS
62
7
10
  0.12610000
20
 -0.04810000
30
  0.00000000
40
  0.00030000
0
LINE
8
DC
6
CONTINUOUS
62
7
10
  0.12810000
20
 -0.04970000
30
  0.00000000
11
  0.12810000
21
 -0.04970000
31
  0.00000000
0
LINE
8
DC
6
CONTINUOUS
62
7
10
  0.12796771
20
 -0.04965000
30
  0.00000000
11
  0.12823229
21
 -0.04965000
31
  0.00000000
0
LINE
8
DC
6
CONTINUOUS
62
7
10
  0.12792679
20
 -0.04960000
30
  0.00000000
11
  0.12827321
21
 -0.04960000
31
  0.00000000
0
LINE
8
DC
6
CONTINUOUS
62
7
10
  0.12790635
20
 -0.04955000
30
  0.00000000
11
  0.12829365
21
 -0.04955000
31
  0.00000000
0
LINE
8
DC
6
CONTINUOUS
62
7
10
  0.12790000
20
 -0.04950000
30
  0.00000000
11
  0.12830000
21
 -0.04950000
31
  0.00000000
0
LINE
8
DC
6
CONTINUOUS
62
7
10
  0.12790635
20
 -0.04945000
30
  0.00000000
11
  0.12829365
21
 -0.04945000
31
  0.00000000
0
LINE
8
DC
6
CONTINUOUS
62
7
10
  0.12792679
20
 -0.04940000
30
  0.00000000
11
  0.12827321
21
 -0.04940000
31
  0.00000000
0
LINE
8
DC
6
CONTINUOUS
62
7
10
  0.12796771
20
 -0.04935000
30
  0.00000000
11
  0.12823229
21
 -0.04935000
31
  0.00000000
0
CIRCLE
8
DC
6
CONTINUOUS
62
7
10
  0.12810000
20
 -0.04950000
30
  0.00000000
40
  0.00020000
0
LINE
8
DC
6
CONTINUOUS
62
7
10
  0.12610000
20
 -0.04950000
30
  0.00000000
11
  0.12620000
21
 -0.04950000
31
  0.00000000
0
LINE
8
DC
6
CONTINUOUS
62
7
10
  0.12810000
20
 -0.04810000
30
  0.00000000
11
  0.12820000
21
 -0.04810000
31
  0.00000000
0
TEXT
8
DC
62
7
10
  0.12710000
20
 -0.05070000
30
  0.00000000
40
  0.00325000
41
  0.60000000
1
A
50
  0.00000000
72
1
73
3
11
  0.12710000
21
 -0.05070000
31
  0.00000000
0
LINE
8
DC
6
CONTINUOUS
62
7
10
  0.12560000
20
 -0.05550000
30
  0.00000000
11
  0.12560000
21
 -0.05710000
31
  0.00000000
0
LINE
8
DC
6
CONTINUOUS
62
7
10
  0.12660000
20
 -0.05550000
30
  0.00000000
11
  0.12660000
21
 -0.05710000
31
  0.00000000
0
LINE
8
DC
6
CONTINUOUS
62
7
10
  0.12760000
20
 -0.05550000
30
  0.00000000
11
  0.12760000
21
 -0.05710000
31
  0.00000000
0
LINE
8
DC
6
CONTINUOUS
62
7
10
  0.12860000
20
 -0.05550000
30
  0.00000000
11
  0.12860000
21
 -0.05710000
31
  0.00000000
0
LINE
8
DC
6
CONTINUOUS
62
7
10
  0.12960000
20
 -0.05550000
30
  0.00000000
11
  0.12960000
21
 -0.05710000
31
  0.00000000
0
LINE
8
DC
6
CONTINUOUS
62
7
10
  0.11960000
20
 -0.04720000
30
  0.00000000
11
  0.13460000
21
 -0.04720000
31
  0.00000000
0
LINE
8
DC
6
CONTINUOUS
62
7
10
  0.13460000
20
 -0.04720000
30
  0.00000000
11
  0.13560000
21
 -0.05170000
31
  0.00000000
0
LINE
8
DC
6
CONTINUOUS
62
7
10
  0.13560000
20
 -0.05170000
30
  0.00000000
11
  0.17660000
21
 -0.05170000
31
  0.00000000
0
LINE
8
DC
6
CONTINUOUS
62
7
10
  0.11960000
20
 -0.05700000
30
  0.00000000
11
  0.11860000
21
 -0.05700000
31
  0.00000000
0
LINE
8
DC
6
CONTINUOUS
62
7
10
  0.10920000
20
 -0.05700000
30
  0.00000000
11
  0.11860000
21
 -0.05700000
31
  0.00000000
0
TEXT
8
DC
62
7
10
  0.11860000
20
 -0.05650000
30
  0.00000000
40
  0.00250000
41
  0.60000000
1
    0.60m
50
  0.00000000
72
2
73
0
11
  0.11860000
21
 -0.05650000
31
  0.00000000
0
TEXT
8
DC
62
7
10
  0.13660000
20
 -0.05530000
30
  0.00000000
40
  0.00216667
41
  0.60000000
1
Auffüllung, Schottertragschicht,
50
  0.00000000
72
0
73
1
11
  0.13660000
21
 -0.05530000
31
  0.00000000
0
TEXT
8
DC
62
7
10
  0.13660000
20
 -0.05840000
30
  0.00000000
40
  0.00216667
41
  0.60000000
1
Fein- bis Mittelkies, sandig
50
  0.00000000
72
0
73
1
11
  0.13660000
21
 -0.05840000
31
  0.00000000
0
TEXT
8
DC
62
7
10
  0.13660000
20
 -0.06150000
30
  0.00000000
40
  0.00216667
41
  0.60000000
1
mitteldicht
50
  0.00000000
72
0
73
1
11
  0.13660000
21
 -0.06150000
31
  0.00000000
0
TEXT
8
DC
62
7
10
  0.13660000
20
 -0.06460000
30
  0.00000000
40
  0.00216667
41
  0.60000000
1
erdfeucht
50
  0.00000000
72
0
73
1
11
  0.13660000
21
 -0.06460000
31
  0.00000000
0
TEXT
8
DC
62
7
10
  0.13660000
20
 -0.06770000
30
  0.00000000
40
  0.00216667
41
  0.60000000
1
weißgrau
50
  0.00000000
72
0
73
1
11
  0.13660000
21
 -0.06770000
31
  0.00000000
0
CIRCLE
8
DC
6
CONTINUOUS
62
7
10
  0.18290000
20
 -0.05970000
30
  0.00000000
40
  0.00530000
0
TEXT
8
DC
62
7
10
  0.17930000
20
 -0.06170000
30
  0.00000000
40
  0.00250000
41
  0.60000000
1
[GW]
50
  0.00000000
72
0
73
1
11
  0.17930000
21
 -0.06170000
31
  0.00000000
0
LINE
8
DC
6
CONTINUOUS
62
7
10
  0.17040000
20
 -0.05660000
30
  0.00000000
11
  0.17660000
21
 -0.05660000
31
  0.00000000
0
LINE
8
DC
6
CONTINUOUS
62
7
10
  0.17660000
20
 -0.05660000
30
  0.00000000
11
  0.17660000
21
 -0.06280000
31
  0.00000000
0
LINE
8
DC
6
CONTINUOUS
62
7
10
  0.17660000
20
 -0.06280000
30
  0.00000000
11
  0.17040000
21
 -0.06280000
31
  0.00000000
0
LINE
8
DC
6
CONTINUOUS
62
7
10
  0.17040000
20
 -0.06280000
30
  0.00000000
11
  0.17040000
21
 -0.05660000
31
  0.00000000
0
TEXT
8
DC
62
7
10
  0.17350000
20
 -0.06170000
30
  0.00000000
40
  0.00250000
41
  0.60000000
1
3
50
  0.00000000
72
1
73
1
11
  0.17350000
21
 -0.06170000
31
  0.00000000
0
LINE
8
DC
6
CONTINUOUS
62
7
10
  0.13120000
20
 -0.05700000
30
  0.00000000
11
  0.13120000
21
 -0.06700000
31
  0.00000000
0
SOLID
8
DC
62
255
10
  0.11960000
20
 -0.05700000
30
  0.00000000
11
  0.12470000
21
 -0.05700000
31
  0.00000000
12
  0.11960000
22
 -0.06710000
32
  0.00000000
13
  0.12470000
23
 -0.06710000
33
  0.00000000
0
LINE
8
DC
6
CONTINUOUS
62
7
10
  0.11960000
20
 -0.05700000
30
  0.00000000
11
  0.12470000
21
 -0.05700000
31
  0.00000000
0
LINE
8
DC
6
CONTINUOUS
62
7
10
  0.12470000
20
 -0.05700000
30
  0.00000000
11
  0.12470000
21
 -0.06710000
31
  0.00000000
0
LINE
8
DC
6
CONTINUOUS
62
7
10
  0.12470000
20
 -0.06710000
30
  0.00000000
11
  0.11960000
21
 -0.06710000
31
  0.00000000
0
LINE
8
DC
6
CONTINUOUS
62
7
10
  0.11960000
20
 -0.06710000
30
  0.00000000
11
  0.11960000
21
 -0.05700000
31
  0.00000000
0
SOLID
8
DC
62
200
10
  0.12470000
20
 -0.05700000
30
  0.00000000
11
  0.12970000
21
 -0.05700000
31
  0.00000000
12
  0.12470000
22
 -0.06710000
32
  0.00000000
13
  0.12970000
23
 -0.06710000
33
  0.00000000
0
LINE
8
DC
6
CONTINUOUS
62
7
10
  0.12470000
20
 -0.05700000
30
  0.00000000
11
  0.12970000
21
 -0.05700000
31
  0.00000000
0
LINE
8
DC
6
CONTINUOUS
62
7
10
  0.12970000
20
 -0.05700000
30
  0.00000000
11
  0.12970000
21
 -0.06710000
31
  0.00000000
0
LINE
8
DC
6
CONTINUOUS
62
7
10
  0.12970000
20
 -0.06710000
30
  0.00000000
11
  0.12470000
21
 -0.06710000
31
  0.00000000
0
LINE
8
DC
6
CONTINUOUS
62
7
10
  0.12470000
20
 -0.06710000
30
  0.00000000
11
  0.12470000
21
 -0.05700000
31
  0.00000000
0
TEXT
8
DC
62
7
10
  0.12210000
20
 -0.05720000
30
  0.00000000
40
  0.00325000
41
  0.60000000
1
A
50
  0.00000000
72
1
73
3
11
  0.12210000
21
 -0.05720000
31
  0.00000000
0
LINE
8
DC
6
CONTINUOUS
62
7
10
  0.12010000
20
 -0.06280000
30
  0.00000000
11
  0.12310000
21
 -0.06280000
31
  0.00000000
0
LINE
8
DC
6
CONTINUOUS
62
7
10
  0.12110000
20
 -0.06440000
30
  0.00000000
11
  0.12410000
21
 -0.06440000
31
  0.00000000
0
LINE
8
DC
6
CONTINUOUS
62
7
10
  0.12620000
20
 -0.05910000
30
  0.00000000
11
  0.12620000
21
 -0.05910000
31
  0.00000000
0
LINE
8
DC
6
CONTINUOUS
62
7
10
  0.12598206
20
 -0.05905000
30
  0.00000000
11
  0.12641794
21
 -0.05905000
31
  0.00000000
0
LINE
8
DC
6
CONTINUOUS
62
7
10
  0.12590000
20
 -0.05900000
30
  0.00000000
11
  0.12650000
21
 -0.05900000
31
  0.00000000
0
LINE
8
DC
6
CONTINUOUS
62
7
10
  0.12584293
20
 -0.05895000
30
  0.00000000
11
  0.12655707
21
 -0.05895000
31
  0.00000000
0
LINE
8
DC
6
CONTINUOUS
62
7
10
  0.12580000
20
 -0.05890000
30
  0.00000000
11
  0.12660000
21
 -0.05890000
31
  0.00000000
0
LINE
8
DC
6
CONTINUOUS
62
7
10
  0.12576699
20
 -0.05885000
30
  0.00000000
11
  0.12663301
21
 -0.05885000
31
  0.00000000
0
LINE
8
DC
6
CONTINUOUS
62
7
10
  0.12574174
20
 -0.05880000
30
  0.00000000
11
  0.12665826
21
 -0.05880000
31
  0.00000000
0
LINE
8
DC
6
CONTINUOUS
62
7
10
  0.12572303
20
 -0.05875000
30
  0.00000000
11
  0.12667697
21
 -0.05875000
31
  0.00000000
0
LINE
8
DC
6
CONTINUOUS
62
7
10
  0.12571010
20
 -0.05870000
30
  0.00000000
11
  0.12668990
21
 -0.05870000
31
  0.00000000
0
LINE
8
DC
6
CONTINUOUS
62
7
10
  0.12570251
20
 -0.05865000
30
  0.00000000
11
  0.12669749
21
 -0.05865000
31
  0.00000000
0
LINE
8
DC
6
CONTINUOUS
62
7
10
  0.12570000
20
 -0.05860000
30
  0.00000000
11
  0.12670000
21
 -0.05860000
31
  0.00000000
0
LINE
8
DC
6
CONTINUOUS
62
7
10
  0.12570251
20
 -0.05855000
30
  0.00000000
11
  0.12669749
21
 -0.05855000
31
  0.00000000
0
LINE
8
DC
6
CONTINUOUS
62
7
10
  0.12571010
20
 -0.05850000
30
  0.00000000
11
  0.12668990
21
 -0.05850000
31
  0.00000000
0
LINE
8
DC
6
CONTINUOUS
62
7
10
  0.12572303
20
 -0.05845000
30
  0.00000000
11
  0.12667697
21
 -0.05845000
31
  0.00000000
0
LINE
8
DC
6
CONTINUOUS
62
7
10
  0.12574174
20
 -0.05840000
30
  0.00000000
11
  0.12665826
21
 -0.05840000
31
  0.00000000
0
LINE
8
DC
6
CONTINUOUS
62
7
10
  0.12576699
20
 -0.05835000
30
  0.00000000
11
  0.12663301
21
 -0.05835000
31
  0.00000000
0
LINE
8
DC
6
CONTINUOUS
62
7
10
  0.12580000
20
 -0.05830000
30
  0.00000000
11
  0.12660000
21
 -0.05830000
31
  0.00000000
0
LINE
8
DC
6
CONTINUOUS
62
7
10
  0.12584293
20
 -0.05825000
30
  0.00000000
11
  0.12655707
21
 -0.05825000
31
  0.00000000
0
LINE
8
DC
6
CONTINUOUS
62
7
10
  0.12590000
20
 -0.05820000
30
  0.00000000
11
  0.12650000
21
 -0.05820000
31
  0.00000000
0
LINE
8
DC
6
CONTINUOUS
62
7
10
  0.12598206
20
 -0.05815000
30
  0.00000000
11
  0.12641794
21
 -0.05815000
31
  0.00000000
0
CIRCLE
8
DC
6
CONTINUOUS
62
7
10
  0.12620000
20
 -0.05860000
30
  0.00000000
40
  0.00050000
0
LINE
8
DC
6
CONTINUOUS
62
7
10
  0.12780000
20
 -0.05910000
30
  0.00000000
11
  0.12780000
21
 -0.05910000
31
  0.00000000
0
LINE
8
DC
6
CONTINUOUS
62
7
10
  0.12758206
20
 -0.05905000
30
  0.00000000
11
  0.12801794
21
 -0.05905000
31
  0.00000000
0
LINE
8
DC
6
CONTINUOUS
62
7
10
  0.12750000
20
 -0.05900000
30
  0.00000000
11
  0.12810000
21
 -0.05900000
31
  0.00000000
0
LINE
8
DC
6
CONTINUOUS
62
7
10
  0.12744293
20
 -0.05895000
30
  0.00000000
11
  0.12815707
21
 -0.05895000
31
  0.00000000
0
LINE
8
DC
6
CONTINUOUS
62
7
10
  0.12740000
20
 -0.05890000
30
  0.00000000
11
  0.12820000
21
 -0.05890000
31
  0.00000000
0
LINE
8
DC
6
CONTINUOUS
62
7
10
  0.12736699
20
 -0.05885000
30
  0.00000000
11
  0.12823301
21
 -0.05885000
31
  0.00000000
0
LINE
8
DC
6
CONTINUOUS
62
7
10
  0.12734174
20
 -0.05880000
30
  0.00000000
11
  0.12825826
21
 -0.05880000
31
  0.00000000
0
LINE
8
DC
6
CONTINUOUS
62
7
10
  0.12732303
20
 -0.05875000
30
  0.00000000
11
  0.12827697
21
 -0.05875000
31
  0.00000000
0
LINE
8
DC
6
CONTINUOUS
62
7
10
  0.12731010
20
 -0.05870000
30
  0.00000000
11
  0.12828990
21
 -0.05870000
31
  0.00000000
0
LINE
8
DC
6
CONTINUOUS
62
7
10
  0.12730251
20
 -0.05865000
30
  0.00000000
11
  0.12829749
21
 -0.05865000
31
  0.00000000
0
LINE
8
DC
6
CONTINUOUS
62
7
10
  0.12730000
20
 -0.05860000
30
  0.00000000
11
  0.12830000
21
 -0.05860000
31
  0.00000000
0
LINE
8
DC
6
CONTINUOUS
62
7
10
  0.12730251
20
 -0.05855000
30
  0.00000000
11
  0.12829749
21
 -0.05855000
31
  0.00000000
0
LINE
8
DC
6
CONTINUOUS
62
7
10
  0.12731010
20
 -0.05850000
30
  0.00000000
11
  0.12828990
21
 -0.05850000
31
  0.00000000
0
LINE
8
DC
6
CONTINUOUS
62
7
10
  0.12732303
20
 -0.05845000
30
  0.00000000
11
  0.12827697
21
 -0.05845000
31
  0.00000000
0
LINE
8
DC
6
CONTINUOUS
62
7
10
  0.12734174
20
 -0.05840000
30
  0.00000000
11
  0.12825826
21
 -0.05840000
31
  0.00000000
0
LINE
8
DC
6
CONTINUOUS
62
7
10
  0.12736699
20
 -0.05835000
30
  0.00000000
11
  0.12823301
21
 -0.05835000
31
  0.00000000
0
LINE
8
DC
6
CONTINUOUS
62
7
10
  0.12740000
20
 -0.05830000
30
  0.00000000
11
  0.12820000
21
 -0.05830000
31
  0.00000000
0
LINE
8
DC
6
CONTINUOUS
62
7
10
  0.12744293
20
 -0.05825000
30
  0.00000000
11
  0.12815707
21
 -0.05825000
31
  0.00000000
0
LINE
8
DC
6
CONTINUOUS
62
7
10
  0.12750000
20
 -0.05820000
30
  0.00000000
11
  0.12810000
21
 -0.05820000
31
  0.00000000
0
LINE
8
DC
6
CONTINUOUS
62
7
10
  0.12758206
20
 -0.05815000
30
  0.00000000
11
  0.12801794
21
 -0.05815000
31
  0.00000000
0
CIRCLE
8
DC
6
CONTINUOUS
62
7
10
  0.12780000
20
 -0.05860000
30
  0.00000000
40
  0.00050000
0
LINE
8
DC
6
CONTINUOUS
62
7
10
  0.12560000
20
 -0.05910000
30
  0.00000000
11
  0.12860000
21
 -0.05910000
31
  0.00000000
0
LINE
8
DC
6
CONTINUOUS
62
7
10
  0.12480000
20
 -0.06100000
30
  0.00000000
11
  0.12480000
21
 -0.06100000
31
  0.00000000
0
LINE
8
DC
6
CONTINUOUS
62
7
10
  0.12466771
20
 -0.06095000
30
  0.00000000
11
  0.12493229
21
 -0.06095000
31
  0.00000000
0
LINE
8
DC
6
CONTINUOUS
62
7
10
  0.12462679
20
 -0.06090000
30
  0.00000000
11
  0.12497321
21
 -0.06090000
31
  0.00000000
0
LINE
8
DC
6
CONTINUOUS
62
7
10
  0.12460635
20
 -0.06085000
30
  0.00000000
11
  0.12499365
21
 -0.06085000
31
  0.00000000
0
LINE
8
DC
6
CONTINUOUS
62
7
10
  0.12460000
20
 -0.06080000
30
  0.00000000
11
  0.12500000
21
 -0.06080000
31
  0.00000000
0
LINE
8
DC
6
CONTINUOUS
62
7
10
  0.12460635
20
 -0.06075000
30
  0.00000000
11
  0.12499365
21
 -0.06075000
31
  0.00000000
0
LINE
8
DC
6
CONTINUOUS
62
7
10
  0.12462679
20
 -0.06070000
30
  0.00000000
11
  0.12497321
21
 -0.06070000
31
  0.00000000
0
LINE
8
DC
6
CONTINUOUS
62
7
10
  0.12466771
20
 -0.06065000
30
  0.00000000
11
  0.12493229
21
 -0.06065000
31
  0.00000000
0
CIRCLE
8
DC
6
CONTINUOUS
62
7
10
  0.12480000
20
 -0.06080000
30
  0.00000000
40
  0.00020000
0
LINE
8
DC
6
CONTINUOUS
62
7
10
  0.12580000
20
 -0.06100000
30
  0.00000000
11
  0.12580000
21
 -0.06100000
31
  0.00000000
0
LINE
8
DC
6
CONTINUOUS
62
7
10
  0.12566771
20
 -0.06095000
30
  0.00000000
11
  0.12593229
21
 -0.06095000
31
  0.00000000
0
LINE
8
DC
6
CONTINUOUS
62
7
10
  0.12562679
20
 -0.06090000
30
  0.00000000
11
  0.12597321
21
 -0.06090000
31
  0.00000000
0
LINE
8
DC
6
CONTINUOUS
62
7
10
  0.12560635
20
 -0.06085000
30
  0.00000000
11
  0.12599365
21
 -0.06085000
31
  0.00000000
0
LINE
8
DC
6
CONTINUOUS
62
7
10
  0.12560000
20
 -0.06080000
30
  0.00000000
11
  0.12600000
21
 -0.06080000
31
  0.00000000
0
LINE
8
DC
6
CONTINUOUS
62
7
10
  0.12560635
20
 -0.06075000
30
  0.00000000
11
  0.12599365
21
 -0.06075000
31
  0.00000000
0
LINE
8
DC
6
CONTINUOUS
62
7
10
  0.12562679
20
 -0.06070000
30
  0.00000000
11
  0.12597321
21
 -0.06070000
31
  0.00000000
0
LINE
8
DC
6
CONTINUOUS
62
7
10
  0.12566771
20
 -0.06065000
30
  0.00000000
11
  0.12593229
21
 -0.06065000
31
  0.00000000
0
CIRCLE
8
DC
6
CONTINUOUS
62
7
10
  0.12580000
20
 -0.06080000
30
  0.00000000
40
  0.00020000
0
LINE
8
DC
6
CONTINUOUS
62
7
10
  0.12680000
20
 -0.06100000
30
  0.00000000
11
  0.12680000
21
 -0.06100000
31
  0.00000000
0
LINE
8
DC
6
CONTINUOUS
62
7
10
  0.12666771
20
 -0.06095000
30
  0.00000000
11
  0.12693229
21
 -0.06095000
31
  0.00000000
0
LINE
8
DC
6
CONTINUOUS
62
7
10
  0.12662679
20
 -0.06090000
30
  0.00000000
11
  0.12697321
21
 -0.06090000
31
  0.00000000
0
LINE
8
DC
6
CONTINUOUS
62
7
10
  0.12660635
20
 -0.06085000
30
  0.00000000
11
  0.12699365
21
 -0.06085000
31
  0.00000000
0
LINE
8
DC
6
CONTINUOUS
62
7
10
  0.12660000
20
 -0.06080000
30
  0.00000000
11
  0.12700000
21
 -0.06080000
31
  0.00000000
0
LINE
8
DC
6
CONTINUOUS
62
7
10
  0.12660635
20
 -0.06075000
30
  0.00000000
11
  0.12699365
21
 -0.06075000
31
  0.00000000
0
LINE
8
DC
6
CONTINUOUS
62
7
10
  0.12662679
20
 -0.06070000
30
  0.00000000
11
  0.12697321
21
 -0.06070000
31
  0.00000000
0
LINE
8
DC
6
CONTINUOUS
62
7
10
  0.12666771
20
 -0.06065000
30
  0.00000000
11
  0.12693229
21
 -0.06065000
31
  0.00000000
0
CIRCLE
8
DC
6
CONTINUOUS
62
7
10
  0.12680000
20
 -0.06080000
30
  0.00000000
40
  0.00020000
0
LINE
8
DC
6
CONTINUOUS
62
7
10
  0.12780000
20
 -0.06100000
30
  0.00000000
11
  0.12780000
21
 -0.06100000
31
  0.00000000
0
LINE
8
DC
6
CONTINUOUS
62
7
10
  0.12766771
20
 -0.06095000
30
  0.00000000
11
  0.12793229
21
 -0.06095000
31
  0.00000000
0
LINE
8
DC
6
CONTINUOUS
62
7
10
  0.12762679
20
 -0.06090000
30
  0.00000000
11
  0.12797321
21
 -0.06090000
31
  0.00000000
0
LINE
8
DC
6
CONTINUOUS
62
7
10
  0.12760635
20
 -0.06085000
30
  0.00000000
11
  0.12799365
21
 -0.06085000
31
  0.00000000
0
LINE
8
DC
6
CONTINUOUS
62
7
10
  0.12760000
20
 -0.06080000
30
  0.00000000
11
  0.12800000
21
 -0.06080000
31
  0.00000000
0
LINE
8
DC
6
CONTINUOUS
62
7
10
  0.12760635
20
 -0.06075000
30
  0.00000000
11
  0.12799365
21
 -0.06075000
31
  0.00000000
0
LINE
8
DC
6
CONTINUOUS
62
7
10
  0.12762679
20
 -0.06070000
30
  0.00000000
11
  0.12797321
21
 -0.06070000
31
  0.00000000
0
LINE
8
DC
6
CONTINUOUS
62
7
10
  0.12766771
20
 -0.06065000
30
  0.00000000
11
  0.12793229
21
 -0.06065000
31
  0.00000000
0
CIRCLE
8
DC
6
CONTINUOUS
62
7
10
  0.12780000
20
 -0.06080000
30
  0.00000000
40
  0.00020000
0
LINE
8
DC
6
CONTINUOUS
62
7
10
  0.12880000
20
 -0.06100000
30
  0.00000000
11
  0.12880000
21
 -0.06100000
31
  0.00000000
0
LINE
8
DC
6
CONTINUOUS
62
7
10
  0.12866771
20
 -0.06095000
30
  0.00000000
11
  0.12893229
21
 -0.06095000
31
  0.00000000
0
LINE
8
DC
6
CONTINUOUS
62
7
10
  0.12862679
20
 -0.06090000
30
  0.00000000
11
  0.12897321
21
 -0.06090000
31
  0.00000000
0
LINE
8
DC
6
CONTINUOUS
62
7
10
  0.12860635
20
 -0.06085000
30
  0.00000000
11
  0.12899365
21
 -0.06085000
31
  0.00000000
0
LINE
8
DC
6
CONTINUOUS
62
7
10
  0.12860000
20
 -0.06080000
30
  0.00000000
11
  0.12900000
21
 -0.06080000
31
  0.00000000
0
LINE
8
DC
6
CONTINUOUS
62
7
10
  0.12860635
20
 -0.06075000
30
  0.00000000
11
  0.12899365
21
 -0.06075000
31
  0.00000000
0
LINE
8
DC
6
CONTINUOUS
62
7
10
  0.12862679
20
 -0.06070000
30
  0.00000000
11
  0.12897321
21
 -0.06070000
31
  0.00000000
0
LINE
8
DC
6
CONTINUOUS
62
7
10
  0.12866771
20
 -0.06065000
30
  0.00000000
11
  0.12893229
21
 -0.06065000
31
  0.00000000
0
CIRCLE
8
DC
6
CONTINUOUS
62
7
10
  0.12880000
20
 -0.06080000
30
  0.00000000
40
  0.00020000
0
LINE
8
DC
6
CONTINUOUS
62
7
10
  0.12480000
20
 -0.06320000
30
  0.00000000
11
  0.12480000
21
 -0.06320000
31
  0.00000000
0
LINE
8
DC
6
CONTINUOUS
62
7
10
  0.12466771
20
 -0.06315000
30
  0.00000000
11
  0.12493229
21
 -0.06315000
31
  0.00000000
0
LINE
8
DC
6
CONTINUOUS
62
7
10
  0.12462679
20
 -0.06310000
30
  0.00000000
11
  0.12497321
21
 -0.06310000
31
  0.00000000
0
LINE
8
DC
6
CONTINUOUS
62
7
10
  0.12460635
20
 -0.06305000
30
  0.00000000
11
  0.12499365
21
 -0.06305000
31
  0.00000000
0
LINE
8
DC
6
CONTINUOUS
62
7
10
  0.12460000
20
 -0.06300000
30
  0.00000000
11
  0.12500000
21
 -0.06300000
31
  0.00000000
0
LINE
8
DC
6
CONTINUOUS
62
7
10
  0.12460635
20
 -0.06295000
30
  0.00000000
11
  0.12499365
21
 -0.06295000
31
  0.00000000
0
LINE
8
DC
6
CONTINUOUS
62
7
10
  0.12462679
20
 -0.06290000
30
  0.00000000
11
  0.12497321
21
 -0.06290000
31
  0.00000000
0
LINE
8
DC
6
CONTINUOUS
62
7
10
  0.12466771
20
 -0.06285000
30
  0.00000000
11
  0.12493229
21
 -0.06285000
31
  0.00000000
0
CIRCLE
8
DC
6
CONTINUOUS
62
7
10
  0.12480000
20
 -0.06300000
30
  0.00000000
40
  0.00020000
0
LINE
8
DC
6
CONTINUOUS
62
7
10
  0.12580000
20
 -0.06320000
30
  0.00000000
11
  0.12580000
21
 -0.06320000
31
  0.00000000
0
LINE
8
DC
6
CONTINUOUS
62
7
10
  0.12566771
20
 -0.06315000
30
  0.00000000
11
  0.12593229
21
 -0.06315000
31
  0.00000000
0
LINE
8
DC
6
CONTINUOUS
62
7
10
  0.12562679
20
 -0.06310000
30
  0.00000000
11
  0.12597321
21
 -0.06310000
31
  0.00000000
0
LINE
8
DC
6
CONTINUOUS
62
7
10
  0.12560635
20
 -0.06305000
30
  0.00000000
11
  0.12599365
21
 -0.06305000
31
  0.00000000
0
LINE
8
DC
6
CONTINUOUS
62
7
10
  0.12560000
20
 -0.06300000
30
  0.00000000
11
  0.12600000
21
 -0.06300000
31
  0.00000000
0
LINE
8
DC
6
CONTINUOUS
62
7
10
  0.12560635
20
 -0.06295000
30
  0.00000000
11
  0.12599365
21
 -0.06295000
31
  0.00000000
0
LINE
8
DC
6
CONTINUOUS
62
7
10
  0.12562679
20
 -0.06290000
30
  0.00000000
11
  0.12597321
21
 -0.06290000
31
  0.00000000
0
LINE
8
DC
6
CONTINUOUS
62
7
10
  0.12566771
20
 -0.06285000
30
  0.00000000
11
  0.12593229
21
 -0.06285000
31
  0.00000000
0
CIRCLE
8
DC
6
CONTINUOUS
62
7
10
  0.12580000
20
 -0.06300000
30
  0.00000000
40
  0.00020000
0
LINE
8
DC
6
CONTINUOUS
62
7
10
  0.12680000
20
 -0.06320000
30
  0.00000000
11
  0.12680000
21
 -0.06320000
31
  0.00000000
0
LINE
8
DC
6
CONTINUOUS
62
7
10
  0.12666771
20
 -0.06315000
30
  0.00000000
11
  0.12693229
21
 -0.06315000
31
  0.00000000
0
LINE
8
DC
6
CONTINUOUS
62
7
10
  0.12662679
20
 -0.06310000
30
  0.00000000
11
  0.12697321
21
 -0.06310000
31
  0.00000000
0
LINE
8
DC
6
CONTINUOUS
62
7
10
  0.12660635
20
 -0.06305000
30
  0.00000000
11
  0.12699365
21
 -0.06305000
31
  0.00000000
0
LINE
8
DC
6
CONTINUOUS
62
7
10
  0.12660000
20
 -0.06300000
30
  0.00000000
11
  0.12700000
21
 -0.06300000
31
  0.00000000
0
LINE
8
DC
6
CONTINUOUS
62
7
10
  0.12660635
20
 -0.06295000
30
  0.00000000
11
  0.12699365
21
 -0.06295000
31
  0.00000000
0
LINE
8
DC
6
CONTINUOUS
62
7
10
  0.12662679
20
 -0.06290000
30
  0.00000000
11
  0.12697321
21
 -0.06290000
31
  0.00000000
0
LINE
8
DC
6
CONTINUOUS
62
7
10
  0.12666771
20
 -0.06285000
30
  0.00000000
11
  0.12693229
21
 -0.06285000
31
  0.00000000
0
CIRCLE
8
DC
6
CONTINUOUS
62
7
10
  0.12680000
20
 -0.06300000
30
  0.00000000
40
  0.00020000
0
LINE
8
DC
6
CONTINUOUS
62
7
10
  0.12780000
20
 -0.06320000
30
  0.00000000
11
  0.12780000
21
 -0.06320000
31
  0.00000000
0
LINE
8
DC
6
CONTINUOUS
62
7
10
  0.12766771
20
 -0.06315000
30
  0.00000000
11
  0.12793229
21
 -0.06315000
31
  0.00000000
0
LINE
8
DC
6
CONTINUOUS
62
7
10
  0.12762679
20
 -0.06310000
30
  0.00000000
11
  0.12797321
21
 -0.06310000
31
  0.00000000
0
LINE
8
DC
6
CONTINUOUS
62
7
10
  0.12760635
20
 -0.06305000
30
  0.00000000
11
  0.12799365
21
 -0.06305000
31
  0.00000000
0
LINE
8
DC
6
CONTINUOUS
62
7
10
  0.12760000
20
 -0.06300000
30
  0.00000000
11
  0.12800000
21
 -0.06300000
31
  0.00000000
0
LINE
8
DC
6
CONTINUOUS
62
7
10
  0.12760635
20
 -0.06295000
30
  0.00000000
11
  0.12799365
21
 -0.06295000
31
  0.00000000
0
LINE
8
DC
6
CONTINUOUS
62
7
10
  0.12762679
20
 -0.06290000
30
  0.00000000
11
  0.12797321
21
 -0.06290000
31
  0.00000000
0
LINE
8
DC
6
CONTINUOUS
62
7
10
  0.12766771
20
 -0.06285000
30
  0.00000000
11
  0.12793229
21
 -0.06285000
31
  0.00000000
0
CIRCLE
8
DC
6
CONTINUOUS
62
7
10
  0.12780000
20
 -0.06300000
30
  0.00000000
40
  0.00020000
0
LINE
8
DC
6
CONTINUOUS
62
7
10
  0.12880000
20
 -0.06320000
30
  0.00000000
11
  0.12880000
21
 -0.06320000
31
  0.00000000
0
LINE
8
DC
6
CONTINUOUS
62
7
10
  0.12866771
20
 -0.06315000
30
  0.00000000
11
  0.12893229
21
 -0.06315000
31
  0.00000000
0
LINE
8
DC
6
CONTINUOUS
62
7
10
  0.12862679
20
 -0.06310000
30
  0.00000000
11
  0.12897321
21
 -0.06310000
31
  0.00000000
0
LINE
8
DC
6
CONTINUOUS
62
7
10
  0.12860635
20
 -0.06305000
30
  0.00000000
11
  0.12899365
21
 -0.06305000
31
  0.00000000
0
LINE
8
DC
6
CONTINUOUS
62
7
10
  0.12860000
20
 -0.06300000
30
  0.00000000
11
  0.12900000
21
 -0.06300000
31
  0.00000000
0
LINE
8
DC
6
CONTINUOUS
62
7
10
  0.12860635
20
 -0.06295000
30
  0.00000000
11
  0.12899365
21
 -0.06295000
31
  0.00000000
0
LINE
8
DC
6
CONTINUOUS
62
7
10
  0.12862679
20
 -0.06290000
30
  0.00000000
11
  0.12897321
21
 -0.06290000
31
  0.00000000
0
LINE
8
DC
6
CONTINUOUS
62
7
10
  0.12866771
20
 -0.06285000
30
  0.00000000
11
  0.12893229
21
 -0.06285000
31
  0.00000000
0
CIRCLE
8
DC
6
CONTINUOUS
62
7
10
  0.12880000
20
 -0.06300000
30
  0.00000000
40
  0.00020000
0
LINE
8
DC
6
CONTINUOUS
62
7
10
  0.12530000
20
 -0.06210000
30
  0.00000000
11
  0.12530000
21
 -0.06210000
31
  0.00000000
0
LINE
8
DC
6
CONTINUOUS
62
7
10
  0.12516771
20
 -0.06205000
30
  0.00000000
11
  0.12543229
21
 -0.06205000
31
  0.00000000
0
LINE
8
DC
6
CONTINUOUS
62
7
10
  0.12512679
20
 -0.06200000
30
  0.00000000
11
  0.12547321
21
 -0.06200000
31
  0.00000000
0
LINE
8
DC
6
CONTINUOUS
62
7
10
  0.12510635
20
 -0.06195000
30
  0.00000000
11
  0.12549365
21
 -0.06195000
31
  0.00000000
0
LINE
8
DC
6
CONTINUOUS
62
7
10
  0.12510000
20
 -0.06190000
30
  0.00000000
11
  0.12550000
21
 -0.06190000
31
  0.00000000
0
LINE
8
DC
6
CONTINUOUS
62
7
10
  0.12510635
20
 -0.06185000
30
  0.00000000
11
  0.12549365
21
 -0.06185000
31
  0.00000000
0
LINE
8
DC
6
CONTINUOUS
62
7
10
  0.12512679
20
 -0.06180000
30
  0.00000000
11
  0.12547321
21
 -0.06180000
31
  0.00000000
0
LINE
8
DC
6
CONTINUOUS
62
7
10
  0.12516771
20
 -0.06175000
30
  0.00000000
11
  0.12543229
21
 -0.06175000
31
  0.00000000
0
CIRCLE
8
DC
6
CONTINUOUS
62
7
10
  0.12530000
20
 -0.06190000
30
  0.00000000
40
  0.00020000
0
LINE
8
DC
6
CONTINUOUS
62
7
10
  0.12630000
20
 -0.06210000
30
  0.00000000
11
  0.12630000
21
 -0.06210000
31
  0.00000000
0
LINE
8
DC
6
CONTINUOUS
62
7
10
  0.12616771
20
 -0.06205000
30
  0.00000000
11
  0.12643229
21
 -0.06205000
31
  0.00000000
0
LINE
8
DC
6
CONTINUOUS
62
7
10
  0.12612679
20
 -0.06200000
30
  0.00000000
11
  0.12647321
21
 -0.06200000
31
  0.00000000
0
LINE
8
DC
6
CONTINUOUS
62
7
10
  0.12610635
20
 -0.06195000
30
  0.00000000
11
  0.12649365
21
 -0.06195000
31
  0.00000000
0
LINE
8
DC
6
CONTINUOUS
62
7
10
  0.12610000
20
 -0.06190000
30
  0.00000000
11
  0.12650000
21
 -0.06190000
31
  0.00000000
0
LINE
8
DC
6
CONTINUOUS
62
7
10
  0.12610635
20
 -0.06185000
30
  0.00000000
11
  0.12649365
21
 -0.06185000
31
  0.00000000
0
LINE
8
DC
6
CONTINUOUS
62
7
10
  0.12612679
20
 -0.06180000
30
  0.00000000
11
  0.12647321
21
 -0.06180000
31
  0.00000000
0
LINE
8
DC
6
CONTINUOUS
62
7
10
  0.12616771
20
 -0.06175000
30
  0.00000000
11
  0.12643229
21
 -0.06175000
31
  0.00000000
0
CIRCLE
8
DC
6
CONTINUOUS
62
7
10
  0.12630000
20
 -0.06190000
30
  0.00000000
40
  0.00020000
0
LINE
8
DC
6
CONTINUOUS
62
7
10
  0.12730000
20
 -0.06210000
30
  0.00000000
11
  0.12730000
21
 -0.06210000
31
  0.00000000
0
LINE
8
DC
6
CONTINUOUS
62
7
10
  0.12716771
20
 -0.06205000
30
  0.00000000
11
  0.12743229
21
 -0.06205000
31
  0.00000000
0
LINE
8
DC
6
CONTINUOUS
62
7
10
  0.12712679
20
 -0.06200000
30
  0.00000000
11
  0.12747321
21
 -0.06200000
31
  0.00000000
0
LINE
8
DC
6
CONTINUOUS
62
7
10
  0.12710635
20
 -0.06195000
30
  0.00000000
11
  0.12749365
21
 -0.06195000
31
  0.00000000
0
LINE
8
DC
6
CONTINUOUS
62
7
10
  0.12710000
20
 -0.06190000
30
  0.00000000
11
  0.12750000
21
 -0.06190000
31
  0.00000000
0
LINE
8
DC
6
CONTINUOUS
62
7
10
  0.12710635
20
 -0.06185000
30
  0.00000000
11
  0.12749365
21
 -0.06185000
31
  0.00000000
0
LINE
8
DC
6
CONTINUOUS
62
7
10
  0.12712679
20
 -0.06180000
30
  0.00000000
11
  0.12747321
21
 -0.06180000
31
  0.00000000
0
LINE
8
DC
6
CONTINUOUS
62
7
10
  0.12716771
20
 -0.06175000
30
  0.00000000
11
  0.12743229
21
 -0.06175000
31
  0.00000000
0
CIRCLE
8
DC
6
CONTINUOUS
62
7
10
  0.12730000
20
 -0.06190000
30
  0.00000000
40
  0.00020000
0
LINE
8
DC
6
CONTINUOUS
62
7
10
  0.12830000
20
 -0.06210000
30
  0.00000000
11
  0.12830000
21
 -0.06210000
31
  0.00000000
0
LINE
8
DC
6
CONTINUOUS
62
7
10
  0.12816771
20
 -0.06205000
30
  0.00000000
11
  0.12843229
21
 -0.06205000
31
  0.00000000
0
LINE
8
DC
6
CONTINUOUS
62
7
10
  0.12812679
20
 -0.06200000
30
  0.00000000
11
  0.12847321
21
 -0.06200000
31
  0.00000000
0
LINE
8
DC
6
CONTINUOUS
62
7
10
  0.12810635
20
 -0.06195000
30
  0.00000000
11
  0.12849365
21
 -0.06195000
31
  0.00000000
0
LINE
8
DC
6
CONTINUOUS
62
7
10
  0.12810000
20
 -0.06190000
30
  0.00000000
11
  0.12850000
21
 -0.06190000
31
  0.00000000
0
LINE
8
DC
6
CONTINUOUS
62
7
10
  0.12810635
20
 -0.06185000
30
  0.00000000
11
  0.12849365
21
 -0.06185000
31
  0.00000000
0
LINE
8
DC
6
CONTINUOUS
62
7
10
  0.12812679
20
 -0.06180000
30
  0.00000000
11
  0.12847321
21
 -0.06180000
31
  0.00000000
0
LINE
8
DC
6
CONTINUOUS
62
7
10
  0.12816771
20
 -0.06175000
30
  0.00000000
11
  0.12843229
21
 -0.06175000
31
  0.00000000
0
CIRCLE
8
DC
6
CONTINUOUS
62
7
10
  0.12830000
20
 -0.06190000
30
  0.00000000
40
  0.00020000
0
LINE
8
DC
6
CONTINUOUS
62
7
10
  0.12930000
20
 -0.06210000
30
  0.00000000
11
  0.12930000
21
 -0.06210000
31
  0.00000000
0
LINE
8
DC
6
CONTINUOUS
62
7
10
  0.12916771
20
 -0.06205000
30
  0.00000000
11
  0.12943229
21
 -0.06205000
31
  0.00000000
0
LINE
8
DC
6
CONTINUOUS
62
7
10
  0.12912679
20
 -0.06200000
30
  0.00000000
11
  0.12947321
21
 -0.06200000
31
  0.00000000
0
LINE
8
DC
6
CONTINUOUS
62
7
10
  0.12910635
20
 -0.06195000
30
  0.00000000
11
  0.12949365
21
 -0.06195000
31
  0.00000000
0
LINE
8
DC
6
CONTINUOUS
62
7
10
  0.12910000
20
 -0.06190000
30
  0.00000000
11
  0.12950000
21
 -0.06190000
31
  0.00000000
0
LINE
8
DC
6
CONTINUOUS
62
7
10
  0.12910635
20
 -0.06185000
30
  0.00000000
11
  0.12949365
21
 -0.06185000
31
  0.00000000
0
LINE
8
DC
6
CONTINUOUS
62
7
10
  0.12912679
20
 -0.06180000
30
  0.00000000
11
  0.12947321
21
 -0.06180000
31
  0.00000000
0
LINE
8
DC
6
CONTINUOUS
62
7
10
  0.12916771
20
 -0.06175000
30
  0.00000000
11
  0.12943229
21
 -0.06175000
31
  0.00000000
0
CIRCLE
8
DC
6
CONTINUOUS
62
7
10
  0.12930000
20
 -0.06190000
30
  0.00000000
40
  0.00020000
0
TEXT
8
DC
62
7
10
  0.12710000
20
 -0.06320000
30
  0.00000000
40
  0.00275000
41
  0.60000000
1
A
50
  0.00000000
72
1
73
3
11
  0.12710000
21
 -0.06320000
31
  0.00000000
0
LINE
8
DC
6
CONTINUOUS
62
7
10
  0.11960000
20
 -0.05700000
30
  0.00000000
11
  0.13460000
21
 -0.05700000
31
  0.00000000
0
LINE
8
DC
6
CONTINUOUS
62
7
10
  0.13460000
20
 -0.05700000
30
  0.00000000
11
  0.13560000
21
 -0.06770000
31
  0.00000000
0
LINE
8
DC
6
CONTINUOUS
62
7
10
  0.13560000
20
 -0.06770000
30
  0.00000000
11
  0.17660000
21
 -0.06770000
31
  0.00000000
0
LINE
8
DC
6
CONTINUOUS
62
7
10
  0.11960000
20
 -0.06700000
30
  0.00000000
11
  0.11860000
21
 -0.06700000
31
  0.00000000
0
LINE
8
DC
6
CONTINUOUS
62
7
10
  0.10920000
20
 -0.06700000
30
  0.00000000
11
  0.11860000
21
 -0.06700000
31
  0.00000000
0
TEXT
8
DC
62
7
10
  0.11860000
20
 -0.06650000
30
  0.00000000
40
  0.00250000
41
  0.60000000
1
    1.10m
50
  0.00000000
72
2
73
0
11
  0.11860000
21
 -0.06650000
31
  0.00000000
0
TEXT
8
DC
62
7
10
  0.13660000
20
 -0.07130000
30
  0.00000000
40
  0.00216667
41
  0.60000000
1
Auffüllung, Ton, stark schluffig,
50
  0.00000000
72
0
73
1
11
  0.13660000
21
 -0.07130000
31
  0.00000000
0
TEXT
8
DC
62
7
10
  0.13660000
20
 -0.07440000
30
  0.00000000
40
  0.00216667
41
  0.60000000
1
feinsandig, Ziegelsplitter
50
  0.00000000
72
0
73
1
11
  0.13660000
21
 -0.07440000
31
  0.00000000
0
TEXT
8
DC
62
7
10
  0.13660000
20
 -0.07750000
30
  0.00000000
40
  0.00216667
41
  0.60000000
1
halbfest
50
  0.00000000
72
0
73
1
11
  0.13660000
21
 -0.07750000
31
  0.00000000
0
TEXT
8
DC
62
7
10
  0.13660000
20
 -0.08060000
30
  0.00000000
40
  0.00216667
41
  0.60000000
1
erdfeucht
50
  0.00000000
72
0
73
1
11
  0.13660000
21
 -0.08060000
31
  0.00000000
0
TEXT
8
DC
62
7
10
  0.13660000
20
 -0.08370000
30
  0.00000000
40
  0.00216667
41
  0.60000000
1
grüngrau
50
  0.00000000
72
0
73
1
11
  0.13660000
21
 -0.08370000
31
  0.00000000
0
CIRCLE
8
DC
6
CONTINUOUS
62
7
10
  0.18290000
20
 -0.07570000
30
  0.00000000
40
  0.00530000
0
TEXT
8
DC
62
7
10
  0.17990000
20
 -0.07770000
30
  0.00000000
40
  0.00250000
41
  0.60000000
1
[TL]
50
  0.00000000
72
0
73
1
11
  0.17990000
21
 -0.07770000
31
  0.00000000
0
LINE
8
DC
6
CONTINUOUS
62
7
10
  0.17040000
20
 -0.07260000
30
  0.00000000
11
  0.17660000
21
 -0.07260000
31
  0.00000000
0
LINE
8
DC
6
CONTINUOUS
62
7
10
  0.17660000
20
 -0.07260000
30
  0.00000000
11
  0.17660000
21
 -0.07880000
31
  0.00000000
0
LINE
8
DC
6
CONTINUOUS
62
7
10
  0.17660000
20
 -0.07880000
30
  0.00000000
11
  0.17040000
21
 -0.07880000
31
  0.00000000
0
LINE
8
DC
6
CONTINUOUS
62
7
10
  0.17040000
20
 -0.07880000
30
  0.00000000
11
  0.17040000
21
 -0.07260000
31
  0.00000000
0
TEXT
8
DC
62
7
10
  0.17350000
20
 -0.07770000
30
  0.00000000
40
  0.00250000
41
  0.60000000
1
4
50
  0.00000000
72
1
73
1
11
  0.17350000
21
 -0.07770000
31
  0.00000000
0
LINE
8
DC
6
CONTINUOUS
62
7
10
  0.13120000
20
 -0.06700000
30
  0.00000000
11
  0.13120000
21
 -0.08500000
31
  0.00000000
0
SOLID
8
DC
62
253
10
  0.11960000
20
 -0.06700000
30
  0.00000000
11
  0.12470000
21
 -0.06700000
31
  0.00000000
12
  0.11960000
22
 -0.08510000
32
  0.00000000
13
  0.12470000
23
 -0.08510000
33
  0.00000000
0
LINE
8
DC
6
CONTINUOUS
62
7
10
  0.11960000
20
 -0.06700000
30
  0.00000000
11
  0.12470000
21
 -0.06700000
31
  0.00000000
0
LINE
8
DC
6
CONTINUOUS
62
7
10
  0.12470000
20
 -0.06700000
30
  0.00000000
11
  0.12470000
21
 -0.08510000
31
  0.00000000
0
LINE
8
DC
6
CONTINUOUS
62
7
10
  0.12470000
20
 -0.08510000
30
  0.00000000
11
  0.11960000
21
 -0.08510000
31
  0.00000000
0
LINE
8
DC
6
CONTINUOUS
62
7
10
  0.11960000
20
 -0.08510000
30
  0.00000000
11
  0.11960000
21
 -0.06700000
31
  0.00000000
0
SOLID
8
DC
62
200
10
  0.12470000
20
 -0.06700000
30
  0.00000000
11
  0.12970000
21
 -0.06700000
31
  0.00000000
12
  0.12470000
22
 -0.08510000
32
  0.00000000
13
  0.12970000
23
 -0.08510000
33
  0.00000000
0
LINE
8
DC
6
CONTINUOUS
62
7
10
  0.12470000
20
 -0.06700000
30
  0.00000000
11
  0.12970000
21
 -0.06700000
31
  0.00000000
0
LINE
8
DC
6
CONTINUOUS
62
7
10
  0.12970000
20
 -0.06700000
30
  0.00000000
11
  0.12970000
21
 -0.08510000
31
  0.00000000
0
LINE
8
DC
6
CONTINUOUS
62
7
10
  0.12970000
20
 -0.08510000
30
  0.00000000
11
  0.12470000
21
 -0.08510000
31
  0.00000000
0
LINE
8
DC
6
CONTINUOUS
62
7
10
  0.12470000
20
 -0.08510000
30
  0.00000000
11
  0.12470000
21
 -0.06700000
31
  0.00000000
0
LINE
8
DC
6
CONTINUOUS
62
7
10
  0.11960000
20
 -0.06950000
30
  0.00000000
11
  0.12210000
21
 -0.06700000
31
  0.00000000
0
LINE
8
DC
6
CONTINUOUS
62
7
10
  0.12210000
20
 -0.07200000
30
  0.00000000
11
  0.12460000
21
 -0.06950000
31
  0.00000000
0
LINE
8
DC
6
CONTINUOUS
62
7
10
  0.11960000
20
 -0.07200000
30
  0.00000000
11
  0.12460000
21
 -0.06700000
31
  0.00000000
0
LINE
8
DC
6
CONTINUOUS
62
7
10
  0.12010000
20
 -0.07280000
30
  0.00000000
11
  0.12310000
21
 -0.07280000
31
  0.00000000
0
LINE
8
DC
6
CONTINUOUS
62
7
10
  0.12110000
20
 -0.07440000
30
  0.00000000
11
  0.12410000
21
 -0.07440000
31
  0.00000000
0
LINE
8
DC
6
CONTINUOUS
62
7
10
  0.11960000
20
 -0.07780000
30
  0.00000000
11
  0.12210000
21
 -0.07530000
31
  0.00000000
0
LINE
8
DC
6
CONTINUOUS
62
7
10
  0.12210000
20
 -0.08030000
30
  0.00000000
11
  0.12460000
21
 -0.07780000
31
  0.00000000
0
LINE
8
DC
6
CONTINUOUS
62
7
10
  0.11960000
20
 -0.08030000
30
  0.00000000
11
  0.12460000
21
 -0.07530000
31
  0.00000000
0
LINE
8
DC
6
CONTINUOUS
62
7
10
  0.12010000
20
 -0.08110000
30
  0.00000000
11
  0.12310000
21
 -0.08110000
31
  0.00000000
0
LINE
8
DC
6
CONTINUOUS
62
7
10
  0.12110000
20
 -0.08270000
30
  0.00000000
11
  0.12410000
21
 -0.08270000
31
  0.00000000
0
LINE
8
DC
6
CONTINUOUS
62
7
10
  0.12060000
20
 -0.08510000
30
  0.00000000
11
  0.12210000
21
 -0.08360000
31
  0.00000000
0
LINE
8
DC
6
CONTINUOUS
62
7
10
  0.12310000
20
 -0.08510000
30
  0.00000000
11
  0.12460000
21
 -0.08360000
31
  0.00000000
0
LINE
8
DC
6
CONTINUOUS
62
7
10
  0.12620000
20
 -0.06910000
30
  0.00000000
11
  0.12620000
21
 -0.06910000
31
  0.00000000
0
LINE
8
DC
6
CONTINUOUS
62
7
10
  0.12598206
20
 -0.06905000
30
  0.00000000
11
  0.12641794
21
 -0.06905000
31
  0.00000000
0
LINE
8
DC
6
CONTINUOUS
62
7
10
  0.12590000
20
 -0.06900000
30
  0.00000000
11
  0.12650000
21
 -0.06900000
31
  0.00000000
0
LINE
8
DC
6
CONTINUOUS
62
7
10
  0.12584293
20
 -0.06895000
30
  0.00000000
11
  0.12655707
21
 -0.06895000
31
  0.00000000
0
LINE
8
DC
6
CONTINUOUS
62
7
10
  0.12580000
20
 -0.06890000
30
  0.00000000
11
  0.12660000
21
 -0.06890000
31
  0.00000000
0
LINE
8
DC
6
CONTINUOUS
62
7
10
  0.12576699
20
 -0.06885000
30
  0.00000000
11
  0.12663301
21
 -0.06885000
31
  0.00000000
0
LINE
8
DC
6
CONTINUOUS
62
7
10
  0.12574174
20
 -0.06880000
30
  0.00000000
11
  0.12665826
21
 -0.06880000
31
  0.00000000
0
LINE
8
DC
6
CONTINUOUS
62
7
10
  0.12572303
20
 -0.06875000
30
  0.00000000
11
  0.12667697
21
 -0.06875000
31
  0.00000000
0
LINE
8
DC
6
CONTINUOUS
62
7
10
  0.12571010
20
 -0.06870000
30
  0.00000000
11
  0.12668990
21
 -0.06870000
31
  0.00000000
0
LINE
8
DC
6
CONTINUOUS
62
7
10
  0.12570251
20
 -0.06865000
30
  0.00000000
11
  0.12669749
21
 -0.06865000
31
  0.00000000
0
LINE
8
DC
6
CONTINUOUS
62
7
10
  0.12570000
20
 -0.06860000
30
  0.00000000
11
  0.12670000
21
 -0.06860000
31
  0.00000000
0
LINE
8
DC
6
CONTINUOUS
62
7
10
  0.12570251
20
 -0.06855000
30
  0.00000000
11
  0.12669749
21
 -0.06855000
31
  0.00000000
0
LINE
8
DC
6
CONTINUOUS
62
7
10
  0.12571010
20
 -0.06850000
30
  0.00000000
11
  0.12668990
21
 -0.06850000
31
  0.00000000
0
LINE
8
DC
6
CONTINUOUS
62
7
10
  0.12572303
20
 -0.06845000
30
  0.00000000
11
  0.12667697
21
 -0.06845000
31
  0.00000000
0
LINE
8
DC
6
CONTINUOUS
62
7
10
  0.12574174
20
 -0.06840000
30
  0.00000000
11
  0.12665826
21
 -0.06840000
31
  0.00000000
0
LINE
8
DC
6
CONTINUOUS
62
7
10
  0.12576699
20
 -0.06835000
30
  0.00000000
11
  0.12663301
21
 -0.06835000
31
  0.00000000
0
LINE
8
DC
6
CONTINUOUS
62
7
10
  0.12580000
20
 -0.06830000
30
  0.00000000
11
  0.12660000
21
 -0.06830000
31
  0.00000000
0
LINE
8
DC
6
CONTINUOUS
62
7
10
  0.12584293
20
 -0.06825000
30
  0.00000000
11
  0.12655707
21
 -0.06825000
31
  0.00000000
0
LINE
8
DC
6
CONTINUOUS
62
7
10
  0.12590000
20
 -0.06820000
30
  0.00000000
11
  0.12650000
21
 -0.06820000
31
  0.00000000
0
LINE
8
DC
6
CONTINUOUS
62
7
10
  0.12598206
20
 -0.06815000
30
  0.00000000
11
  0.12641794
21
 -0.06815000
31
  0.00000000
0
CIRCLE
8
DC
6
CONTINUOUS
62
7
10
  0.12620000
20
 -0.06860000
30
  0.00000000
40
  0.00050000
0
LINE
8
DC
6
CONTINUOUS
62
7
10
  0.12780000
20
 -0.06910000
30
  0.00000000
11
  0.12780000
21
 -0.06910000
31
  0.00000000
0
LINE
8
DC
6
CONTINUOUS
62
7
10
  0.12758206
20
 -0.06905000
30
  0.00000000
11
  0.12801794
21
 -0.06905000
31
  0.00000000
0
LINE
8
DC
6
CONTINUOUS
62
7
10
  0.12750000
20
 -0.06900000
30
  0.00000000
11
  0.12810000
21
 -0.06900000
31
  0.00000000
0
LINE
8
DC
6
CONTINUOUS
62
7
10
  0.12744293
20
 -0.06895000
30
  0.00000000
11
  0.12815707
21
 -0.06895000
31
  0.00000000
0
LINE
8
DC
6
CONTINUOUS
62
7
10
  0.12740000
20
 -0.06890000
30
  0.00000000
11
  0.12820000
21
 -0.06890000
31
  0.00000000
0
LINE
8
DC
6
CONTINUOUS
62
7
10
  0.12736699
20
 -0.06885000
30
  0.00000000
11
  0.12823301
21
 -0.06885000
31
  0.00000000
0
LINE
8
DC
6
CONTINUOUS
62
7
10
  0.12734174
20
 -0.06880000
30
  0.00000000
11
  0.12825826
21
 -0.06880000
31
  0.00000000
0
LINE
8
DC
6
CONTINUOUS
62
7
10
  0.12732303
20
 -0.06875000
30
  0.00000000
11
  0.12827697
21
 -0.06875000
31
  0.00000000
0
LINE
8
DC
6
CONTINUOUS
62
7
10
  0.12731010
20
 -0.06870000
30
  0.00000000
11
  0.12828990
21
 -0.06870000
31
  0.00000000
0
LINE
8
DC
6
CONTINUOUS
62
7
10
  0.12730251
20
 -0.06865000
30
  0.00000000
11
  0.12829749
21
 -0.06865000
31
  0.00000000
0
LINE
8
DC
6
CONTINUOUS
62
7
10
  0.12730000
20
 -0.06860000
30
  0.00000000
11
  0.12830000
21
 -0.06860000
31
  0.00000000
0
LINE
8
DC
6
CONTINUOUS
62
7
10
  0.12730251
20
 -0.06855000
30
  0.00000000
11
  0.12829749
21
 -0.06855000
31
  0.00000000
0
LINE
8
DC
6
CONTINUOUS
62
7
10
  0.12731010
20
 -0.06850000
30
  0.00000000
11
  0.12828990
21
 -0.06850000
31
  0.00000000
0
LINE
8
DC
6
CONTINUOUS
62
7
10
  0.12732303
20
 -0.06845000
30
  0.00000000
11
  0.12827697
21
 -0.06845000
31
  0.00000000
0
LINE
8
DC
6
CONTINUOUS
62
7
10
  0.12734174
20
 -0.06840000
30
  0.00000000
11
  0.12825826
21
 -0.06840000
31
  0.00000000
0
LINE
8
DC
6
CONTINUOUS
62
7
10
  0.12736699
20
 -0.06835000
30
  0.00000000
11
  0.12823301
21
 -0.06835000
31
  0.00000000
0
LINE
8
DC
6
CONTINUOUS
62
7
10
  0.12740000
20
 -0.06830000
30
  0.00000000
11
  0.12820000
21
 -0.06830000
31
  0.00000000
0
LINE
8
DC
6
CONTINUOUS
62
7
10
  0.12744293
20
 -0.06825000
30
  0.00000000
11
  0.12815707
21
 -0.06825000
31
  0.00000000
0
LINE
8
DC
6
CONTINUOUS
62
7
10
  0.12750000
20
 -0.06820000
30
  0.00000000
11
  0.12810000
21
 -0.06820000
31
  0.00000000
0
LINE
8
DC
6
CONTINUOUS
62
7
10
  0.12758206
20
 -0.06815000
30
  0.00000000
11
  0.12801794
21
 -0.06815000
31
  0.00000000
0
CIRCLE
8
DC
6
CONTINUOUS
62
7
10
  0.12780000
20
 -0.06860000
30
  0.00000000
40
  0.00050000
0
LINE
8
DC
6
CONTINUOUS
62
7
10
  0.12560000
20
 -0.06910000
30
  0.00000000
11
  0.12860000
21
 -0.06910000
31
  0.00000000
0
LINE
8
DC
6
CONTINUOUS
62
7
10
  0.12480000
20
 -0.07100000
30
  0.00000000
11
  0.12480000
21
 -0.07100000
31
  0.00000000
0
LINE
8
DC
6
CONTINUOUS
62
7
10
  0.12466771
20
 -0.07095000
30
  0.00000000
11
  0.12493229
21
 -0.07095000
31
  0.00000000
0
LINE
8
DC
6
CONTINUOUS
62
7
10
  0.12462679
20
 -0.07090000
30
  0.00000000
11
  0.12497321
21
 -0.07090000
31
  0.00000000
0
LINE
8
DC
6
CONTINUOUS
62
7
10
  0.12460635
20
 -0.07085000
30
  0.00000000
11
  0.12499365
21
 -0.07085000
31
  0.00000000
0
LINE
8
DC
6
CONTINUOUS
62
7
10
  0.12460000
20
 -0.07080000
30
  0.00000000
11
  0.12500000
21
 -0.07080000
31
  0.00000000
0
LINE
8
DC
6
CONTINUOUS
62
7
10
  0.12460635
20
 -0.07075000
30
  0.00000000
11
  0.12499365
21
 -0.07075000
31
  0.00000000
0
LINE
8
DC
6
CONTINUOUS
62
7
10
  0.12462679
20
 -0.07070000
30
  0.00000000
11
  0.12497321
21
 -0.07070000
31
  0.00000000
0
LINE
8
DC
6
CONTINUOUS
62
7
10
  0.12466771
20
 -0.07065000
30
  0.00000000
11
  0.12493229
21
 -0.07065000
31
  0.00000000
0
CIRCLE
8
DC
6
CONTINUOUS
62
7
10
  0.12480000
20
 -0.07080000
30
  0.00000000
40
  0.00020000
0
LINE
8
DC
6
CONTINUOUS
62
7
10
  0.12580000
20
 -0.07100000
30
  0.00000000
11
  0.12580000
21
 -0.07100000
31
  0.00000000
0
LINE
8
DC
6
CONTINUOUS
62
7
10
  0.12566771
20
 -0.07095000
30
  0.00000000
11
  0.12593229
21
 -0.07095000
31
  0.00000000
0
LINE
8
DC
6
CONTINUOUS
62
7
10
  0.12562679
20
 -0.07090000
30
  0.00000000
11
  0.12597321
21
 -0.07090000
31
  0.00000000
0
LINE
8
DC
6
CONTINUOUS
62
7
10
  0.12560635
20
 -0.07085000
30
  0.00000000
11
  0.12599365
21
 -0.07085000
31
  0.00000000
0
LINE
8
DC
6
CONTINUOUS
62
7
10
  0.12560000
20
 -0.07080000
30
  0.00000000
11
  0.12600000
21
 -0.07080000
31
  0.00000000
0
LINE
8
DC
6
CONTINUOUS
62
7
10
  0.12560635
20
 -0.07075000
30
  0.00000000
11
  0.12599365
21
 -0.07075000
31
  0.00000000
0
LINE
8
DC
6
CONTINUOUS
62
7
10
  0.12562679
20
 -0.07070000
30
  0.00000000
11
  0.12597321
21
 -0.07070000
31
  0.00000000
0
LINE
8
DC
6
CONTINUOUS
62
7
10
  0.12566771
20
 -0.07065000
30
  0.00000000
11
  0.12593229
21
 -0.07065000
31
  0.00000000
0
CIRCLE
8
DC
6
CONTINUOUS
62
7
10
  0.12580000
20
 -0.07080000
30
  0.00000000
40
  0.00020000
0
LINE
8
DC
6
CONTINUOUS
62
7
10
  0.12680000
20
 -0.07100000
30
  0.00000000
11
  0.12680000
21
 -0.07100000
31
  0.00000000
0
LINE
8
DC
6
CONTINUOUS
62
7
10
  0.12666771
20
 -0.07095000
30
  0.00000000
11
  0.12693229
21
 -0.07095000
31
  0.00000000
0
LINE
8
DC
6
CONTINUOUS
62
7
10
  0.12662679
20
 -0.07090000
30
  0.00000000
11
  0.12697321
21
 -0.07090000
31
  0.00000000
0
LINE
8
DC
6
CONTINUOUS
62
7
10
  0.12660635
20
 -0.07085000
30
  0.00000000
11
  0.12699365
21
 -0.07085000
31
  0.00000000
0
LINE
8
DC
6
CONTINUOUS
62
7
10
  0.12660000
20
 -0.07080000
30
  0.00000000
11
  0.12700000
21
 -0.07080000
31
  0.00000000
0
LINE
8
DC
6
CONTINUOUS
62
7
10
  0.12660635
20
 -0.07075000
30
  0.00000000
11
  0.12699365
21
 -0.07075000
31
  0.00000000
0
LINE
8
DC
6
CONTINUOUS
62
7
10
  0.12662679
20
 -0.07070000
30
  0.00000000
11
  0.12697321
21
 -0.07070000
31
  0.00000000
0
LINE
8
DC
6
CONTINUOUS
62
7
10
  0.12666771
20
 -0.07065000
30
  0.00000000
11
  0.12693229
21
 -0.07065000
31
  0.00000000
0
CIRCLE
8
DC
6
CONTINUOUS
62
7
10
  0.12680000
20
 -0.07080000
30
  0.00000000
40
  0.00020000
0
LINE
8
DC
6
CONTINUOUS
62
7
10
  0.12780000
20
 -0.07100000
30
  0.00000000
11
  0.12780000
21
 -0.07100000
31
  0.00000000
0
LINE
8
DC
6
CONTINUOUS
62
7
10
  0.12766771
20
 -0.07095000
30
  0.00000000
11
  0.12793229
21
 -0.07095000
31
  0.00000000
0
LINE
8
DC
6
CONTINUOUS
62
7
10
  0.12762679
20
 -0.07090000
30
  0.00000000
11
  0.12797321
21
 -0.07090000
31
  0.00000000
0
LINE
8
DC
6
CONTINUOUS
62
7
10
  0.12760635
20
 -0.07085000
30
  0.00000000
11
  0.12799365
21
 -0.07085000
31
  0.00000000
0
LINE
8
DC
6
CONTINUOUS
62
7
10
  0.12760000
20
 -0.07080000
30
  0.00000000
11
  0.12800000
21
 -0.07080000
31
  0.00000000
0
LINE
8
DC
6
CONTINUOUS
62
7
10
  0.12760635
20
 -0.07075000
30
  0.00000000
11
  0.12799365
21
 -0.07075000
31
  0.00000000
0
LINE
8
DC
6
CONTINUOUS
62
7
10
  0.12762679
20
 -0.07070000
30
  0.00000000
11
  0.12797321
21
 -0.07070000
31
  0.00000000
0
LINE
8
DC
6
CONTINUOUS
62
7
10
  0.12766771
20
 -0.07065000
30
  0.00000000
11
  0.12793229
21
 -0.07065000
31
  0.00000000
0
CIRCLE
8
DC
6
CONTINUOUS
62
7
10
  0.12780000
20
 -0.07080000
30
  0.00000000
40
  0.00020000
0
LINE
8
DC
6
CONTINUOUS
62
7
10
  0.12880000
20
 -0.07100000
30
  0.00000000
11
  0.12880000
21
 -0.07100000
31
  0.00000000
0
LINE
8
DC
6
CONTINUOUS
62
7
10
  0.12866771
20
 -0.07095000
30
  0.00000000
11
  0.12893229
21
 -0.07095000
31
  0.00000000
0
LINE
8
DC
6
CONTINUOUS
62
7
10
  0.12862679
20
 -0.07090000
30
  0.00000000
11
  0.12897321
21
 -0.07090000
31
  0.00000000
0
LINE
8
DC
6
CONTINUOUS
62
7
10
  0.12860635
20
 -0.07085000
30
  0.00000000
11
  0.12899365
21
 -0.07085000
31
  0.00000000
0
LINE
8
DC
6
CONTINUOUS
62
7
10
  0.12860000
20
 -0.07080000
30
  0.00000000
11
  0.12900000
21
 -0.07080000
31
  0.00000000
0
LINE
8
DC
6
CONTINUOUS
62
7
10
  0.12860635
20
 -0.07075000
30
  0.00000000
11
  0.12899365
21
 -0.07075000
31
  0.00000000
0
LINE
8
DC
6
CONTINUOUS
62
7
10
  0.12862679
20
 -0.07070000
30
  0.00000000
11
  0.12897321
21
 -0.07070000
31
  0.00000000
0
LINE
8
DC
6
CONTINUOUS
62
7
10
  0.12866771
20
 -0.07065000
30
  0.00000000
11
  0.12893229
21
 -0.07065000
31
  0.00000000
0
CIRCLE
8
DC
6
CONTINUOUS
62
7
10
  0.12880000
20
 -0.07080000
30
  0.00000000
40
  0.00020000
0
LINE
8
DC
6
CONTINUOUS
62
7
10
  0.12480000
20
 -0.07320000
30
  0.00000000
11
  0.12480000
21
 -0.07320000
31
  0.00000000
0
LINE
8
DC
6
CONTINUOUS
62
7
10
  0.12466771
20
 -0.07315000
30
  0.00000000
11
  0.12493229
21
 -0.07315000
31
  0.00000000
0
LINE
8
DC
6
CONTINUOUS
62
7
10
  0.12462679
20
 -0.07310000
30
  0.00000000
11
  0.12497321
21
 -0.07310000
31
  0.00000000
0
LINE
8
DC
6
CONTINUOUS
62
7
10
  0.12460635
20
 -0.07305000
30
  0.00000000
11
  0.12499365
21
 -0.07305000
31
  0.00000000
0
LINE
8
DC
6
CONTINUOUS
62
7
10
  0.12460000
20
 -0.07300000
30
  0.00000000
11
  0.12500000
21
 -0.07300000
31
  0.00000000
0
LINE
8
DC
6
CONTINUOUS
62
7
10
  0.12460635
20
 -0.07295000
30
  0.00000000
11
  0.12499365
21
 -0.07295000
31
  0.00000000
0
LINE
8
DC
6
CONTINUOUS
62
7
10
  0.12462679
20
 -0.07290000
30
  0.00000000
11
  0.12497321
21
 -0.07290000
31
  0.00000000
0
LINE
8
DC
6
CONTINUOUS
62
7
10
  0.12466771
20
 -0.07285000
30
  0.00000000
11
  0.12493229
21
 -0.07285000
31
  0.00000000
0
CIRCLE
8
DC
6
CONTINUOUS
62
7
10
  0.12480000
20
 -0.07300000
30
  0.00000000
40
  0.00020000
0
LINE
8
DC
6
CONTINUOUS
62
7
10
  0.12580000
20
 -0.07320000
30
  0.00000000
11
  0.12580000
21
 -0.07320000
31
  0.00000000
0
LINE
8
DC
6
CONTINUOUS
62
7
10
  0.12566771
20
 -0.07315000
30
  0.00000000
11
  0.12593229
21
 -0.07315000
31
  0.00000000
0
LINE
8
DC
6
CONTINUOUS
62
7
10
  0.12562679
20
 -0.07310000
30
  0.00000000
11
  0.12597321
21
 -0.07310000
31
  0.00000000
0
LINE
8
DC
6
CONTINUOUS
62
7
10
  0.12560635
20
 -0.07305000
30
  0.00000000
11
  0.12599365
21
 -0.07305000
31
  0.00000000
0
LINE
8
DC
6
CONTINUOUS
62
7
10
  0.12560000
20
 -0.07300000
30
  0.00000000
11
  0.12600000
21
 -0.07300000
31
  0.00000000
0
LINE
8
DC
6
CONTINUOUS
62
7
10
  0.12560635
20
 -0.07295000
30
  0.00000000
11
  0.12599365
21
 -0.07295000
31
  0.00000000
0
LINE
8
DC
6
CONTINUOUS
62
7
10
  0.12562679
20
 -0.07290000
30
  0.00000000
11
  0.12597321
21
 -0.07290000
31
  0.00000000
0
LINE
8
DC
6
CONTINUOUS
62
7
10
  0.12566771
20
 -0.07285000
30
  0.00000000
11
  0.12593229
21
 -0.07285000
31
  0.00000000
0
CIRCLE
8
DC
6
CONTINUOUS
62
7
10
  0.12580000
20
 -0.07300000
30
  0.00000000
40
  0.00020000
0
LINE
8
DC
6
CONTINUOUS
62
7
10
  0.12680000
20
 -0.07320000
30
  0.00000000
11
  0.12680000
21
 -0.07320000
31
  0.00000000
0
LINE
8
DC
6
CONTINUOUS
62
7
10
  0.12666771
20
 -0.07315000
30
  0.00000000
11
  0.12693229
21
 -0.07315000
31
  0.00000000
0
LINE
8
DC
6
CONTINUOUS
62
7
10
  0.12662679
20
 -0.07310000
30
  0.00000000
11
  0.12697321
21
 -0.07310000
31
  0.00000000
0
LINE
8
DC
6
CONTINUOUS
62
7
10
  0.12660635
20
 -0.07305000
30
  0.00000000
11
  0.12699365
21
 -0.07305000
31
  0.00000000
0
LINE
8
DC
6
CONTINUOUS
62
7
10
  0.12660000
20
 -0.07300000
30
  0.00000000
11
  0.12700000
21
 -0.07300000
31
  0.00000000
0
LINE
8
DC
6
CONTINUOUS
62
7
10
  0.12660635
20
 -0.07295000
30
  0.00000000
11
  0.12699365
21
 -0.07295000
31
  0.00000000
0
LINE
8
DC
6
CONTINUOUS
62
7
10
  0.12662679
20
 -0.07290000
30
  0.00000000
11
  0.12697321
21
 -0.07290000
31
  0.00000000
0
LINE
8
DC
6
CONTINUOUS
62
7
10
  0.12666771
20
 -0.07285000
30
  0.00000000
11
  0.12693229
21
 -0.07285000
31
  0.00000000
0
CIRCLE
8
DC
6
CONTINUOUS
62
7
10
  0.12680000
20
 -0.07300000
30
  0.00000000
40
  0.00020000
0
LINE
8
DC
6
CONTINUOUS
62
7
10
  0.12780000
20
 -0.07320000
30
  0.00000000
11
  0.12780000
21
 -0.07320000
31
  0.00000000
0
LINE
8
DC
6
CONTINUOUS
62
7
10
  0.12766771
20
 -0.07315000
30
  0.00000000
11
  0.12793229
21
 -0.07315000
31
  0.00000000
0
LINE
8
DC
6
CONTINUOUS
62
7
10
  0.12762679
20
 -0.07310000
30
  0.00000000
11
  0.12797321
21
 -0.07310000
31
  0.00000000
0
LINE
8
DC
6
CONTINUOUS
62
7
10
  0.12760635
20
 -0.07305000
30
  0.00000000
11
  0.12799365
21
 -0.07305000
31
  0.00000000
0
LINE
8
DC
6
CONTINUOUS
62
7
10
  0.12760000
20
 -0.07300000
30
  0.00000000
11
  0.12800000
21
 -0.07300000
31
  0.00000000
0
LINE
8
DC
6
CONTINUOUS
62
7
10
  0.12760635
20
 -0.07295000
30
  0.00000000
11
  0.12799365
21
 -0.07295000
31
  0.00000000
0
LINE
8
DC
6
CONTINUOUS
62
7
10
  0.12762679
20
 -0.07290000
30
  0.00000000
11
  0.12797321
21
 -0.07290000
31
  0.00000000
0
LINE
8
DC
6
CONTINUOUS
62
7
10
  0.12766771
20
 -0.07285000
30
  0.00000000
11
  0.12793229
21
 -0.07285000
31
  0.00000000
0
CIRCLE
8
DC
6
CONTINUOUS
62
7
10
  0.12780000
20
 -0.07300000
30
  0.00000000
40
  0.00020000
0
LINE
8
DC
6
CONTINUOUS
62
7
10
  0.12880000
20
 -0.07320000
30
  0.00000000
11
  0.12880000
21
 -0.07320000
31
  0.00000000
0
LINE
8
DC
6
CONTINUOUS
62
7
10
  0.12866771
20
 -0.07315000
30
  0.00000000
11
  0.12893229
21
 -0.07315000
31
  0.00000000
0
LINE
8
DC
6
CONTINUOUS
62
7
10
  0.12862679
20
 -0.07310000
30
  0.00000000
11
  0.12897321
21
 -0.07310000
31
  0.00000000
0
LINE
8
DC
6
CONTINUOUS
62
7
10
  0.12860635
20
 -0.07305000
30
  0.00000000
11
  0.12899365
21
 -0.07305000
31
  0.00000000
0
LINE
8
DC
6
CONTINUOUS
62
7
10
  0.12860000
20
 -0.07300000
30
  0.00000000
11
  0.12900000
21
 -0.07300000
31
  0.00000000
0
LINE
8
DC
6
CONTINUOUS
62
7
10
  0.12860635
20
 -0.07295000
30
  0.00000000
11
  0.12899365
21
 -0.07295000
31
  0.00000000
0
LINE
8
DC
6
CONTINUOUS
62
7
10
  0.12862679
20
 -0.07290000
30
  0.00000000
11
  0.12897321
21
 -0.07290000
31
  0.00000000
0
LINE
8
DC
6
CONTINUOUS
62
7
10
  0.12866771
20
 -0.07285000
30
  0.00000000
11
  0.12893229
21
 -0.07285000
31
  0.00000000
0
CIRCLE
8
DC
6
CONTINUOUS
62
7
10
  0.12880000
20
 -0.07300000
30
  0.00000000
40
  0.00020000
0
LINE
8
DC
6
CONTINUOUS
62
7
10
  0.12530000
20
 -0.07210000
30
  0.00000000
11
  0.12530000
21
 -0.07210000
31
  0.00000000
0
LINE
8
DC
6
CONTINUOUS
62
7
10
  0.12516771
20
 -0.07205000
30
  0.00000000
11
  0.12543229
21
 -0.07205000
31
  0.00000000
0
LINE
8
DC
6
CONTINUOUS
62
7
10
  0.12512679
20
 -0.07200000
30
  0.00000000
11
  0.12547321
21
 -0.07200000
31
  0.00000000
0
LINE
8
DC
6
CONTINUOUS
62
7
10
  0.12510635
20
 -0.07195000
30
  0.00000000
11
  0.12549365
21
 -0.07195000
31
  0.00000000
0
LINE
8
DC
6
CONTINUOUS
62
7
10
  0.12510000
20
 -0.07190000
30
  0.00000000
11
  0.12550000
21
 -0.07190000
31
  0.00000000
0
LINE
8
DC
6
CONTINUOUS
62
7
10
  0.12510635
20
 -0.07185000
30
  0.00000000
11
  0.12549365
21
 -0.07185000
31
  0.00000000
0
LINE
8
DC
6
CONTINUOUS
62
7
10
  0.12512679
20
 -0.07180000
30
  0.00000000
11
  0.12547321
21
 -0.07180000
31
  0.00000000
0
LINE
8
DC
6
CONTINUOUS
62
7
10
  0.12516771
20
 -0.07175000
30
  0.00000000
11
  0.12543229
21
 -0.07175000
31
  0.00000000
0
CIRCLE
8
DC
6
CONTINUOUS
62
7
10
  0.12530000
20
 -0.07190000
30
  0.00000000
40
  0.00020000
0
LINE
8
DC
6
CONTINUOUS
62
7
10
  0.12630000
20
 -0.07210000
30
  0.00000000
11
  0.12630000
21
 -0.07210000
31
  0.00000000
0
LINE
8
DC
6
CONTINUOUS
62
7
10
  0.12616771
20
 -0.07205000
30
  0.00000000
11
  0.12643229
21
 -0.07205000
31
  0.00000000
0
LINE
8
DC
6
CONTINUOUS
62
7
10
  0.12612679
20
 -0.07200000
30
  0.00000000
11
  0.12647321
21
 -0.07200000
31
  0.00000000
0
LINE
8
DC
6
CONTINUOUS
62
7
10
  0.12610635
20
 -0.07195000
30
  0.00000000
11
  0.12649365
21
 -0.07195000
31
  0.00000000
0
LINE
8
DC
6
CONTINUOUS
62
7
10
  0.12610000
20
 -0.07190000
30
  0.00000000
11
  0.12650000
21
 -0.07190000
31
  0.00000000
0
LINE
8
DC
6
CONTINUOUS
62
7
10
  0.12610635
20
 -0.07185000
30
  0.00000000
11
  0.12649365
21
 -0.07185000
31
  0.00000000
0
LINE
8
DC
6
CONTINUOUS
62
7
10
  0.12612679
20
 -0.07180000
30
  0.00000000
11
  0.12647321
21
 -0.07180000
31
  0.00000000
0
LINE
8
DC
6
CONTINUOUS
62
7
10
  0.12616771
20
 -0.07175000
30
  0.00000000
11
  0.12643229
21
 -0.07175000
31
  0.00000000
0
CIRCLE
8
DC
6
CONTINUOUS
62
7
10
  0.12630000
20
 -0.07190000
30
  0.00000000
40
  0.00020000
0
LINE
8
DC
6
CONTINUOUS
62
7
10
  0.12730000
20
 -0.07210000
30
  0.00000000
11
  0.12730000
21
 -0.07210000
31
  0.00000000
0
LINE
8
DC
6
CONTINUOUS
62
7
10
  0.12716771
20
 -0.07205000
30
  0.00000000
11
  0.12743229
21
 -0.07205000
31
  0.00000000
0
LINE
8
DC
6
CONTINUOUS
62
7
10
  0.12712679
20
 -0.07200000
30
  0.00000000
11
  0.12747321
21
 -0.07200000
31
  0.00000000
0
LINE
8
DC
6
CONTINUOUS
62
7
10
  0.12710635
20
 -0.07195000
30
  0.00000000
11
  0.12749365
21
 -0.07195000
31
  0.00000000
0
LINE
8
DC
6
CONTINUOUS
62
7
10
  0.12710000
20
 -0.07190000
30
  0.00000000
11
  0.12750000
21
 -0.07190000
31
  0.00000000
0
LINE
8
DC
6
CONTINUOUS
62
7
10
  0.12710635
20
 -0.07185000
30
  0.00000000
11
  0.12749365
21
 -0.07185000
31
  0.00000000
0
LINE
8
DC
6
CONTINUOUS
62
7
10
  0.12712679
20
 -0.07180000
30
  0.00000000
11
  0.12747321
21
 -0.07180000
31
  0.00000000
0
LINE
8
DC
6
CONTINUOUS
62
7
10
  0.12716771
20
 -0.07175000
30
  0.00000000
11
  0.12743229
21
 -0.07175000
31
  0.00000000
0
CIRCLE
8
DC
6
CONTINUOUS
62
7
10
  0.12730000
20
 -0.07190000
30
  0.00000000
40
  0.00020000
0
LINE
8
DC
6
CONTINUOUS
62
7
10
  0.12830000
20
 -0.07210000
30
  0.00000000
11
  0.12830000
21
 -0.07210000
31
  0.00000000
0
LINE
8
DC
6
CONTINUOUS
62
7
10
  0.12816771
20
 -0.07205000
30
  0.00000000
11
  0.12843229
21
 -0.07205000
31
  0.00000000
0
LINE
8
DC
6
CONTINUOUS
62
7
10
  0.12812679
20
 -0.07200000
30
  0.00000000
11
  0.12847321
21
 -0.07200000
31
  0.00000000
0
LINE
8
DC
6
CONTINUOUS
62
7
10
  0.12810635
20
 -0.07195000
30
  0.00000000
11
  0.12849365
21
 -0.07195000
31
  0.00000000
0
LINE
8
DC
6
CONTINUOUS
62
7
10
  0.12810000
20
 -0.07190000
30
  0.00000000
11
  0.12850000
21
 -0.07190000
31
  0.00000000
0
LINE
8
DC
6
CONTINUOUS
62
7
10
  0.12810635
20
 -0.07185000
30
  0.00000000
11
  0.12849365
21
 -0.07185000
31
  0.00000000
0
LINE
8
DC
6
CONTINUOUS
62
7
10
  0.12812679
20
 -0.07180000
30
  0.00000000
11
  0.12847321
21
 -0.07180000
31
  0.00000000
0
LINE
8
DC
6
CONTINUOUS
62
7
10
  0.12816771
20
 -0.07175000
30
  0.00000000
11
  0.12843229
21
 -0.07175000
31
  0.00000000
0
CIRCLE
8
DC
6
CONTINUOUS
62
7
10
  0.12830000
20
 -0.07190000
30
  0.00000000
40
  0.00020000
0
LINE
8
DC
6
CONTINUOUS
62
7
10
  0.12930000
20
 -0.07210000
30
  0.00000000
11
  0.12930000
21
 -0.07210000
31
  0.00000000
0
LINE
8
DC
6
CONTINUOUS
62
7
10
  0.12916771
20
 -0.07205000
30
  0.00000000
11
  0.12943229
21
 -0.07205000
31
  0.00000000
0
LINE
8
DC
6
CONTINUOUS
62
7
10
  0.12912679
20
 -0.07200000
30
  0.00000000
11
  0.12947321
21
 -0.07200000
31
  0.00000000
0
LINE
8
DC
6
CONTINUOUS
62
7
10
  0.12910635
20
 -0.07195000
30
  0.00000000
11
  0.12949365
21
 -0.07195000
31
  0.00000000
0
LINE
8
DC
6
CONTINUOUS
62
7
10
  0.12910000
20
 -0.07190000
30
  0.00000000
11
  0.12950000
21
 -0.07190000
31
  0.00000000
0
LINE
8
DC
6
CONTINUOUS
62
7
10
  0.12910635
20
 -0.07185000
30
  0.00000000
11
  0.12949365
21
 -0.07185000
31
  0.00000000
0
LINE
8
DC
6
CONTINUOUS
62
7
10
  0.12912679
20
 -0.07180000
30
  0.00000000
11
  0.12947321
21
 -0.07180000
31
  0.00000000
0
LINE
8
DC
6
CONTINUOUS
62
7
10
  0.12916771
20
 -0.07175000
30
  0.00000000
11
  0.12943229
21
 -0.07175000
31
  0.00000000
0
CIRCLE
8
DC
6
CONTINUOUS
62
7
10
  0.12930000
20
 -0.07190000
30
  0.00000000
40
  0.00020000
0
LINE
8
DC
6
CONTINUOUS
62
7
10
  0.12460000
20
 -0.07610000
30
  0.00000000
11
  0.12710000
21
 -0.07360000
31
  0.00000000
0
LINE
8
DC
6
CONTINUOUS
62
7
10
  0.12710000
20
 -0.07860000
30
  0.00000000
11
  0.12960000
21
 -0.07610000
31
  0.00000000
0
LINE
8
DC
6
CONTINUOUS
62
7
10
  0.12460000
20
 -0.07860000
30
  0.00000000
11
  0.12960000
21
 -0.07360000
31
  0.00000000
0
LINE
8
DC
6
CONTINUOUS
62
7
10
  0.12510000
20
 -0.07940000
30
  0.00000000
11
  0.12810000
21
 -0.07940000
31
  0.00000000
0
LINE
8
DC
6
CONTINUOUS
62
7
10
  0.12610000
20
 -0.08100000
30
  0.00000000
11
  0.12910000
21
 -0.08100000
31
  0.00000000
0
LINE
8
DC
6
CONTINUOUS
62
7
10
  0.12620000
20
 -0.08400000
30
  0.00000000
11
  0.12620000
21
 -0.08400000
31
  0.00000000
0
LINE
8
DC
6
CONTINUOUS
62
7
10
  0.12598206
20
 -0.08395000
30
  0.00000000
11
  0.12641794
21
 -0.08395000
31
  0.00000000
0
LINE
8
DC
6
CONTINUOUS
62
7
10
  0.12590000
20
 -0.08390000
30
  0.00000000
11
  0.12650000
21
 -0.08390000
31
  0.00000000
0
LINE
8
DC
6
CONTINUOUS
62
7
10
  0.12584293
20
 -0.08385000
30
  0.00000000
11
  0.12655707
21
 -0.08385000
31
  0.00000000
0
LINE
8
DC
6
CONTINUOUS
62
7
10
  0.12580000
20
 -0.08380000
30
  0.00000000
11
  0.12660000
21
 -0.08380000
31
  0.00000000
0
LINE
8
DC
6
CONTINUOUS
62
7
10
  0.12576699
20
 -0.08375000
30
  0.00000000
11
  0.12663301
21
 -0.08375000
31
  0.00000000
0
LINE
8
DC
6
CONTINUOUS
62
7
10
  0.12574174
20
 -0.08370000
30
  0.00000000
11
  0.12665826
21
 -0.08370000
31
  0.00000000
0
LINE
8
DC
6
CONTINUOUS
62
7
10
  0.12572303
20
 -0.08365000
30
  0.00000000
11
  0.12667697
21
 -0.08365000
31
  0.00000000
0
LINE
8
DC
6
CONTINUOUS
62
7
10
  0.12571010
20
 -0.08360000
30
  0.00000000
11
  0.12668990
21
 -0.08360000
31
  0.00000000
0
LINE
8
DC
6
CONTINUOUS
62
7
10
  0.12570251
20
 -0.08355000
30
  0.00000000
11
  0.12669749
21
 -0.08355000
31
  0.00000000
0
LINE
8
DC
6
CONTINUOUS
62
7
10
  0.12570000
20
 -0.08350000
30
  0.00000000
11
  0.12670000
21
 -0.08350000
31
  0.00000000
0
LINE
8
DC
6
CONTINUOUS
62
7
10
  0.12570251
20
 -0.08345000
30
  0.00000000
11
  0.12669749
21
 -0.08345000
31
  0.00000000
0
LINE
8
DC
6
CONTINUOUS
62
7
10
  0.12571010
20
 -0.08340000
30
  0.00000000
11
  0.12668990
21
 -0.08340000
31
  0.00000000
0
LINE
8
DC
6
CONTINUOUS
62
7
10
  0.12572303
20
 -0.08335000
30
  0.00000000
11
  0.12667697
21
 -0.08335000
31
  0.00000000
0
LINE
8
DC
6
CONTINUOUS
62
7
10
  0.12574174
20
 -0.08330000
30
  0.00000000
11
  0.12665826
21
 -0.08330000
31
  0.00000000
0
LINE
8
DC
6
CONTINUOUS
62
7
10
  0.12576699
20
 -0.08325000
30
  0.00000000
11
  0.12663301
21
 -0.08325000
31
  0.00000000
0
LINE
8
DC
6
CONTINUOUS
62
7
10
  0.12580000
20
 -0.08320000
30
  0.00000000
11
  0.12660000
21
 -0.08320000
31
  0.00000000
0
LINE
8
DC
6
CONTINUOUS
62
7
10
  0.12584293
20
 -0.08315000
30
  0.00000000
11
  0.12655707
21
 -0.08315000
31
  0.00000000
0
LINE
8
DC
6
CONTINUOUS
62
7
10
  0.12590000
20
 -0.08310000
30
  0.00000000
11
  0.12650000
21
 -0.08310000
31
  0.00000000
0
LINE
8
DC
6
CONTINUOUS
62
7
10
  0.12598206
20
 -0.08305000
30
  0.00000000
11
  0.12641794
21
 -0.08305000
31
  0.00000000
0
CIRCLE
8
DC
6
CONTINUOUS
62
7
10
  0.12620000
20
 -0.08350000
30
  0.00000000
40
  0.00050000
0
LINE
8
DC
6
CONTINUOUS
62
7
10
  0.12780000
20
 -0.08400000
30
  0.00000000
11
  0.12780000
21
 -0.08400000
31
  0.00000000
0
LINE
8
DC
6
CONTINUOUS
62
7
10
  0.12758206
20
 -0.08395000
30
  0.00000000
11
  0.12801794
21
 -0.08395000
31
  0.00000000
0
LINE
8
DC
6
CONTINUOUS
62
7
10
  0.12750000
20
 -0.08390000
30
  0.00000000
11
  0.12810000
21
 -0.08390000
31
  0.00000000
0
LINE
8
DC
6
CONTINUOUS
62
7
10
  0.12744293
20
 -0.08385000
30
  0.00000000
11
  0.12815707
21
 -0.08385000
31
  0.00000000
0
LINE
8
DC
6
CONTINUOUS
62
7
10
  0.12740000
20
 -0.08380000
30
  0.00000000
11
  0.12820000
21
 -0.08380000
31
  0.00000000
0
LINE
8
DC
6
CONTINUOUS
62
7
10
  0.12736699
20
 -0.08375000
30
  0.00000000
11
  0.12823301
21
 -0.08375000
31
  0.00000000
0
LINE
8
DC
6
CONTINUOUS
62
7
10
  0.12734174
20
 -0.08370000
30
  0.00000000
11
  0.12825826
21
 -0.08370000
31
  0.00000000
0
LINE
8
DC
6
CONTINUOUS
62
7
10
  0.12732303
20
 -0.08365000
30
  0.00000000
11
  0.12827697
21
 -0.08365000
31
  0.00000000
0
LINE
8
DC
6
CONTINUOUS
62
7
10
  0.12731010
20
 -0.08360000
30
  0.00000000
11
  0.12828990
21
 -0.08360000
31
  0.00000000
0
LINE
8
DC
6
CONTINUOUS
62
7
10
  0.12730251
20
 -0.08355000
30
  0.00000000
11
  0.12829749
21
 -0.08355000
31
  0.00000000
0
LINE
8
DC
6
CONTINUOUS
62
7
10
  0.12730000
20
 -0.08350000
30
  0.00000000
11
  0.12830000
21
 -0.08350000
31
  0.00000000
0
LINE
8
DC
6
CONTINUOUS
62
7
10
  0.12730251
20
 -0.08345000
30
  0.00000000
11
  0.12829749
21
 -0.08345000
31
  0.00000000
0
LINE
8
DC
6
CONTINUOUS
62
7
10
  0.12731010
20
 -0.08340000
30
  0.00000000
11
  0.12828990
21
 -0.08340000
31
  0.00000000
0
LINE
8
DC
6
CONTINUOUS
62
7
10
  0.12732303
20
 -0.08335000
30
  0.00000000
11
  0.12827697
21
 -0.08335000
31
  0.00000000
0
LINE
8
DC
6
CONTINUOUS
62
7
10
  0.12734174
20
 -0.08330000
30
  0.00000000
11
  0.12825826
21
 -0.08330000
31
  0.00000000
0
LINE
8
DC
6
CONTINUOUS
62
7
10
  0.12736699
20
 -0.08325000
30
  0.00000000
11
  0.12823301
21
 -0.08325000
31
  0.00000000
0
LINE
8
DC
6
CONTINUOUS
62
7
10
  0.12740000
20
 -0.08320000
30
  0.00000000
11
  0.12820000
21
 -0.08320000
31
  0.00000000
0
LINE
8
DC
6
CONTINUOUS
62
7
10
  0.12744293
20
 -0.08315000
30
  0.00000000
11
  0.12815707
21
 -0.08315000
31
  0.00000000
0
LINE
8
DC
6
CONTINUOUS
62
7
10
  0.12750000
20
 -0.08310000
30
  0.00000000
11
  0.12810000
21
 -0.08310000
31
  0.00000000
0
LINE
8
DC
6
CONTINUOUS
62
7
10
  0.12758206
20
 -0.08305000
30
  0.00000000
11
  0.12801794
21
 -0.08305000
31
  0.00000000
0
CIRCLE
8
DC
6
CONTINUOUS
62
7
10
  0.12780000
20
 -0.08350000
30
  0.00000000
40
  0.00050000
0
LINE
8
DC
6
CONTINUOUS
62
7
10
  0.11960000
20
 -0.06700000
30
  0.00000000
11
  0.13460000
21
 -0.06700000
31
  0.00000000
0
LINE
8
DC
6
CONTINUOUS
62
7
10
  0.13460000
20
 -0.06700000
30
  0.00000000
11
  0.13560000
21
 -0.08370000
31
  0.00000000
0
LINE
8
DC
6
CONTINUOUS
62
7
10
  0.13560000
20
 -0.08370000
30
  0.00000000
11
  0.17660000
21
 -0.08370000
31
  0.00000000
0
LINE
8
DC
6
CONTINUOUS
62
7
10
  0.11960000
20
 -0.08500000
30
  0.00000000
11
  0.11860000
21
 -0.08500000
31
  0.00000000
0
LINE
8
DC
6
CONTINUOUS
62
7
10
  0.10920000
20
 -0.08500000
30
  0.00000000
11
  0.11860000
21
 -0.08500000
31
  0.00000000
0
TEXT
8
DC
62
7
10
  0.11860000
20
 -0.08450000
30
  0.00000000
40
  0.00250000
41
  0.60000000
1
    2.00m
50
  0.00000000
72
2
73
0
11
  0.11860000
21
 -0.08450000
31
  0.00000000
0
TEXT
8
DC
62
7
10
  0.13660000
20
 -0.08730000
30
  0.00000000
40
  0.00216667
41
  0.60000000
1
Verwitterungslehm, Ton, stark 
50
  0.00000000
72
0
73
1
11
  0.13660000
21
 -0.08730000
31
  0.00000000
0
TEXT
8
DC
62
7
10
  0.13660000
20
 -0.09040000
30
  0.00000000
40
  0.00216667
41
  0.60000000
1
schluffig, schwach feinsandig
50
  0.00000000
72
0
73
1
11
  0.13660000
21
 -0.09040000
31
  0.00000000
0
TEXT
8
DC
62
7
10
  0.13660000
20
 -0.09350000
30
  0.00000000
40
  0.00216667
41
  0.60000000
1
halbfest
50
  0.00000000
72
0
73
1
11
  0.13660000
21
 -0.09350000
31
  0.00000000
0
TEXT
8
DC
62
7
10
  0.13660000
20
 -0.09660000
30
  0.00000000
40
  0.00216667
41
  0.60000000
1
erdfeucht
50
  0.00000000
72
0
73
1
11
  0.13660000
21
 -0.09660000
31
  0.00000000
0
TEXT
8
DC
62
7
10
  0.13660000
20
 -0.09970000
30
  0.00000000
40
  0.00216667
41
  0.60000000
1
graubraun
50
  0.00000000
72
0
73
1
11
  0.13660000
21
 -0.09970000
31
  0.00000000
0
CIRCLE
8
DC
6
CONTINUOUS
62
7
10
  0.18290000
20
 -0.09170000
30
  0.00000000
40
  0.00530000
0
TEXT
8
DC
62
7
10
  0.18090000
20
 -0.09370000
30
  0.00000000
40
  0.00250000
41
  0.60000000
1
TL
50
  0.00000000
72
0
73
1
11
  0.18090000
21
 -0.09370000
31
  0.00000000
0
LINE
8
DC
6
CONTINUOUS
62
7
10
  0.17040000
20
 -0.08860000
30
  0.00000000
11
  0.17660000
21
 -0.08860000
31
  0.00000000
0
LINE
8
DC
6
CONTINUOUS
62
7
10
  0.17660000
20
 -0.08860000
30
  0.00000000
11
  0.17660000
21
 -0.09480000
31
  0.00000000
0
LINE
8
DC
6
CONTINUOUS
62
7
10
  0.17660000
20
 -0.09480000
30
  0.00000000
11
  0.17040000
21
 -0.09480000
31
  0.00000000
0
LINE
8
DC
6
CONTINUOUS
62
7
10
  0.17040000
20
 -0.09480000
30
  0.00000000
11
  0.17040000
21
 -0.08860000
31
  0.00000000
0
TEXT
8
DC
62
7
10
  0.17350000
20
 -0.09370000
30
  0.00000000
40
  0.00250000
41
  0.60000000
1
4
50
  0.00000000
72
1
73
1
11
  0.17350000
21
 -0.09370000
31
  0.00000000
0
LINE
8
DC
6
CONTINUOUS
62
7
10
  0.13070000
20
 -0.08630000
30
  0.00000000
11
  0.13070000
21
 -0.08630000
31
  0.00000000
0
LINE
8
DC
6
CONTINUOUS
62
7
10
  0.13053417
20
 -0.08625000
30
  0.00000000
11
  0.13086583
21
 -0.08625000
31
  0.00000000
0
LINE
8
DC
6
CONTINUOUS
62
7
10
  0.13047639
20
 -0.08620000
30
  0.00000000
11
  0.13092361
21
 -0.08620000
31
  0.00000000
0
LINE
8
DC
6
CONTINUOUS
62
7
10
  0.13044019
20
 -0.08615000
30
  0.00000000
11
  0.13095981
21
 -0.08615000
31
  0.00000000
0
LINE
8
DC
6
CONTINUOUS
62
7
10
  0.13041716
20
 -0.08610000
30
  0.00000000
11
  0.13098284
21
 -0.08610000
31
  0.00000000
0
LINE
8
DC
6
CONTINUOUS
62
7
10
  0.13040420
20
 -0.08605000
30
  0.00000000
11
  0.13099580
21
 -0.08605000
31
  0.00000000
0
LINE
8
DC
6
CONTINUOUS
62
7
10
  0.13040000
20
 -0.08600000
30
  0.00000000
11
  0.13100000
21
 -0.08600000
31
  0.00000000
0
LINE
8
DC
6
CONTINUOUS
62
7
10
  0.13040420
20
 -0.08595000
30
  0.00000000
11
  0.13099580
21
 -0.08595000
31
  0.00000000
0
LINE
8
DC
6
CONTINUOUS
62
7
10
  0.13041716
20
 -0.08590000
30
  0.00000000
11
  0.13098284
21
 -0.08590000
31
  0.00000000
0
LINE
8
DC
6
CONTINUOUS
62
7
10
  0.13044019
20
 -0.08585000
30
  0.00000000
11
  0.13095981
21
 -0.08585000
31
  0.00000000
0
LINE
8
DC
6
CONTINUOUS
62
7
10
  0.13047639
20
 -0.08580000
30
  0.00000000
11
  0.13092361
21
 -0.08580000
31
  0.00000000
0
LINE
8
DC
6
CONTINUOUS
62
7
10
  0.13053417
20
 -0.08575000
30
  0.00000000
11
  0.13086583
21
 -0.08575000
31
  0.00000000
0
CIRCLE
8
DC
6
CONTINUOUS
62
7
10
  0.13070000
20
 -0.08600000
30
  0.00000000
40
  0.00030000
0
LINE
8
DC
6
CONTINUOUS
62
7
10
  0.13070000
20
 -0.08830000
30
  0.00000000
11
  0.13070000
21
 -0.08830000
31
  0.00000000
0
LINE
8
DC
6
CONTINUOUS
62
7
10
  0.13053417
20
 -0.08825000
30
  0.00000000
11
  0.13086583
21
 -0.08825000
31
  0.00000000
0
LINE
8
DC
6
CONTINUOUS
62
7
10
  0.13047639
20
 -0.08820000
30
  0.00000000
11
  0.13092361
21
 -0.08820000
31
  0.00000000
0
LINE
8
DC
6
CONTINUOUS
62
7
10
  0.13044019
20
 -0.08815000
30
  0.00000000
11
  0.13095981
21
 -0.08815000
31
  0.00000000
0
LINE
8
DC
6
CONTINUOUS
62
7
10
  0.13041716
20
 -0.08810000
30
  0.00000000
11
  0.13098284
21
 -0.08810000
31
  0.00000000
0
LINE
8
DC
6
CONTINUOUS
62
7
10
  0.13040420
20
 -0.08805000
30
  0.00000000
11
  0.13099580
21
 -0.08805000
31
  0.00000000
0
LINE
8
DC
6
CONTINUOUS
62
7
10
  0.13040000
20
 -0.08800000
30
  0.00000000
11
  0.13100000
21
 -0.08800000
31
  0.00000000
0
LINE
8
DC
6
CONTINUOUS
62
7
10
  0.13040420
20
 -0.08795000
30
  0.00000000
11
  0.13099580
21
 -0.08795000
31
  0.00000000
0
LINE
8
DC
6
CONTINUOUS
62
7
10
  0.13041716
20
 -0.08790000
30
  0.00000000
11
  0.13098284
21
 -0.08790000
31
  0.00000000
0
LINE
8
DC
6
CONTINUOUS
62
7
10
  0.13044019
20
 -0.08785000
30
  0.00000000
11
  0.13095981
21
 -0.08785000
31
  0.00000000
0
LINE
8
DC
6
CONTINUOUS
62
7
10
  0.13047639
20
 -0.08780000
30
  0.00000000
11
  0.13092361
21
 -0.08780000
31
  0.00000000
0
LINE
8
DC
6
CONTINUOUS
62
7
10
  0.13053417
20
 -0.08775000
30
  0.00000000
11
  0.13086583
21
 -0.08775000
31
  0.00000000
0
CIRCLE
8
DC
6
CONTINUOUS
62
7
10
  0.13070000
20
 -0.08800000
30
  0.00000000
40
  0.00030000
0
LINE
8
DC
6
CONTINUOUS
62
7
10
  0.13070000
20
 -0.09030000
30
  0.00000000
11
  0.13070000
21
 -0.09030000
31
  0.00000000
0
LINE
8
DC
6
CONTINUOUS
62
7
10
  0.13053417
20
 -0.09025000
30
  0.00000000
11
  0.13086583
21
 -0.09025000
31
  0.00000000
0
LINE
8
DC
6
CONTINUOUS
62
7
10
  0.13047639
20
 -0.09020000
30
  0.00000000
11
  0.13092361
21
 -0.09020000
31
  0.00000000
0
LINE
8
DC
6
CONTINUOUS
62
7
10
  0.13044019
20
 -0.09015000
30
  0.00000000
11
  0.13095981
21
 -0.09015000
31
  0.00000000
0
LINE
8
DC
6
CONTINUOUS
62
7
10
  0.13041716
20
 -0.09010000
30
  0.00000000
11
  0.13098284
21
 -0.09010000
31
  0.00000000
0
LINE
8
DC
6
CONTINUOUS
62
7
10
  0.13040420
20
 -0.09005000
30
  0.00000000
11
  0.13099580
21
 -0.09005000
31
  0.00000000
0
LINE
8
DC
6
CONTINUOUS
62
7
10
  0.13040000
20
 -0.09000000
30
  0.00000000
11
  0.13100000
21
 -0.09000000
31
  0.00000000
0
LINE
8
DC
6
CONTINUOUS
62
7
10
  0.13040420
20
 -0.08995000
30
  0.00000000
11
  0.13099580
21
 -0.08995000
31
  0.00000000
0
LINE
8
DC
6
CONTINUOUS
62
7
10
  0.13041716
20
 -0.08990000
30
  0.00000000
11
  0.13098284
21
 -0.08990000
31
  0.00000000
0
LINE
8
DC
6
CONTINUOUS
62
7
10
  0.13044019
20
 -0.08985000
30
  0.00000000
11
  0.13095981
21
 -0.08985000
31
  0.00000000
0
LINE
8
DC
6
CONTINUOUS
62
7
10
  0.13047639
20
 -0.08980000
30
  0.00000000
11
  0.13092361
21
 -0.08980000
31
  0.00000000
0
LINE
8
DC
6
CONTINUOUS
62
7
10
  0.13053417
20
 -0.08975000
30
  0.00000000
11
  0.13086583
21
 -0.08975000
31
  0.00000000
0
CIRCLE
8
DC
6
CONTINUOUS
62
7
10
  0.13070000
20
 -0.09000000
30
  0.00000000
40
  0.00030000
0
LINE
8
DC
6
CONTINUOUS
62
7
10
  0.13070000
20
 -0.09230000
30
  0.00000000
11
  0.13070000
21
 -0.09230000
31
  0.00000000
0
LINE
8
DC
6
CONTINUOUS
62
7
10
  0.13053417
20
 -0.09225000
30
  0.00000000
11
  0.13086583
21
 -0.09225000
31
  0.00000000
0
LINE
8
DC
6
CONTINUOUS
62
7
10
  0.13047639
20
 -0.09220000
30
  0.00000000
11
  0.13092361
21
 -0.09220000
31
  0.00000000
0
LINE
8
DC
6
CONTINUOUS
62
7
10
  0.13044019
20
 -0.09215000
30
  0.00000000
11
  0.13095981
21
 -0.09215000
31
  0.00000000
0
LINE
8
DC
6
CONTINUOUS
62
7
10
  0.13041716
20
 -0.09210000
30
  0.00000000
11
  0.13098284
21
 -0.09210000
31
  0.00000000
0
LINE
8
DC
6
CONTINUOUS
62
7
10
  0.13040420
20
 -0.09205000
30
  0.00000000
11
  0.13099580
21
 -0.09205000
31
  0.00000000
0
LINE
8
DC
6
CONTINUOUS
62
7
10
  0.13040000
20
 -0.09200000
30
  0.00000000
11
  0.13100000
21
 -0.09200000
31
  0.00000000
0
LINE
8
DC
6
CONTINUOUS
62
7
10
  0.13040420
20
 -0.09195000
30
  0.00000000
11
  0.13099580
21
 -0.09195000
31
  0.00000000
0
LINE
8
DC
6
CONTINUOUS
62
7
10
  0.13041716
20
 -0.09190000
30
  0.00000000
11
  0.13098284
21
 -0.09190000
31
  0.00000000
0
LINE
8
DC
6
CONTINUOUS
62
7
10
  0.13044019
20
 -0.09185000
30
  0.00000000
11
  0.13095981
21
 -0.09185000
31
  0.00000000
0
LINE
8
DC
6
CONTINUOUS
62
7
10
  0.13047639
20
 -0.09180000
30
  0.00000000
11
  0.13092361
21
 -0.09180000
31
  0.00000000
0
LINE
8
DC
6
CONTINUOUS
62
7
10
  0.13053417
20
 -0.09175000
30
  0.00000000
11
  0.13086583
21
 -0.09175000
31
  0.00000000
0
CIRCLE
8
DC
6
CONTINUOUS
62
7
10
  0.13070000
20
 -0.09200000
30
  0.00000000
40
  0.00030000
0
LINE
8
DC
6
CONTINUOUS
62
7
10
  0.13070000
20
 -0.09430000
30
  0.00000000
11
  0.13070000
21
 -0.09430000
31
  0.00000000
0
LINE
8
DC
6
CONTINUOUS
62
7
10
  0.13053417
20
 -0.09425000
30
  0.00000000
11
  0.13086583
21
 -0.09425000
31
  0.00000000
0
LINE
8
DC
6
CONTINUOUS
62
7
10
  0.13047639
20
 -0.09420000
30
  0.00000000
11
  0.13092361
21
 -0.09420000
31
  0.00000000
0
LINE
8
DC
6
CONTINUOUS
62
7
10
  0.13044019
20
 -0.09415000
30
  0.00000000
11
  0.13095981
21
 -0.09415000
31
  0.00000000
0
LINE
8
DC
6
CONTINUOUS
62
7
10
  0.13041716
20
 -0.09410000
30
  0.00000000
11
  0.13098284
21
 -0.09410000
31
  0.00000000
0
LINE
8
DC
6
CONTINUOUS
62
7
10
  0.13040420
20
 -0.09405000
30
  0.00000000
11
  0.13099580
21
 -0.09405000
31
  0.00000000
0
LINE
8
DC
6
CONTINUOUS
62
7
10
  0.13040000
20
 -0.09400000
30
  0.00000000
11
  0.13100000
21
 -0.09400000
31
  0.00000000
0
LINE
8
DC
6
CONTINUOUS
62
7
10
  0.13040420
20
 -0.09395000
30
  0.00000000
11
  0.13099580
21
 -0.09395000
31
  0.00000000
0
LINE
8
DC
6
CONTINUOUS
62
7
10
  0.13041716
20
 -0.09390000
30
  0.00000000
11
  0.13098284
21
 -0.09390000
31
  0.00000000
0
LINE
8
DC
6
CONTINUOUS
62
7
10
  0.13044019
20
 -0.09385000
30
  0.00000000
11
  0.13095981
21
 -0.09385000
31
  0.00000000
0
LINE
8
DC
6
CONTINUOUS
62
7
10
  0.13047639
20
 -0.09380000
30
  0.00000000
11
  0.13092361
21
 -0.09380000
31
  0.00000000
0
LINE
8
DC
6
CONTINUOUS
62
7
10
  0.13053417
20
 -0.09375000
30
  0.00000000
11
  0.13086583
21
 -0.09375000
31
  0.00000000
0
CIRCLE
8
DC
6
CONTINUOUS
62
7
10
  0.13070000
20
 -0.09400000
30
  0.00000000
40
  0.00030000
0
LINE
8
DC
6
CONTINUOUS
62
7
10
  0.13070000
20
 -0.09630000
30
  0.00000000
11
  0.13070000
21
 -0.09630000
31
  0.00000000
0
LINE
8
DC
6
CONTINUOUS
62
7
10
  0.13053417
20
 -0.09625000
30
  0.00000000
11
  0.13086583
21
 -0.09625000
31
  0.00000000
0
LINE
8
DC
6
CONTINUOUS
62
7
10
  0.13047639
20
 -0.09620000
30
  0.00000000
11
  0.13092361
21
 -0.09620000
31
  0.00000000
0
LINE
8
DC
6
CONTINUOUS
62
7
10
  0.13044019
20
 -0.09615000
30
  0.00000000
11
  0.13095981
21
 -0.09615000
31
  0.00000000
0
LINE
8
DC
6
CONTINUOUS
62
7
10
  0.13041716
20
 -0.09610000
30
  0.00000000
11
  0.13098284
21
 -0.09610000
31
  0.00000000
0
LINE
8
DC
6
CONTINUOUS
62
7
10
  0.13040420
20
 -0.09605000
30
  0.00000000
11
  0.13099580
21
 -0.09605000
31
  0.00000000
0
LINE
8
DC
6
CONTINUOUS
62
7
10
  0.13040000
20
 -0.09600000
30
  0.00000000
11
  0.13100000
21
 -0.09600000
31
  0.00000000
0
LINE
8
DC
6
CONTINUOUS
62
7
10
  0.13040420
20
 -0.09595000
30
  0.00000000
11
  0.13099580
21
 -0.09595000
31
  0.00000000
0
LINE
8
DC
6
CONTINUOUS
62
7
10
  0.13041716
20
 -0.09590000
30
  0.00000000
11
  0.13098284
21
 -0.09590000
31
  0.00000000
0
LINE
8
DC
6
CONTINUOUS
62
7
10
  0.13044019
20
 -0.09585000
30
  0.00000000
11
  0.13095981
21
 -0.09585000
31
  0.00000000
0
LINE
8
DC
6
CONTINUOUS
62
7
10
  0.13047639
20
 -0.09580000
30
  0.00000000
11
  0.13092361
21
 -0.09580000
31
  0.00000000
0
LINE
8
DC
6
CONTINUOUS
62
7
10
  0.13053417
20
 -0.09575000
30
  0.00000000
11
  0.13086583
21
 -0.09575000
31
  0.00000000
0
CIRCLE
8
DC
6
CONTINUOUS
62
7
10
  0.13070000
20
 -0.09600000
30
  0.00000000
40
  0.00030000
0
LINE
8
DC
6
CONTINUOUS
62
7
10
  0.13070000
20
 -0.09830000
30
  0.00000000
11
  0.13070000
21
 -0.09830000
31
  0.00000000
0
LINE
8
DC
6
CONTINUOUS
62
7
10
  0.13053417
20
 -0.09825000
30
  0.00000000
11
  0.13086583
21
 -0.09825000
31
  0.00000000
0
LINE
8
DC
6
CONTINUOUS
62
7
10
  0.13047639
20
 -0.09820000
30
  0.00000000
11
  0.13092361
21
 -0.09820000
31
  0.00000000
0
LINE
8
DC
6
CONTINUOUS
62
7
10
  0.13044019
20
 -0.09815000
30
  0.00000000
11
  0.13095981
21
 -0.09815000
31
  0.00000000
0
LINE
8
DC
6
CONTINUOUS
62
7
10
  0.13041716
20
 -0.09810000
30
  0.00000000
11
  0.13098284
21
 -0.09810000
31
  0.00000000
0
LINE
8
DC
6
CONTINUOUS
62
7
10
  0.13040420
20
 -0.09805000
30
  0.00000000
11
  0.13099580
21
 -0.09805000
31
  0.00000000
0
LINE
8
DC
6
CONTINUOUS
62
7
10
  0.13040000
20
 -0.09800000
30
  0.00000000
11
  0.13100000
21
 -0.09800000
31
  0.00000000
0
LINE
8
DC
6
CONTINUOUS
62
7
10
  0.13040420
20
 -0.09795000
30
  0.00000000
11
  0.13099580
21
 -0.09795000
31
  0.00000000
0
LINE
8
DC
6
CONTINUOUS
62
7
10
  0.13041716
20
 -0.09790000
30
  0.00000000
11
  0.13098284
21
 -0.09790000
31
  0.00000000
0
LINE
8
DC
6
CONTINUOUS
62
7
10
  0.13044019
20
 -0.09785000
30
  0.00000000
11
  0.13095981
21
 -0.09785000
31
  0.00000000
0
LINE
8
DC
6
CONTINUOUS
62
7
10
  0.13047639
20
 -0.09780000
30
  0.00000000
11
  0.13092361
21
 -0.09780000
31
  0.00000000
0
LINE
8
DC
6
CONTINUOUS
62
7
10
  0.13053417
20
 -0.09775000
30
  0.00000000
11
  0.13086583
21
 -0.09775000
31
  0.00000000
0
CIRCLE
8
DC
6
CONTINUOUS
62
7
10
  0.13070000
20
 -0.09800000
30
  0.00000000
40
  0.00030000
0
LINE
8
DC
6
CONTINUOUS
62
7
10
  0.13070000
20
 -0.10030000
30
  0.00000000
11
  0.13070000
21
 -0.10030000
31
  0.00000000
0
LINE
8
DC
6
CONTINUOUS
62
7
10
  0.13053417
20
 -0.10025000
30
  0.00000000
11
  0.13086583
21
 -0.10025000
31
  0.00000000
0
LINE
8
DC
6
CONTINUOUS
62
7
10
  0.13047639
20
 -0.10020000
30
  0.00000000
11
  0.13092361
21
 -0.10020000
31
  0.00000000
0
LINE
8
DC
6
CONTINUOUS
62
7
10
  0.13044019
20
 -0.10015000
30
  0.00000000
11
  0.13095981
21
 -0.10015000
31
  0.00000000
0
LINE
8
DC
6
CONTINUOUS
62
7
10
  0.13041716
20
 -0.10010000
30
  0.00000000
11
  0.13098284
21
 -0.10010000
31
  0.00000000
0
LINE
8
DC
6
CONTINUOUS
62
7
10
  0.13040420
20
 -0.10005000
30
  0.00000000
11
  0.13099580
21
 -0.10005000
31
  0.00000000
0
LINE
8
DC
6
CONTINUOUS
62
7
10
  0.13040000
20
 -0.10000000
30
  0.00000000
11
  0.13100000
21
 -0.10000000
31
  0.00000000
0
LINE
8
DC
6
CONTINUOUS
62
7
10
  0.13040420
20
 -0.09995000
30
  0.00000000
11
  0.13099580
21
 -0.09995000
31
  0.00000000
0
LINE
8
DC
6
CONTINUOUS
62
7
10
  0.13041716
20
 -0.09990000
30
  0.00000000
11
  0.13098284
21
 -0.09990000
31
  0.00000000
0
LINE
8
DC
6
CONTINUOUS
62
7
10
  0.13044019
20
 -0.09985000
30
  0.00000000
11
  0.13095981
21
 -0.09985000
31
  0.00000000
0
LINE
8
DC
6
CONTINUOUS
62
7
10
  0.13047639
20
 -0.09980000
30
  0.00000000
11
  0.13092361
21
 -0.09980000
31
  0.00000000
0
LINE
8
DC
6
CONTINUOUS
62
7
10
  0.13053417
20
 -0.09975000
30
  0.00000000
11
  0.13086583
21
 -0.09975000
31
  0.00000000
0
CIRCLE
8
DC
6
CONTINUOUS
62
7
10
  0.13070000
20
 -0.10000000
30
  0.00000000
40
  0.00030000
0
LINE
8
DC
6
CONTINUOUS
62
7
10
  0.13070000
20
 -0.10230000
30
  0.00000000
11
  0.13070000
21
 -0.10230000
31
  0.00000000
0
LINE
8
DC
6
CONTINUOUS
62
7
10
  0.13053417
20
 -0.10225000
30
  0.00000000
11
  0.13086583
21
 -0.10225000
31
  0.00000000
0
LINE
8
DC
6
CONTINUOUS
62
7
10
  0.13047639
20
 -0.10220000
30
  0.00000000
11
  0.13092361
21
 -0.10220000
31
  0.00000000
0
LINE
8
DC
6
CONTINUOUS
62
7
10
  0.13044019
20
 -0.10215000
30
  0.00000000
11
  0.13095981
21
 -0.10215000
31
  0.00000000
0
LINE
8
DC
6
CONTINUOUS
62
7
10
  0.13041716
20
 -0.10210000
30
  0.00000000
11
  0.13098284
21
 -0.10210000
31
  0.00000000
0
LINE
8
DC
6
CONTINUOUS
62
7
10
  0.13040420
20
 -0.10205000
30
  0.00000000
11
  0.13099580
21
 -0.10205000
31
  0.00000000
0
LINE
8
DC
6
CONTINUOUS
62
7
10
  0.13040000
20
 -0.10200000
30
  0.00000000
11
  0.13100000
21
 -0.10200000
31
  0.00000000
0
LINE
8
DC
6
CONTINUOUS
62
7
10
  0.13040420
20
 -0.10195000
30
  0.00000000
11
  0.13099580
21
 -0.10195000
31
  0.00000000
0
LINE
8
DC
6
CONTINUOUS
62
7
10
  0.13041716
20
 -0.10190000
30
  0.00000000
11
  0.13098284
21
 -0.10190000
31
  0.00000000
0
LINE
8
DC
6
CONTINUOUS
62
7
10
  0.13044019
20
 -0.10185000
30
  0.00000000
11
  0.13095981
21
 -0.10185000
31
  0.00000000
0
LINE
8
DC
6
CONTINUOUS
62
7
10
  0.13047639
20
 -0.10180000
30
  0.00000000
11
  0.13092361
21
 -0.10180000
31
  0.00000000
0
LINE
8
DC
6
CONTINUOUS
62
7
10
  0.13053417
20
 -0.10175000
30
  0.00000000
11
  0.13086583
21
 -0.10175000
31
  0.00000000
0
CIRCLE
8
DC
6
CONTINUOUS
62
7
10
  0.13070000
20
 -0.10200000
30
  0.00000000
40
  0.00030000
0
LINE
8
DC
6
CONTINUOUS
62
7
10
  0.13070000
20
 -0.10430000
30
  0.00000000
11
  0.13070000
21
 -0.10430000
31
  0.00000000
0
LINE
8
DC
6
CONTINUOUS
62
7
10
  0.13053417
20
 -0.10425000
30
  0.00000000
11
  0.13086583
21
 -0.10425000
31
  0.00000000
0
LINE
8
DC
6
CONTINUOUS
62
7
10
  0.13047639
20
 -0.10420000
30
  0.00000000
11
  0.13092361
21
 -0.10420000
31
  0.00000000
0
LINE
8
DC
6
CONTINUOUS
62
7
10
  0.13044019
20
 -0.10415000
30
  0.00000000
11
  0.13095981
21
 -0.10415000
31
  0.00000000
0
LINE
8
DC
6
CONTINUOUS
62
7
10
  0.13041716
20
 -0.10410000
30
  0.00000000
11
  0.13098284
21
 -0.10410000
31
  0.00000000
0
LINE
8
DC
6
CONTINUOUS
62
7
10
  0.13040420
20
 -0.10405000
30
  0.00000000
11
  0.13099580
21
 -0.10405000
31
  0.00000000
0
LINE
8
DC
6
CONTINUOUS
62
7
10
  0.13040000
20
 -0.10400000
30
  0.00000000
11
  0.13100000
21
 -0.10400000
31
  0.00000000
0
LINE
8
DC
6
CONTINUOUS
62
7
10
  0.13040420
20
 -0.10395000
30
  0.00000000
11
  0.13099580
21
 -0.10395000
31
  0.00000000
0
LINE
8
DC
6
CONTINUOUS
62
7
10
  0.13041716
20
 -0.10390000
30
  0.00000000
11
  0.13098284
21
 -0.10390000
31
  0.00000000
0
LINE
8
DC
6
CONTINUOUS
62
7
10
  0.13044019
20
 -0.10385000
30
  0.00000000
11
  0.13095981
21
 -0.10385000
31
  0.00000000
0
LINE
8
DC
6
CONTINUOUS
62
7
10
  0.13047639
20
 -0.10380000
30
  0.00000000
11
  0.13092361
21
 -0.10380000
31
  0.00000000
0
LINE
8
DC
6
CONTINUOUS
62
7
10
  0.13053417
20
 -0.10375000
30
  0.00000000
11
  0.13086583
21
 -0.10375000
31
  0.00000000
0
CIRCLE
8
DC
6
CONTINUOUS
62
7
10
  0.13070000
20
 -0.10400000
30
  0.00000000
40
  0.00030000
0
LINE
8
DC
6
CONTINUOUS
62
7
10
  0.13070000
20
 -0.10630000
30
  0.00000000
11
  0.13070000
21
 -0.10630000
31
  0.00000000
0
LINE
8
DC
6
CONTINUOUS
62
7
10
  0.13053417
20
 -0.10625000
30
  0.00000000
11
  0.13086583
21
 -0.10625000
31
  0.00000000
0
LINE
8
DC
6
CONTINUOUS
62
7
10
  0.13047639
20
 -0.10620000
30
  0.00000000
11
  0.13092361
21
 -0.10620000
31
  0.00000000
0
LINE
8
DC
6
CONTINUOUS
62
7
10
  0.13044019
20
 -0.10615000
30
  0.00000000
11
  0.13095981
21
 -0.10615000
31
  0.00000000
0
LINE
8
DC
6
CONTINUOUS
62
7
10
  0.13041716
20
 -0.10610000
30
  0.00000000
11
  0.13098284
21
 -0.10610000
31
  0.00000000
0
LINE
8
DC
6
CONTINUOUS
62
7
10
  0.13040420
20
 -0.10605000
30
  0.00000000
11
  0.13099580
21
 -0.10605000
31
  0.00000000
0
LINE
8
DC
6
CONTINUOUS
62
7
10
  0.13040000
20
 -0.10600000
30
  0.00000000
11
  0.13100000
21
 -0.10600000
31
  0.00000000
0
LINE
8
DC
6
CONTINUOUS
62
7
10
  0.13040420
20
 -0.10595000
30
  0.00000000
11
  0.13099580
21
 -0.10595000
31
  0.00000000
0
LINE
8
DC
6
CONTINUOUS
62
7
10
  0.13041716
20
 -0.10590000
30
  0.00000000
11
  0.13098284
21
 -0.10590000
31
  0.00000000
0
LINE
8
DC
6
CONTINUOUS
62
7
10
  0.13044019
20
 -0.10585000
30
  0.00000000
11
  0.13095981
21
 -0.10585000
31
  0.00000000
0
LINE
8
DC
6
CONTINUOUS
62
7
10
  0.13047639
20
 -0.10580000
30
  0.00000000
11
  0.13092361
21
 -0.10580000
31
  0.00000000
0
LINE
8
DC
6
CONTINUOUS
62
7
10
  0.13053417
20
 -0.10575000
30
  0.00000000
11
  0.13086583
21
 -0.10575000
31
  0.00000000
0
CIRCLE
8
DC
6
CONTINUOUS
62
7
10
  0.13070000
20
 -0.10600000
30
  0.00000000
40
  0.00030000
0
LINE
8
DC
6
CONTINUOUS
62
7
10
  0.13070000
20
 -0.10830000
30
  0.00000000
11
  0.13070000
21
 -0.10830000
31
  0.00000000
0
LINE
8
DC
6
CONTINUOUS
62
7
10
  0.13053417
20
 -0.10825000
30
  0.00000000
11
  0.13086583
21
 -0.10825000
31
  0.00000000
0
LINE
8
DC
6
CONTINUOUS
62
7
10
  0.13047639
20
 -0.10820000
30
  0.00000000
11
  0.13092361
21
 -0.10820000
31
  0.00000000
0
LINE
8
DC
6
CONTINUOUS
62
7
10
  0.13044019
20
 -0.10815000
30
  0.00000000
11
  0.13095981
21
 -0.10815000
31
  0.00000000
0
LINE
8
DC
6
CONTINUOUS
62
7
10
  0.13041716
20
 -0.10810000
30
  0.00000000
11
  0.13098284
21
 -0.10810000
31
  0.00000000
0
LINE
8
DC
6
CONTINUOUS
62
7
10
  0.13040420
20
 -0.10805000
30
  0.00000000
11
  0.13099580
21
 -0.10805000
31
  0.00000000
0
LINE
8
DC
6
CONTINUOUS
62
7
10
  0.13040000
20
 -0.10800000
30
  0.00000000
11
  0.13100000
21
 -0.10800000
31
  0.00000000
0
LINE
8
DC
6
CONTINUOUS
62
7
10
  0.13040420
20
 -0.10795000
30
  0.00000000
11
  0.13099580
21
 -0.10795000
31
  0.00000000
0
LINE
8
DC
6
CONTINUOUS
62
7
10
  0.13041716
20
 -0.10790000
30
  0.00000000
11
  0.13098284
21
 -0.10790000
31
  0.00000000
0
LINE
8
DC
6
CONTINUOUS
62
7
10
  0.13044019
20
 -0.10785000
30
  0.00000000
11
  0.13095981
21
 -0.10785000
31
  0.00000000
0
LINE
8
DC
6
CONTINUOUS
62
7
10
  0.13047639
20
 -0.10780000
30
  0.00000000
11
  0.13092361
21
 -0.10780000
31
  0.00000000
0
LINE
8
DC
6
CONTINUOUS
62
7
10
  0.13053417
20
 -0.10775000
30
  0.00000000
11
  0.13086583
21
 -0.10775000
31
  0.00000000
0
CIRCLE
8
DC
6
CONTINUOUS
62
7
10
  0.13070000
20
 -0.10800000
30
  0.00000000
40
  0.00030000
0
LINE
8
DC
6
CONTINUOUS
62
7
10
  0.13070000
20
 -0.11030000
30
  0.00000000
11
  0.13070000
21
 -0.11030000
31
  0.00000000
0
LINE
8
DC
6
CONTINUOUS
62
7
10
  0.13053417
20
 -0.11025000
30
  0.00000000
11
  0.13086583
21
 -0.11025000
31
  0.00000000
0
LINE
8
DC
6
CONTINUOUS
62
7
10
  0.13047639
20
 -0.11020000
30
  0.00000000
11
  0.13092361
21
 -0.11020000
31
  0.00000000
0
LINE
8
DC
6
CONTINUOUS
62
7
10
  0.13044019
20
 -0.11015000
30
  0.00000000
11
  0.13095981
21
 -0.11015000
31
  0.00000000
0
LINE
8
DC
6
CONTINUOUS
62
7
10
  0.13041716
20
 -0.11010000
30
  0.00000000
11
  0.13098284
21
 -0.11010000
31
  0.00000000
0
LINE
8
DC
6
CONTINUOUS
62
7
10
  0.13040420
20
 -0.11005000
30
  0.00000000
11
  0.13099580
21
 -0.11005000
31
  0.00000000
0
LINE
8
DC
6
CONTINUOUS
62
7
10
  0.13040000
20
 -0.11000000
30
  0.00000000
11
  0.13100000
21
 -0.11000000
31
  0.00000000
0
LINE
8
DC
6
CONTINUOUS
62
7
10
  0.13040420
20
 -0.10995000
30
  0.00000000
11
  0.13099580
21
 -0.10995000
31
  0.00000000
0
LINE
8
DC
6
CONTINUOUS
62
7
10
  0.13041716
20
 -0.10990000
30
  0.00000000
11
  0.13098284
21
 -0.10990000
31
  0.00000000
0
LINE
8
DC
6
CONTINUOUS
62
7
10
  0.13044019
20
 -0.10985000
30
  0.00000000
11
  0.13095981
21
 -0.10985000
31
  0.00000000
0
LINE
8
DC
6
CONTINUOUS
62
7
10
  0.13047639
20
 -0.10980000
30
  0.00000000
11
  0.13092361
21
 -0.10980000
31
  0.00000000
0
LINE
8
DC
6
CONTINUOUS
62
7
10
  0.13053417
20
 -0.10975000
30
  0.00000000
11
  0.13086583
21
 -0.10975000
31
  0.00000000
0
CIRCLE
8
DC
6
CONTINUOUS
62
7
10
  0.13070000
20
 -0.11000000
30
  0.00000000
40
  0.00030000
0
LINE
8
DC
6
CONTINUOUS
62
7
10
  0.13070000
20
 -0.11230000
30
  0.00000000
11
  0.13070000
21
 -0.11230000
31
  0.00000000
0
LINE
8
DC
6
CONTINUOUS
62
7
10
  0.13053417
20
 -0.11225000
30
  0.00000000
11
  0.13086583
21
 -0.11225000
31
  0.00000000
0
LINE
8
DC
6
CONTINUOUS
62
7
10
  0.13047639
20
 -0.11220000
30
  0.00000000
11
  0.13092361
21
 -0.11220000
31
  0.00000000
0
LINE
8
DC
6
CONTINUOUS
62
7
10
  0.13044019
20
 -0.11215000
30
  0.00000000
11
  0.13095981
21
 -0.11215000
31
  0.00000000
0
LINE
8
DC
6
CONTINUOUS
62
7
10
  0.13041716
20
 -0.11210000
30
  0.00000000
11
  0.13098284
21
 -0.11210000
31
  0.00000000
0
LINE
8
DC
6
CONTINUOUS
62
7
10
  0.13040420
20
 -0.11205000
30
  0.00000000
11
  0.13099580
21
 -0.11205000
31
  0.00000000
0
LINE
8
DC
6
CONTINUOUS
62
7
10
  0.13040000
20
 -0.11200000
30
  0.00000000
11
  0.13100000
21
 -0.11200000
31
  0.00000000
0
LINE
8
DC
6
CONTINUOUS
62
7
10
  0.13040420
20
 -0.11195000
30
  0.00000000
11
  0.13099580
21
 -0.11195000
31
  0.00000000
0
LINE
8
DC
6
CONTINUOUS
62
7
10
  0.13041716
20
 -0.11190000
30
  0.00000000
11
  0.13098284
21
 -0.11190000
31
  0.00000000
0
LINE
8
DC
6
CONTINUOUS
62
7
10
  0.13044019
20
 -0.11185000
30
  0.00000000
11
  0.13095981
21
 -0.11185000
31
  0.00000000
0
LINE
8
DC
6
CONTINUOUS
62
7
10
  0.13047639
20
 -0.11180000
30
  0.00000000
11
  0.13092361
21
 -0.11180000
31
  0.00000000
0
LINE
8
DC
6
CONTINUOUS
62
7
10
  0.13053417
20
 -0.11175000
30
  0.00000000
11
  0.13086583
21
 -0.11175000
31
  0.00000000
0
CIRCLE
8
DC
6
CONTINUOUS
62
7
10
  0.13070000
20
 -0.11200000
30
  0.00000000
40
  0.00030000
0
LINE
8
DC
6
CONTINUOUS
62
7
10
  0.13070000
20
 -0.11430000
30
  0.00000000
11
  0.13070000
21
 -0.11430000
31
  0.00000000
0
LINE
8
DC
6
CONTINUOUS
62
7
10
  0.13053417
20
 -0.11425000
30
  0.00000000
11
  0.13086583
21
 -0.11425000
31
  0.00000000
0
LINE
8
DC
6
CONTINUOUS
62
7
10
  0.13047639
20
 -0.11420000
30
  0.00000000
11
  0.13092361
21
 -0.11420000
31
  0.00000000
0
LINE
8
DC
6
CONTINUOUS
62
7
10
  0.13044019
20
 -0.11415000
30
  0.00000000
11
  0.13095981
21
 -0.11415000
31
  0.00000000
0
LINE
8
DC
6
CONTINUOUS
62
7
10
  0.13041716
20
 -0.11410000
30
  0.00000000
11
  0.13098284
21
 -0.11410000
31
  0.00000000
0
LINE
8
DC
6
CONTINUOUS
62
7
10
  0.13040420
20
 -0.11405000
30
  0.00000000
11
  0.13099580
21
 -0.11405000
31
  0.00000000
0
LINE
8
DC
6
CONTINUOUS
62
7
10
  0.13040000
20
 -0.11400000
30
  0.00000000
11
  0.13100000
21
 -0.11400000
31
  0.00000000
0
LINE
8
DC
6
CONTINUOUS
62
7
10
  0.13040420
20
 -0.11395000
30
  0.00000000
11
  0.13099580
21
 -0.11395000
31
  0.00000000
0
LINE
8
DC
6
CONTINUOUS
62
7
10
  0.13041716
20
 -0.11390000
30
  0.00000000
11
  0.13098284
21
 -0.11390000
31
  0.00000000
0
LINE
8
DC
6
CONTINUOUS
62
7
10
  0.13044019
20
 -0.11385000
30
  0.00000000
11
  0.13095981
21
 -0.11385000
31
  0.00000000
0
LINE
8
DC
6
CONTINUOUS
62
7
10
  0.13047639
20
 -0.11380000
30
  0.00000000
11
  0.13092361
21
 -0.11380000
31
  0.00000000
0
LINE
8
DC
6
CONTINUOUS
62
7
10
  0.13053417
20
 -0.11375000
30
  0.00000000
11
  0.13086583
21
 -0.11375000
31
  0.00000000
0
CIRCLE
8
DC
6
CONTINUOUS
62
7
10
  0.13070000
20
 -0.11400000
30
  0.00000000
40
  0.00030000
0
LINE
8
DC
6
CONTINUOUS
62
7
10
  0.13070000
20
 -0.11630000
30
  0.00000000
11
  0.13070000
21
 -0.11630000
31
  0.00000000
0
LINE
8
DC
6
CONTINUOUS
62
7
10
  0.13053417
20
 -0.11625000
30
  0.00000000
11
  0.13086583
21
 -0.11625000
31
  0.00000000
0
LINE
8
DC
6
CONTINUOUS
62
7
10
  0.13047639
20
 -0.11620000
30
  0.00000000
11
  0.13092361
21
 -0.11620000
31
  0.00000000
0
LINE
8
DC
6
CONTINUOUS
62
7
10
  0.13044019
20
 -0.11615000
30
  0.00000000
11
  0.13095981
21
 -0.11615000
31
  0.00000000
0
LINE
8
DC
6
CONTINUOUS
62
7
10
  0.13041716
20
 -0.11610000
30
  0.00000000
11
  0.13098284
21
 -0.11610000
31
  0.00000000
0
LINE
8
DC
6
CONTINUOUS
62
7
10
  0.13040420
20
 -0.11605000
30
  0.00000000
11
  0.13099580
21
 -0.11605000
31
  0.00000000
0
LINE
8
DC
6
CONTINUOUS
62
7
10
  0.13040000
20
 -0.11600000
30
  0.00000000
11
  0.13100000
21
 -0.11600000
31
  0.00000000
0
LINE
8
DC
6
CONTINUOUS
62
7
10
  0.13040420
20
 -0.11595000
30
  0.00000000
11
  0.13099580
21
 -0.11595000
31
  0.00000000
0
LINE
8
DC
6
CONTINUOUS
62
7
10
  0.13041716
20
 -0.11590000
30
  0.00000000
11
  0.13098284
21
 -0.11590000
31
  0.00000000
0
LINE
8
DC
6
CONTINUOUS
62
7
10
  0.13044019
20
 -0.11585000
30
  0.00000000
11
  0.13095981
21
 -0.11585000
31
  0.00000000
0
LINE
8
DC
6
CONTINUOUS
62
7
10
  0.13047639
20
 -0.11580000
30
  0.00000000
11
  0.13092361
21
 -0.11580000
31
  0.00000000
0
LINE
8
DC
6
CONTINUOUS
62
7
10
  0.13053417
20
 -0.11575000
30
  0.00000000
11
  0.13086583
21
 -0.11575000
31
  0.00000000
0
CIRCLE
8
DC
6
CONTINUOUS
62
7
10
  0.13070000
20
 -0.11600000
30
  0.00000000
40
  0.00030000
0
LINE
8
DC
6
CONTINUOUS
62
7
10
  0.13070000
20
 -0.11830000
30
  0.00000000
11
  0.13070000
21
 -0.11830000
31
  0.00000000
0
LINE
8
DC
6
CONTINUOUS
62
7
10
  0.13053417
20
 -0.11825000
30
  0.00000000
11
  0.13086583
21
 -0.11825000
31
  0.00000000
0
LINE
8
DC
6
CONTINUOUS
62
7
10
  0.13047639
20
 -0.11820000
30
  0.00000000
11
  0.13092361
21
 -0.11820000
31
  0.00000000
0
LINE
8
DC
6
CONTINUOUS
62
7
10
  0.13044019
20
 -0.11815000
30
  0.00000000
11
  0.13095981
21
 -0.11815000
31
  0.00000000
0
LINE
8
DC
6
CONTINUOUS
62
7
10
  0.13041716
20
 -0.11810000
30
  0.00000000
11
  0.13098284
21
 -0.11810000
31
  0.00000000
0
LINE
8
DC
6
CONTINUOUS
62
7
10
  0.13040420
20
 -0.11805000
30
  0.00000000
11
  0.13099580
21
 -0.11805000
31
  0.00000000
0
LINE
8
DC
6
CONTINUOUS
62
7
10
  0.13040000
20
 -0.11800000
30
  0.00000000
11
  0.13100000
21
 -0.11800000
31
  0.00000000
0
LINE
8
DC
6
CONTINUOUS
62
7
10
  0.13040420
20
 -0.11795000
30
  0.00000000
11
  0.13099580
21
 -0.11795000
31
  0.00000000
0
LINE
8
DC
6
CONTINUOUS
62
7
10
  0.13041716
20
 -0.11790000
30
  0.00000000
11
  0.13098284
21
 -0.11790000
31
  0.00000000
0
LINE
8
DC
6
CONTINUOUS
62
7
10
  0.13044019
20
 -0.11785000
30
  0.00000000
11
  0.13095981
21
 -0.11785000
31
  0.00000000
0
LINE
8
DC
6
CONTINUOUS
62
7
10
  0.13047639
20
 -0.11780000
30
  0.00000000
11
  0.13092361
21
 -0.11780000
31
  0.00000000
0
LINE
8
DC
6
CONTINUOUS
62
7
10
  0.13053417
20
 -0.11775000
30
  0.00000000
11
  0.13086583
21
 -0.11775000
31
  0.00000000
0
CIRCLE
8
DC
6
CONTINUOUS
62
7
10
  0.13070000
20
 -0.11800000
30
  0.00000000
40
  0.00030000
0
LINE
8
DC
6
CONTINUOUS
62
7
10
  0.13070000
20
 -0.12030000
30
  0.00000000
11
  0.13070000
21
 -0.12030000
31
  0.00000000
0
LINE
8
DC
6
CONTINUOUS
62
7
10
  0.13053417
20
 -0.12025000
30
  0.00000000
11
  0.13086583
21
 -0.12025000
31
  0.00000000
0
LINE
8
DC
6
CONTINUOUS
62
7
10
  0.13047639
20
 -0.12020000
30
  0.00000000
11
  0.13092361
21
 -0.12020000
31
  0.00000000
0
LINE
8
DC
6
CONTINUOUS
62
7
10
  0.13044019
20
 -0.12015000
30
  0.00000000
11
  0.13095981
21
 -0.12015000
31
  0.00000000
0
LINE
8
DC
6
CONTINUOUS
62
7
10
  0.13041716
20
 -0.12010000
30
  0.00000000
11
  0.13098284
21
 -0.12010000
31
  0.00000000
0
LINE
8
DC
6
CONTINUOUS
62
7
10
  0.13040420
20
 -0.12005000
30
  0.00000000
11
  0.13099580
21
 -0.12005000
31
  0.00000000
0
LINE
8
DC
6
CONTINUOUS
62
7
10
  0.13040000
20
 -0.12000000
30
  0.00000000
11
  0.13100000
21
 -0.12000000
31
  0.00000000
0
LINE
8
DC
6
CONTINUOUS
62
7
10
  0.13040420
20
 -0.11995000
30
  0.00000000
11
  0.13099580
21
 -0.11995000
31
  0.00000000
0
LINE
8
DC
6
CONTINUOUS
62
7
10
  0.13041716
20
 -0.11990000
30
  0.00000000
11
  0.13098284
21
 -0.11990000
31
  0.00000000
0
LINE
8
DC
6
CONTINUOUS
62
7
10
  0.13044019
20
 -0.11985000
30
  0.00000000
11
  0.13095981
21
 -0.11985000
31
  0.00000000
0
LINE
8
DC
6
CONTINUOUS
62
7
10
  0.13047639
20
 -0.11980000
30
  0.00000000
11
  0.13092361
21
 -0.11980000
31
  0.00000000
0
LINE
8
DC
6
CONTINUOUS
62
7
10
  0.13053417
20
 -0.11975000
30
  0.00000000
11
  0.13086583
21
 -0.11975000
31
  0.00000000
0
CIRCLE
8
DC
6
CONTINUOUS
62
7
10
  0.13070000
20
 -0.12000000
30
  0.00000000
40
  0.00030000
0
LINE
8
DC
6
CONTINUOUS
62
7
10
  0.13170000
20
 -0.08630000
30
  0.00000000
11
  0.13170000
21
 -0.08630000
31
  0.00000000
0
LINE
8
DC
6
CONTINUOUS
62
7
10
  0.13153417
20
 -0.08625000
30
  0.00000000
11
  0.13186583
21
 -0.08625000
31
  0.00000000
0
LINE
8
DC
6
CONTINUOUS
62
7
10
  0.13147639
20
 -0.08620000
30
  0.00000000
11
  0.13192361
21
 -0.08620000
31
  0.00000000
0
LINE
8
DC
6
CONTINUOUS
62
7
10
  0.13144019
20
 -0.08615000
30
  0.00000000
11
  0.13195981
21
 -0.08615000
31
  0.00000000
0
LINE
8
DC
6
CONTINUOUS
62
7
10
  0.13141716
20
 -0.08610000
30
  0.00000000
11
  0.13198284
21
 -0.08610000
31
  0.00000000
0
LINE
8
DC
6
CONTINUOUS
62
7
10
  0.13140420
20
 -0.08605000
30
  0.00000000
11
  0.13199580
21
 -0.08605000
31
  0.00000000
0
LINE
8
DC
6
CONTINUOUS
62
7
10
  0.13140000
20
 -0.08600000
30
  0.00000000
11
  0.13200000
21
 -0.08600000
31
  0.00000000
0
LINE
8
DC
6
CONTINUOUS
62
7
10
  0.13140420
20
 -0.08595000
30
  0.00000000
11
  0.13199580
21
 -0.08595000
31
  0.00000000
0
LINE
8
DC
6
CONTINUOUS
62
7
10
  0.13141716
20
 -0.08590000
30
  0.00000000
11
  0.13198284
21
 -0.08590000
31
  0.00000000
0
LINE
8
DC
6
CONTINUOUS
62
7
10
  0.13144019
20
 -0.08585000
30
  0.00000000
11
  0.13195981
21
 -0.08585000
31
  0.00000000
0
LINE
8
DC
6
CONTINUOUS
62
7
10
  0.13147639
20
 -0.08580000
30
  0.00000000
11
  0.13192361
21
 -0.08580000
31
  0.00000000
0
LINE
8
DC
6
CONTINUOUS
62
7
10
  0.13153417
20
 -0.08575000
30
  0.00000000
11
  0.13186583
21
 -0.08575000
31
  0.00000000
0
CIRCLE
8
DC
6
CONTINUOUS
62
7
10
  0.13170000
20
 -0.08600000
30
  0.00000000
40
  0.00030000
0
LINE
8
DC
6
CONTINUOUS
62
7
10
  0.13170000
20
 -0.08830000
30
  0.00000000
11
  0.13170000
21
 -0.08830000
31
  0.00000000
0
LINE
8
DC
6
CONTINUOUS
62
7
10
  0.13153417
20
 -0.08825000
30
  0.00000000
11
  0.13186583
21
 -0.08825000
31
  0.00000000
0
LINE
8
DC
6
CONTINUOUS
62
7
10
  0.13147639
20
 -0.08820000
30
  0.00000000
11
  0.13192361
21
 -0.08820000
31
  0.00000000
0
LINE
8
DC
6
CONTINUOUS
62
7
10
  0.13144019
20
 -0.08815000
30
  0.00000000
11
  0.13195981
21
 -0.08815000
31
  0.00000000
0
LINE
8
DC
6
CONTINUOUS
62
7
10
  0.13141716
20
 -0.08810000
30
  0.00000000
11
  0.13198284
21
 -0.08810000
31
  0.00000000
0
LINE
8
DC
6
CONTINUOUS
62
7
10
  0.13140420
20
 -0.08805000
30
  0.00000000
11
  0.13199580
21
 -0.08805000
31
  0.00000000
0
LINE
8
DC
6
CONTINUOUS
62
7
10
  0.13140000
20
 -0.08800000
30
  0.00000000
11
  0.13200000
21
 -0.08800000
31
  0.00000000
0
LINE
8
DC
6
CONTINUOUS
62
7
10
  0.13140420
20
 -0.08795000
30
  0.00000000
11
  0.13199580
21
 -0.08795000
31
  0.00000000
0
LINE
8
DC
6
CONTINUOUS
62
7
10
  0.13141716
20
 -0.08790000
30
  0.00000000
11
  0.13198284
21
 -0.08790000
31
  0.00000000
0
LINE
8
DC
6
CONTINUOUS
62
7
10
  0.13144019
20
 -0.08785000
30
  0.00000000
11
  0.13195981
21
 -0.08785000
31
  0.00000000
0
LINE
8
DC
6
CONTINUOUS
62
7
10
  0.13147639
20
 -0.08780000
30
  0.00000000
11
  0.13192361
21
 -0.08780000
31
  0.00000000
0
LINE
8
DC
6
CONTINUOUS
62
7
10
  0.13153417
20
 -0.08775000
30
  0.00000000
11
  0.13186583
21
 -0.08775000
31
  0.00000000
0
CIRCLE
8
DC
6
CONTINUOUS
62
7
10
  0.13170000
20
 -0.08800000
30
  0.00000000
40
  0.00030000
0
LINE
8
DC
6
CONTINUOUS
62
7
10
  0.13170000
20
 -0.09030000
30
  0.00000000
11
  0.13170000
21
 -0.09030000
31
  0.00000000
0
LINE
8
DC
6
CONTINUOUS
62
7
10
  0.13153417
20
 -0.09025000
30
  0.00000000
11
  0.13186583
21
 -0.09025000
31
  0.00000000
0
LINE
8
DC
6
CONTINUOUS
62
7
10
  0.13147639
20
 -0.09020000
30
  0.00000000
11
  0.13192361
21
 -0.09020000
31
  0.00000000
0
LINE
8
DC
6
CONTINUOUS
62
7
10
  0.13144019
20
 -0.09015000
30
  0.00000000
11
  0.13195981
21
 -0.09015000
31
  0.00000000
0
LINE
8
DC
6
CONTINUOUS
62
7
10
  0.13141716
20
 -0.09010000
30
  0.00000000
11
  0.13198284
21
 -0.09010000
31
  0.00000000
0
LINE
8
DC
6
CONTINUOUS
62
7
10
  0.13140420
20
 -0.09005000
30
  0.00000000
11
  0.13199580
21
 -0.09005000
31
  0.00000000
0
LINE
8
DC
6
CONTINUOUS
62
7
10
  0.13140000
20
 -0.09000000
30
  0.00000000
11
  0.13200000
21
 -0.09000000
31
  0.00000000
0
LINE
8
DC
6
CONTINUOUS
62
7
10
  0.13140420
20
 -0.08995000
30
  0.00000000
11
  0.13199580
21
 -0.08995000
31
  0.00000000
0
LINE
8
DC
6
CONTINUOUS
62
7
10
  0.13141716
20
 -0.08990000
30
  0.00000000
11
  0.13198284
21
 -0.08990000
31
  0.00000000
0
LINE
8
DC
6
CONTINUOUS
62
7
10
  0.13144019
20
 -0.08985000
30
  0.00000000
11
  0.13195981
21
 -0.08985000
31
  0.00000000
0
LINE
8
DC
6
CONTINUOUS
62
7
10
  0.13147639
20
 -0.08980000
30
  0.00000000
11
  0.13192361
21
 -0.08980000
31
  0.00000000
0
LINE
8
DC
6
CONTINUOUS
62
7
10
  0.13153417
20
 -0.08975000
30
  0.00000000
11
  0.13186583
21
 -0.08975000
31
  0.00000000
0
CIRCLE
8
DC
6
CONTINUOUS
62
7
10
  0.13170000
20
 -0.09000000
30
  0.00000000
40
  0.00030000
0
LINE
8
DC
6
CONTINUOUS
62
7
10
  0.13170000
20
 -0.09230000
30
  0.00000000
11
  0.13170000
21
 -0.09230000
31
  0.00000000
0
LINE
8
DC
6
CONTINUOUS
62
7
10
  0.13153417
20
 -0.09225000
30
  0.00000000
11
  0.13186583
21
 -0.09225000
31
  0.00000000
0
LINE
8
DC
6
CONTINUOUS
62
7
10
  0.13147639
20
 -0.09220000
30
  0.00000000
11
  0.13192361
21
 -0.09220000
31
  0.00000000
0
LINE
8
DC
6
CONTINUOUS
62
7
10
  0.13144019
20
 -0.09215000
30
  0.00000000
11
  0.13195981
21
 -0.09215000
31
  0.00000000
0
LINE
8
DC
6
CONTINUOUS
62
7
10
  0.13141716
20
 -0.09210000
30
  0.00000000
11
  0.13198284
21
 -0.09210000
31
  0.00000000
0
LINE
8
DC
6
CONTINUOUS
62
7
10
  0.13140420
20
 -0.09205000
30
  0.00000000
11
  0.13199580
21
 -0.09205000
31
  0.00000000
0
LINE
8
DC
6
CONTINUOUS
62
7
10
  0.13140000
20
 -0.09200000
30
  0.00000000
11
  0.13200000
21
 -0.09200000
31
  0.00000000
0
LINE
8
DC
6
CONTINUOUS
62
7
10
  0.13140420
20
 -0.09195000
30
  0.00000000
11
  0.13199580
21
 -0.09195000
31
  0.00000000
0
LINE
8
DC
6
CONTINUOUS
62
7
10
  0.13141716
20
 -0.09190000
30
  0.00000000
11
  0.13198284
21
 -0.09190000
31
  0.00000000
0
LINE
8
DC
6
CONTINUOUS
62
7
10
  0.13144019
20
 -0.09185000
30
  0.00000000
11
  0.13195981
21
 -0.09185000
31
  0.00000000
0
LINE
8
DC
6
CONTINUOUS
62
7
10
  0.13147639
20
 -0.09180000
30
  0.00000000
11
  0.13192361
21
 -0.09180000
31
  0.00000000
0
LINE
8
DC
6
CONTINUOUS
62
7
10
  0.13153417
20
 -0.09175000
30
  0.00000000
11
  0.13186583
21
 -0.09175000
31
  0.00000000
0
CIRCLE
8
DC
6
CONTINUOUS
62
7
10
  0.13170000
20
 -0.09200000
30
  0.00000000
40
  0.00030000
0
LINE
8
DC
6
CONTINUOUS
62
7
10
  0.13170000
20
 -0.09430000
30
  0.00000000
11
  0.13170000
21
 -0.09430000
31
  0.00000000
0
LINE
8
DC
6
CONTINUOUS
62
7
10
  0.13153417
20
 -0.09425000
30
  0.00000000
11
  0.13186583
21
 -0.09425000
31
  0.00000000
0
LINE
8
DC
6
CONTINUOUS
62
7
10
  0.13147639
20
 -0.09420000
30
  0.00000000
11
  0.13192361
21
 -0.09420000
31
  0.00000000
0
LINE
8
DC
6
CONTINUOUS
62
7
10
  0.13144019
20
 -0.09415000
30
  0.00000000
11
  0.13195981
21
 -0.09415000
31
  0.00000000
0
LINE
8
DC
6
CONTINUOUS
62
7
10
  0.13141716
20
 -0.09410000
30
  0.00000000
11
  0.13198284
21
 -0.09410000
31
  0.00000000
0
LINE
8
DC
6
CONTINUOUS
62
7
10
  0.13140420
20
 -0.09405000
30
  0.00000000
11
  0.13199580
21
 -0.09405000
31
  0.00000000
0
LINE
8
DC
6
CONTINUOUS
62
7
10
  0.13140000
20
 -0.09400000
30
  0.00000000
11
  0.13200000
21
 -0.09400000
31
  0.00000000
0
LINE
8
DC
6
CONTINUOUS
62
7
10
  0.13140420
20
 -0.09395000
30
  0.00000000
11
  0.13199580
21
 -0.09395000
31
  0.00000000
0
LINE
8
DC
6
CONTINUOUS
62
7
10
  0.13141716
20
 -0.09390000
30
  0.00000000
11
  0.13198284
21
 -0.09390000
31
  0.00000000
0
LINE
8
DC
6
CONTINUOUS
62
7
10
  0.13144019
20
 -0.09385000
30
  0.00000000
11
  0.13195981
21
 -0.09385000
31
  0.00000000
0
LINE
8
DC
6
CONTINUOUS
62
7
10
  0.13147639
20
 -0.09380000
30
  0.00000000
11
  0.13192361
21
 -0.09380000
31
  0.00000000
0
LINE
8
DC
6
CONTINUOUS
62
7
10
  0.13153417
20
 -0.09375000
30
  0.00000000
11
  0.13186583
21
 -0.09375000
31
  0.00000000
0
CIRCLE
8
DC
6
CONTINUOUS
62
7
10
  0.13170000
20
 -0.09400000
30
  0.00000000
40
  0.00030000
0
LINE
8
DC
6
CONTINUOUS
62
7
10
  0.13170000
20
 -0.09630000
30
  0.00000000
11
  0.13170000
21
 -0.09630000
31
  0.00000000
0
LINE
8
DC
6
CONTINUOUS
62
7
10
  0.13153417
20
 -0.09625000
30
  0.00000000
11
  0.13186583
21
 -0.09625000
31
  0.00000000
0
LINE
8
DC
6
CONTINUOUS
62
7
10
  0.13147639
20
 -0.09620000
30
  0.00000000
11
  0.13192361
21
 -0.09620000
31
  0.00000000
0
LINE
8
DC
6
CONTINUOUS
62
7
10
  0.13144019
20
 -0.09615000
30
  0.00000000
11
  0.13195981
21
 -0.09615000
31
  0.00000000
0
LINE
8
DC
6
CONTINUOUS
62
7
10
  0.13141716
20
 -0.09610000
30
  0.00000000
11
  0.13198284
21
 -0.09610000
31
  0.00000000
0
LINE
8
DC
6
CONTINUOUS
62
7
10
  0.13140420
20
 -0.09605000
30
  0.00000000
11
  0.13199580
21
 -0.09605000
31
  0.00000000
0
LINE
8
DC
6
CONTINUOUS
62
7
10
  0.13140000
20
 -0.09600000
30
  0.00000000
11
  0.13200000
21
 -0.09600000
31
  0.00000000
0
LINE
8
DC
6
CONTINUOUS
62
7
10
  0.13140420
20
 -0.09595000
30
  0.00000000
11
  0.13199580
21
 -0.09595000
31
  0.00000000
0
LINE
8
DC
6
CONTINUOUS
62
7
10
  0.13141716
20
 -0.09590000
30
  0.00000000
11
  0.13198284
21
 -0.09590000
31
  0.00000000
0
LINE
8
DC
6
CONTINUOUS
62
7
10
  0.13144019
20
 -0.09585000
30
  0.00000000
11
  0.13195981
21
 -0.09585000
31
  0.00000000
0
LINE
8
DC
6
CONTINUOUS
62
7
10
  0.13147639
20
 -0.09580000
30
  0.00000000
11
  0.13192361
21
 -0.09580000
31
  0.00000000
0
LINE
8
DC
6
CONTINUOUS
62
7
10
  0.13153417
20
 -0.09575000
30
  0.00000000
11
  0.13186583
21
 -0.09575000
31
  0.00000000
0
CIRCLE
8
DC
6
CONTINUOUS
62
7
10
  0.13170000
20
 -0.09600000
30
  0.00000000
40
  0.00030000
0
LINE
8
DC
6
CONTINUOUS
62
7
10
  0.13170000
20
 -0.09830000
30
  0.00000000
11
  0.13170000
21
 -0.09830000
31
  0.00000000
0
LINE
8
DC
6
CONTINUOUS
62
7
10
  0.13153417
20
 -0.09825000
30
  0.00000000
11
  0.13186583
21
 -0.09825000
31
  0.00000000
0
LINE
8
DC
6
CONTINUOUS
62
7
10
  0.13147639
20
 -0.09820000
30
  0.00000000
11
  0.13192361
21
 -0.09820000
31
  0.00000000
0
LINE
8
DC
6
CONTINUOUS
62
7
10
  0.13144019
20
 -0.09815000
30
  0.00000000
11
  0.13195981
21
 -0.09815000
31
  0.00000000
0
LINE
8
DC
6
CONTINUOUS
62
7
10
  0.13141716
20
 -0.09810000
30
  0.00000000
11
  0.13198284
21
 -0.09810000
31
  0.00000000
0
LINE
8
DC
6
CONTINUOUS
62
7
10
  0.13140420
20
 -0.09805000
30
  0.00000000
11
  0.13199580
21
 -0.09805000
31
  0.00000000
0
LINE
8
DC
6
CONTINUOUS
62
7
10
  0.13140000
20
 -0.09800000
30
  0.00000000
11
  0.13200000
21
 -0.09800000
31
  0.00000000
0
LINE
8
DC
6
CONTINUOUS
62
7
10
  0.13140420
20
 -0.09795000
30
  0.00000000
11
  0.13199580
21
 -0.09795000
31
  0.00000000
0
LINE
8
DC
6
CONTINUOUS
62
7
10
  0.13141716
20
 -0.09790000
30
  0.00000000
11
  0.13198284
21
 -0.09790000
31
  0.00000000
0
LINE
8
DC
6
CONTINUOUS
62
7
10
  0.13144019
20
 -0.09785000
30
  0.00000000
11
  0.13195981
21
 -0.09785000
31
  0.00000000
0
LINE
8
DC
6
CONTINUOUS
62
7
10
  0.13147639
20
 -0.09780000
30
  0.00000000
11
  0.13192361
21
 -0.09780000
31
  0.00000000
0
LINE
8
DC
6
CONTINUOUS
62
7
10
  0.13153417
20
 -0.09775000
30
  0.00000000
11
  0.13186583
21
 -0.09775000
31
  0.00000000
0
CIRCLE
8
DC
6
CONTINUOUS
62
7
10
  0.13170000
20
 -0.09800000
30
  0.00000000
40
  0.00030000
0
LINE
8
DC
6
CONTINUOUS
62
7
10
  0.13170000
20
 -0.10030000
30
  0.00000000
11
  0.13170000
21
 -0.10030000
31
  0.00000000
0
LINE
8
DC
6
CONTINUOUS
62
7
10
  0.13153417
20
 -0.10025000
30
  0.00000000
11
  0.13186583
21
 -0.10025000
31
  0.00000000
0
LINE
8
DC
6
CONTINUOUS
62
7
10
  0.13147639
20
 -0.10020000
30
  0.00000000
11
  0.13192361
21
 -0.10020000
31
  0.00000000
0
LINE
8
DC
6
CONTINUOUS
62
7
10
  0.13144019
20
 -0.10015000
30
  0.00000000
11
  0.13195981
21
 -0.10015000
31
  0.00000000
0
LINE
8
DC
6
CONTINUOUS
62
7
10
  0.13141716
20
 -0.10010000
30
  0.00000000
11
  0.13198284
21
 -0.10010000
31
  0.00000000
0
LINE
8
DC
6
CONTINUOUS
62
7
10
  0.13140420
20
 -0.10005000
30
  0.00000000
11
  0.13199580
21
 -0.10005000
31
  0.00000000
0
LINE
8
DC
6
CONTINUOUS
62
7
10
  0.13140000
20
 -0.10000000
30
  0.00000000
11
  0.13200000
21
 -0.10000000
31
  0.00000000
0
LINE
8
DC
6
CONTINUOUS
62
7
10
  0.13140420
20
 -0.09995000
30
  0.00000000
11
  0.13199580
21
 -0.09995000
31
  0.00000000
0
LINE
8
DC
6
CONTINUOUS
62
7
10
  0.13141716
20
 -0.09990000
30
  0.00000000
11
  0.13198284
21
 -0.09990000
31
  0.00000000
0
LINE
8
DC
6
CONTINUOUS
62
7
10
  0.13144019
20
 -0.09985000
30
  0.00000000
11
  0.13195981
21
 -0.09985000
31
  0.00000000
0
LINE
8
DC
6
CONTINUOUS
62
7
10
  0.13147639
20
 -0.09980000
30
  0.00000000
11
  0.13192361
21
 -0.09980000
31
  0.00000000
0
LINE
8
DC
6
CONTINUOUS
62
7
10
  0.13153417
20
 -0.09975000
30
  0.00000000
11
  0.13186583
21
 -0.09975000
31
  0.00000000
0
CIRCLE
8
DC
6
CONTINUOUS
62
7
10
  0.13170000
20
 -0.10000000
30
  0.00000000
40
  0.00030000
0
LINE
8
DC
6
CONTINUOUS
62
7
10
  0.13170000
20
 -0.10230000
30
  0.00000000
11
  0.13170000
21
 -0.10230000
31
  0.00000000
0
LINE
8
DC
6
CONTINUOUS
62
7
10
  0.13153417
20
 -0.10225000
30
  0.00000000
11
  0.13186583
21
 -0.10225000
31
  0.00000000
0
LINE
8
DC
6
CONTINUOUS
62
7
10
  0.13147639
20
 -0.10220000
30
  0.00000000
11
  0.13192361
21
 -0.10220000
31
  0.00000000
0
LINE
8
DC
6
CONTINUOUS
62
7
10
  0.13144019
20
 -0.10215000
30
  0.00000000
11
  0.13195981
21
 -0.10215000
31
  0.00000000
0
LINE
8
DC
6
CONTINUOUS
62
7
10
  0.13141716
20
 -0.10210000
30
  0.00000000
11
  0.13198284
21
 -0.10210000
31
  0.00000000
0
LINE
8
DC
6
CONTINUOUS
62
7
10
  0.13140420
20
 -0.10205000
30
  0.00000000
11
  0.13199580
21
 -0.10205000
31
  0.00000000
0
LINE
8
DC
6
CONTINUOUS
62
7
10
  0.13140000
20
 -0.10200000
30
  0.00000000
11
  0.13200000
21
 -0.10200000
31
  0.00000000
0
LINE
8
DC
6
CONTINUOUS
62
7
10
  0.13140420
20
 -0.10195000
30
  0.00000000
11
  0.13199580
21
 -0.10195000
31
  0.00000000
0
LINE
8
DC
6
CONTINUOUS
62
7
10
  0.13141716
20
 -0.10190000
30
  0.00000000
11
  0.13198284
21
 -0.10190000
31
  0.00000000
0
LINE
8
DC
6
CONTINUOUS
62
7
10
  0.13144019
20
 -0.10185000
30
  0.00000000
11
  0.13195981
21
 -0.10185000
31
  0.00000000
0
LINE
8
DC
6
CONTINUOUS
62
7
10
  0.13147639
20
 -0.10180000
30
  0.00000000
11
  0.13192361
21
 -0.10180000
31
  0.00000000
0
LINE
8
DC
6
CONTINUOUS
62
7
10
  0.13153417
20
 -0.10175000
30
  0.00000000
11
  0.13186583
21
 -0.10175000
31
  0.00000000
0
CIRCLE
8
DC
6
CONTINUOUS
62
7
10
  0.13170000
20
 -0.10200000
30
  0.00000000
40
  0.00030000
0
LINE
8
DC
6
CONTINUOUS
62
7
10
  0.13170000
20
 -0.10430000
30
  0.00000000
11
  0.13170000
21
 -0.10430000
31
  0.00000000
0
LINE
8
DC
6
CONTINUOUS
62
7
10
  0.13153417
20
 -0.10425000
30
  0.00000000
11
  0.13186583
21
 -0.10425000
31
  0.00000000
0
LINE
8
DC
6
CONTINUOUS
62
7
10
  0.13147639
20
 -0.10420000
30
  0.00000000
11
  0.13192361
21
 -0.10420000
31
  0.00000000
0
LINE
8
DC
6
CONTINUOUS
62
7
10
  0.13144019
20
 -0.10415000
30
  0.00000000
11
  0.13195981
21
 -0.10415000
31
  0.00000000
0
LINE
8
DC
6
CONTINUOUS
62
7
10
  0.13141716
20
 -0.10410000
30
  0.00000000
11
  0.13198284
21
 -0.10410000
31
  0.00000000
0
LINE
8
DC
6
CONTINUOUS
62
7
10
  0.13140420
20
 -0.10405000
30
  0.00000000
11
  0.13199580
21
 -0.10405000
31
  0.00000000
0
LINE
8
DC
6
CONTINUOUS
62
7
10
  0.13140000
20
 -0.10400000
30
  0.00000000
11
  0.13200000
21
 -0.10400000
31
  0.00000000
0
LINE
8
DC
6
CONTINUOUS
62
7
10
  0.13140420
20
 -0.10395000
30
  0.00000000
11
  0.13199580
21
 -0.10395000
31
  0.00000000
0
LINE
8
DC
6
CONTINUOUS
62
7
10
  0.13141716
20
 -0.10390000
30
  0.00000000
11
  0.13198284
21
 -0.10390000
31
  0.00000000
0
LINE
8
DC
6
CONTINUOUS
62
7
10
  0.13144019
20
 -0.10385000
30
  0.00000000
11
  0.13195981
21
 -0.10385000
31
  0.00000000
0
LINE
8
DC
6
CONTINUOUS
62
7
10
  0.13147639
20
 -0.10380000
30
  0.00000000
11
  0.13192361
21
 -0.10380000
31
  0.00000000
0
LINE
8
DC
6
CONTINUOUS
62
7
10
  0.13153417
20
 -0.10375000
30
  0.00000000
11
  0.13186583
21
 -0.10375000
31
  0.00000000
0
CIRCLE
8
DC
6
CONTINUOUS
62
7
10
  0.13170000
20
 -0.10400000
30
  0.00000000
40
  0.00030000
0
LINE
8
DC
6
CONTINUOUS
62
7
10
  0.13170000
20
 -0.10630000
30
  0.00000000
11
  0.13170000
21
 -0.10630000
31
  0.00000000
0
LINE
8
DC
6
CONTINUOUS
62
7
10
  0.13153417
20
 -0.10625000
30
  0.00000000
11
  0.13186583
21
 -0.10625000
31
  0.00000000
0
LINE
8
DC
6
CONTINUOUS
62
7
10
  0.13147639
20
 -0.10620000
30
  0.00000000
11
  0.13192361
21
 -0.10620000
31
  0.00000000
0
LINE
8
DC
6
CONTINUOUS
62
7
10
  0.13144019
20
 -0.10615000
30
  0.00000000
11
  0.13195981
21
 -0.10615000
31
  0.00000000
0
LINE
8
DC
6
CONTINUOUS
62
7
10
  0.13141716
20
 -0.10610000
30
  0.00000000
11
  0.13198284
21
 -0.10610000
31
  0.00000000
0
LINE
8
DC
6
CONTINUOUS
62
7
10
  0.13140420
20
 -0.10605000
30
  0.00000000
11
  0.13199580
21
 -0.10605000
31
  0.00000000
0
LINE
8
DC
6
CONTINUOUS
62
7
10
  0.13140000
20
 -0.10600000
30
  0.00000000
11
  0.13200000
21
 -0.10600000
31
  0.00000000
0
LINE
8
DC
6
CONTINUOUS
62
7
10
  0.13140420
20
 -0.10595000
30
  0.00000000
11
  0.13199580
21
 -0.10595000
31
  0.00000000
0
LINE
8
DC
6
CONTINUOUS
62
7
10
  0.13141716
20
 -0.10590000
30
  0.00000000
11
  0.13198284
21
 -0.10590000
31
  0.00000000
0
LINE
8
DC
6
CONTINUOUS
62
7
10
  0.13144019
20
 -0.10585000
30
  0.00000000
11
  0.13195981
21
 -0.10585000
31
  0.00000000
0
LINE
8
DC
6
CONTINUOUS
62
7
10
  0.13147639
20
 -0.10580000
30
  0.00000000
11
  0.13192361
21
 -0.10580000
31
  0.00000000
0
LINE
8
DC
6
CONTINUOUS
62
7
10
  0.13153417
20
 -0.10575000
30
  0.00000000
11
  0.13186583
21
 -0.10575000
31
  0.00000000
0
CIRCLE
8
DC
6
CONTINUOUS
62
7
10
  0.13170000
20
 -0.10600000
30
  0.00000000
40
  0.00030000
0
LINE
8
DC
6
CONTINUOUS
62
7
10
  0.13170000
20
 -0.10830000
30
  0.00000000
11
  0.13170000
21
 -0.10830000
31
  0.00000000
0
LINE
8
DC
6
CONTINUOUS
62
7
10
  0.13153417
20
 -0.10825000
30
  0.00000000
11
  0.13186583
21
 -0.10825000
31
  0.00000000
0
LINE
8
DC
6
CONTINUOUS
62
7
10
  0.13147639
20
 -0.10820000
30
  0.00000000
11
  0.13192361
21
 -0.10820000
31
  0.00000000
0
LINE
8
DC
6
CONTINUOUS
62
7
10
  0.13144019
20
 -0.10815000
30
  0.00000000
11
  0.13195981
21
 -0.10815000
31
  0.00000000
0
LINE
8
DC
6
CONTINUOUS
62
7
10
  0.13141716
20
 -0.10810000
30
  0.00000000
11
  0.13198284
21
 -0.10810000
31
  0.00000000
0
LINE
8
DC
6
CONTINUOUS
62
7
10
  0.13140420
20
 -0.10805000
30
  0.00000000
11
  0.13199580
21
 -0.10805000
31
  0.00000000
0
LINE
8
DC
6
CONTINUOUS
62
7
10
  0.13140000
20
 -0.10800000
30
  0.00000000
11
  0.13200000
21
 -0.10800000
31
  0.00000000
0
LINE
8
DC
6
CONTINUOUS
62
7
10
  0.13140420
20
 -0.10795000
30
  0.00000000
11
  0.13199580
21
 -0.10795000
31
  0.00000000
0
LINE
8
DC
6
CONTINUOUS
62
7
10
  0.13141716
20
 -0.10790000
30
  0.00000000
11
  0.13198284
21
 -0.10790000
31
  0.00000000
0
LINE
8
DC
6
CONTINUOUS
62
7
10
  0.13144019
20
 -0.10785000
30
  0.00000000
11
  0.13195981
21
 -0.10785000
31
  0.00000000
0
LINE
8
DC
6
CONTINUOUS
62
7
10
  0.13147639
20
 -0.10780000
30
  0.00000000
11
  0.13192361
21
 -0.10780000
31
  0.00000000
0
LINE
8
DC
6
CONTINUOUS
62
7
10
  0.13153417
20
 -0.10775000
30
  0.00000000
11
  0.13186583
21
 -0.10775000
31
  0.00000000
0
CIRCLE
8
DC
6
CONTINUOUS
62
7
10
  0.13170000
20
 -0.10800000
30
  0.00000000
40
  0.00030000
0
LINE
8
DC
6
CONTINUOUS
62
7
10
  0.13170000
20
 -0.11030000
30
  0.00000000
11
  0.13170000
21
 -0.11030000
31
  0.00000000
0
LINE
8
DC
6
CONTINUOUS
62
7
10
  0.13153417
20
 -0.11025000
30
  0.00000000
11
  0.13186583
21
 -0.11025000
31
  0.00000000
0
LINE
8
DC
6
CONTINUOUS
62
7
10
  0.13147639
20
 -0.11020000
30
  0.00000000
11
  0.13192361
21
 -0.11020000
31
  0.00000000
0
LINE
8
DC
6
CONTINUOUS
62
7
10
  0.13144019
20
 -0.11015000
30
  0.00000000
11
  0.13195981
21
 -0.11015000
31
  0.00000000
0
LINE
8
DC
6
CONTINUOUS
62
7
10
  0.13141716
20
 -0.11010000
30
  0.00000000
11
  0.13198284
21
 -0.11010000
31
  0.00000000
0
LINE
8
DC
6
CONTINUOUS
62
7
10
  0.13140420
20
 -0.11005000
30
  0.00000000
11
  0.13199580
21
 -0.11005000
31
  0.00000000
0
LINE
8
DC
6
CONTINUOUS
62
7
10
  0.13140000
20
 -0.11000000
30
  0.00000000
11
  0.13200000
21
 -0.11000000
31
  0.00000000
0
LINE
8
DC
6
CONTINUOUS
62
7
10
  0.13140420
20
 -0.10995000
30
  0.00000000
11
  0.13199580
21
 -0.10995000
31
  0.00000000
0
LINE
8
DC
6
CONTINUOUS
62
7
10
  0.13141716
20
 -0.10990000
30
  0.00000000
11
  0.13198284
21
 -0.10990000
31
  0.00000000
0
LINE
8
DC
6
CONTINUOUS
62
7
10
  0.13144019
20
 -0.10985000
30
  0.00000000
11
  0.13195981
21
 -0.10985000
31
  0.00000000
0
LINE
8
DC
6
CONTINUOUS
62
7
10
  0.13147639
20
 -0.10980000
30
  0.00000000
11
  0.13192361
21
 -0.10980000
31
  0.00000000
0
LINE
8
DC
6
CONTINUOUS
62
7
10
  0.13153417
20
 -0.10975000
30
  0.00000000
11
  0.13186583
21
 -0.10975000
31
  0.00000000
0
CIRCLE
8
DC
6
CONTINUOUS
62
7
10
  0.13170000
20
 -0.11000000
30
  0.00000000
40
  0.00030000
0
LINE
8
DC
6
CONTINUOUS
62
7
10
  0.13170000
20
 -0.11230000
30
  0.00000000
11
  0.13170000
21
 -0.11230000
31
  0.00000000
0
LINE
8
DC
6
CONTINUOUS
62
7
10
  0.13153417
20
 -0.11225000
30
  0.00000000
11
  0.13186583
21
 -0.11225000
31
  0.00000000
0
LINE
8
DC
6
CONTINUOUS
62
7
10
  0.13147639
20
 -0.11220000
30
  0.00000000
11
  0.13192361
21
 -0.11220000
31
  0.00000000
0
LINE
8
DC
6
CONTINUOUS
62
7
10
  0.13144019
20
 -0.11215000
30
  0.00000000
11
  0.13195981
21
 -0.11215000
31
  0.00000000
0
LINE
8
DC
6
CONTINUOUS
62
7
10
  0.13141716
20
 -0.11210000
30
  0.00000000
11
  0.13198284
21
 -0.11210000
31
  0.00000000
0
LINE
8
DC
6
CONTINUOUS
62
7
10
  0.13140420
20
 -0.11205000
30
  0.00000000
11
  0.13199580
21
 -0.11205000
31
  0.00000000
0
LINE
8
DC
6
CONTINUOUS
62
7
10
  0.13140000
20
 -0.11200000
30
  0.00000000
11
  0.13200000
21
 -0.11200000
31
  0.00000000
0
LINE
8
DC
6
CONTINUOUS
62
7
10
  0.13140420
20
 -0.11195000
30
  0.00000000
11
  0.13199580
21
 -0.11195000
31
  0.00000000
0
LINE
8
DC
6
CONTINUOUS
62
7
10
  0.13141716
20
 -0.11190000
30
  0.00000000
11
  0.13198284
21
 -0.11190000
31
  0.00000000
0
LINE
8
DC
6
CONTINUOUS
62
7
10
  0.13144019
20
 -0.11185000
30
  0.00000000
11
  0.13195981
21
 -0.11185000
31
  0.00000000
0
LINE
8
DC
6
CONTINUOUS
62
7
10
  0.13147639
20
 -0.11180000
30
  0.00000000
11
  0.13192361
21
 -0.11180000
31
  0.00000000
0
LINE
8
DC
6
CONTINUOUS
62
7
10
  0.13153417
20
 -0.11175000
30
  0.00000000
11
  0.13186583
21
 -0.11175000
31
  0.00000000
0
CIRCLE
8
DC
6
CONTINUOUS
62
7
10
  0.13170000
20
 -0.11200000
30
  0.00000000
40
  0.00030000
0
LINE
8
DC
6
CONTINUOUS
62
7
10
  0.13170000
20
 -0.11430000
30
  0.00000000
11
  0.13170000
21
 -0.11430000
31
  0.00000000
0
LINE
8
DC
6
CONTINUOUS
62
7
10
  0.13153417
20
 -0.11425000
30
  0.00000000
11
  0.13186583
21
 -0.11425000
31
  0.00000000
0
LINE
8
DC
6
CONTINUOUS
62
7
10
  0.13147639
20
 -0.11420000
30
  0.00000000
11
  0.13192361
21
 -0.11420000
31
  0.00000000
0
LINE
8
DC
6
CONTINUOUS
62
7
10
  0.13144019
20
 -0.11415000
30
  0.00000000
11
  0.13195981
21
 -0.11415000
31
  0.00000000
0
LINE
8
DC
6
CONTINUOUS
62
7
10
  0.13141716
20
 -0.11410000
30
  0.00000000
11
  0.13198284
21
 -0.11410000
31
  0.00000000
0
LINE
8
DC
6
CONTINUOUS
62
7
10
  0.13140420
20
 -0.11405000
30
  0.00000000
11
  0.13199580
21
 -0.11405000
31
  0.00000000
0
LINE
8
DC
6
CONTINUOUS
62
7
10
  0.13140000
20
 -0.11400000
30
  0.00000000
11
  0.13200000
21
 -0.11400000
31
  0.00000000
0
LINE
8
DC
6
CONTINUOUS
62
7
10
  0.13140420
20
 -0.11395000
30
  0.00000000
11
  0.13199580
21
 -0.11395000
31
  0.00000000
0
LINE
8
DC
6
CONTINUOUS
62
7
10
  0.13141716
20
 -0.11390000
30
  0.00000000
11
  0.13198284
21
 -0.11390000
31
  0.00000000
0
LINE
8
DC
6
CONTINUOUS
62
7
10
  0.13144019
20
 -0.11385000
30
  0.00000000
11
  0.13195981
21
 -0.11385000
31
  0.00000000
0
LINE
8
DC
6
CONTINUOUS
62
7
10
  0.13147639
20
 -0.11380000
30
  0.00000000
11
  0.13192361
21
 -0.11380000
31
  0.00000000
0
LINE
8
DC
6
CONTINUOUS
62
7
10
  0.13153417
20
 -0.11375000
30
  0.00000000
11
  0.13186583
21
 -0.11375000
31
  0.00000000
0
CIRCLE
8
DC
6
CONTINUOUS
62
7
10
  0.13170000
20
 -0.11400000
30
  0.00000000
40
  0.00030000
0
LINE
8
DC
6
CONTINUOUS
62
7
10
  0.13170000
20
 -0.11630000
30
  0.00000000
11
  0.13170000
21
 -0.11630000
31
  0.00000000
0
LINE
8
DC
6
CONTINUOUS
62
7
10
  0.13153417
20
 -0.11625000
30
  0.00000000
11
  0.13186583
21
 -0.11625000
31
  0.00000000
0
LINE
8
DC
6
CONTINUOUS
62
7
10
  0.13147639
20
 -0.11620000
30
  0.00000000
11
  0.13192361
21
 -0.11620000
31
  0.00000000
0
LINE
8
DC
6
CONTINUOUS
62
7
10
  0.13144019
20
 -0.11615000
30
  0.00000000
11
  0.13195981
21
 -0.11615000
31
  0.00000000
0
LINE
8
DC
6
CONTINUOUS
62
7
10
  0.13141716
20
 -0.11610000
30
  0.00000000
11
  0.13198284
21
 -0.11610000
31
  0.00000000
0
LINE
8
DC
6
CONTINUOUS
62
7
10
  0.13140420
20
 -0.11605000
30
  0.00000000
11
  0.13199580
21
 -0.11605000
31
  0.00000000
0
LINE
8
DC
6
CONTINUOUS
62
7
10
  0.13140000
20
 -0.11600000
30
  0.00000000
11
  0.13200000
21
 -0.11600000
31
  0.00000000
0
LINE
8
DC
6
CONTINUOUS
62
7
10
  0.13140420
20
 -0.11595000
30
  0.00000000
11
  0.13199580
21
 -0.11595000
31
  0.00000000
0
LINE
8
DC
6
CONTINUOUS
62
7
10
  0.13141716
20
 -0.11590000
30
  0.00000000
11
  0.13198284
21
 -0.11590000
31
  0.00000000
0
LINE
8
DC
6
CONTINUOUS
62
7
10
  0.13144019
20
 -0.11585000
30
  0.00000000
11
  0.13195981
21
 -0.11585000
31
  0.00000000
0
LINE
8
DC
6
CONTINUOUS
62
7
10
  0.13147639
20
 -0.11580000
30
  0.00000000
11
  0.13192361
21
 -0.11580000
31
  0.00000000
0
LINE
8
DC
6
CONTINUOUS
62
7
10
  0.13153417
20
 -0.11575000
30
  0.00000000
11
  0.13186583
21
 -0.11575000
31
  0.00000000
0
CIRCLE
8
DC
6
CONTINUOUS
62
7
10
  0.13170000
20
 -0.11600000
30
  0.00000000
40
  0.00030000
0
LINE
8
DC
6
CONTINUOUS
62
7
10
  0.13170000
20
 -0.11830000
30
  0.00000000
11
  0.13170000
21
 -0.11830000
31
  0.00000000
0
LINE
8
DC
6
CONTINUOUS
62
7
10
  0.13153417
20
 -0.11825000
30
  0.00000000
11
  0.13186583
21
 -0.11825000
31
  0.00000000
0
LINE
8
DC
6
CONTINUOUS
62
7
10
  0.13147639
20
 -0.11820000
30
  0.00000000
11
  0.13192361
21
 -0.11820000
31
  0.00000000
0
LINE
8
DC
6
CONTINUOUS
62
7
10
  0.13144019
20
 -0.11815000
30
  0.00000000
11
  0.13195981
21
 -0.11815000
31
  0.00000000
0
LINE
8
DC
6
CONTINUOUS
62
7
10
  0.13141716
20
 -0.11810000
30
  0.00000000
11
  0.13198284
21
 -0.11810000
31
  0.00000000
0
LINE
8
DC
6
CONTINUOUS
62
7
10
  0.13140420
20
 -0.11805000
30
  0.00000000
11
  0.13199580
21
 -0.11805000
31
  0.00000000
0
LINE
8
DC
6
CONTINUOUS
62
7
10
  0.13140000
20
 -0.11800000
30
  0.00000000
11
  0.13200000
21
 -0.11800000
31
  0.00000000
0
LINE
8
DC
6
CONTINUOUS
62
7
10
  0.13140420
20
 -0.11795000
30
  0.00000000
11
  0.13199580
21
 -0.11795000
31
  0.00000000
0
LINE
8
DC
6
CONTINUOUS
62
7
10
  0.13141716
20
 -0.11790000
30
  0.00000000
11
  0.13198284
21
 -0.11790000
31
  0.00000000
0
LINE
8
DC
6
CONTINUOUS
62
7
10
  0.13144019
20
 -0.11785000
30
  0.00000000
11
  0.13195981
21
 -0.11785000
31
  0.00000000
0
LINE
8
DC
6
CONTINUOUS
62
7
10
  0.13147639
20
 -0.11780000
30
  0.00000000
11
  0.13192361
21
 -0.11780000
31
  0.00000000
0
LINE
8
DC
6
CONTINUOUS
62
7
10
  0.13153417
20
 -0.11775000
30
  0.00000000
11
  0.13186583
21
 -0.11775000
31
  0.00000000
0
CIRCLE
8
DC
6
CONTINUOUS
62
7
10
  0.13170000
20
 -0.11800000
30
  0.00000000
40
  0.00030000
0
LINE
8
DC
6
CONTINUOUS
62
7
10
  0.13170000
20
 -0.12030000
30
  0.00000000
11
  0.13170000
21
 -0.12030000
31
  0.00000000
0
LINE
8
DC
6
CONTINUOUS
62
7
10
  0.13153417
20
 -0.12025000
30
  0.00000000
11
  0.13186583
21
 -0.12025000
31
  0.00000000
0
LINE
8
DC
6
CONTINUOUS
62
7
10
  0.13147639
20
 -0.12020000
30
  0.00000000
11
  0.13192361
21
 -0.12020000
31
  0.00000000
0
LINE
8
DC
6
CONTINUOUS
62
7
10
  0.13144019
20
 -0.12015000
30
  0.00000000
11
  0.13195981
21
 -0.12015000
31
  0.00000000
0
LINE
8
DC
6
CONTINUOUS
62
7
10
  0.13141716
20
 -0.12010000
30
  0.00000000
11
  0.13198284
21
 -0.12010000
31
  0.00000000
0
LINE
8
DC
6
CONTINUOUS
62
7
10
  0.13140420
20
 -0.12005000
30
  0.00000000
11
  0.13199580
21
 -0.12005000
31
  0.00000000
0
LINE
8
DC
6
CONTINUOUS
62
7
10
  0.13140000
20
 -0.12000000
30
  0.00000000
11
  0.13200000
21
 -0.12000000
31
  0.00000000
0
LINE
8
DC
6
CONTINUOUS
62
7
10
  0.13140420
20
 -0.11995000
30
  0.00000000
11
  0.13199580
21
 -0.11995000
31
  0.00000000
0
LINE
8
DC
6
CONTINUOUS
62
7
10
  0.13141716
20
 -0.11990000
30
  0.00000000
11
  0.13198284
21
 -0.11990000
31
  0.00000000
0
LINE
8
DC
6
CONTINUOUS
62
7
10
  0.13144019
20
 -0.11985000
30
  0.00000000
11
  0.13195981
21
 -0.11985000
31
  0.00000000
0
LINE
8
DC
6
CONTINUOUS
62
7
10
  0.13147639
20
 -0.11980000
30
  0.00000000
11
  0.13192361
21
 -0.11980000
31
  0.00000000
0
LINE
8
DC
6
CONTINUOUS
62
7
10
  0.13153417
20
 -0.11975000
30
  0.00000000
11
  0.13186583
21
 -0.11975000
31
  0.00000000
0
CIRCLE
8
DC
6
CONTINUOUS
62
7
10
  0.13170000
20
 -0.12000000
30
  0.00000000
40
  0.00030000
0
SOLID
8
DC
62
2
10
  0.11960000
20
 -0.08500000
30
  0.00000000
11
  0.12970000
21
 -0.08500000
31
  0.00000000
12
  0.11960000
22
 -0.12110000
32
  0.00000000
13
  0.12970000
23
 -0.12110000
33
  0.00000000
0
LINE
8
DC
6
CONTINUOUS
62
7
10
  0.11960000
20
 -0.08500000
30
  0.00000000
11
  0.12970000
21
 -0.08500000
31
  0.00000000
0
LINE
8
DC
6
CONTINUOUS
62
7
10
  0.12970000
20
 -0.08500000
30
  0.00000000
11
  0.12970000
21
 -0.12110000
31
  0.00000000
0
LINE
8
DC
6
CONTINUOUS
62
7
10
  0.12970000
20
 -0.12110000
30
  0.00000000
11
  0.11960000
21
 -0.12110000
31
  0.00000000
0
LINE
8
DC
6
CONTINUOUS
62
7
10
  0.11960000
20
 -0.12110000
30
  0.00000000
11
  0.11960000
21
 -0.08500000
31
  0.00000000
0
CIRCLE
8
DC
6
CONTINUOUS
62
7
10
  0.12060000
20
 -0.08590000
30
  0.00000000
40
  0.00050000
0
CIRCLE
8
DC
6
CONTINUOUS
62
7
10
  0.12220000
20
 -0.08710000
30
  0.00000000
40
  0.00050000
0
CIRCLE
8
DC
6
CONTINUOUS
62
7
10
  0.12360000
20
 -0.08560000
30
  0.00000000
40
  0.00040000
0
LINE
8
DC
6
CONTINUOUS
62
7
10
  0.12060000
20
 -0.08590000
30
  0.00000000
11
  0.12070000
21
 -0.08590000
31
  0.00000000
0
CIRCLE
8
DC
6
CONTINUOUS
62
7
10
  0.12310000
20
 -0.09060000
30
  0.00000000
40
  0.00050000
0
CIRCLE
8
DC
6
CONTINUOUS
62
7
10
  0.12110000
20
 -0.08920000
30
  0.00000000
40
  0.00050000
0
CIRCLE
8
DC
6
CONTINUOUS
62
7
10
  0.12060000
20
 -0.09250000
30
  0.00000000
40
  0.00050000
0
CIRCLE
8
DC
6
CONTINUOUS
62
7
10
  0.12220000
20
 -0.09370000
30
  0.00000000
40
  0.00050000
0
CIRCLE
8
DC
6
CONTINUOUS
62
7
10
  0.12360000
20
 -0.09220000
30
  0.00000000
40
  0.00040000
0
LINE
8
DC
6
CONTINUOUS
62
7
10
  0.12060000
20
 -0.09250000
30
  0.00000000
11
  0.12070000
21
 -0.09250000
31
  0.00000000
0
CIRCLE
8
DC
6
CONTINUOUS
62
7
10
  0.12310000
20
 -0.09720000
30
  0.00000000
40
  0.00050000
0
CIRCLE
8
DC
6
CONTINUOUS
62
7
10
  0.12110000
20
 -0.09580000
30
  0.00000000
40
  0.00050000
0
CIRCLE
8
DC
6
CONTINUOUS
62
7
10
  0.12060000
20
 -0.09910000
30
  0.00000000
40
  0.00050000
0
CIRCLE
8
DC
6
CONTINUOUS
62
7
10
  0.12220000
20
 -0.10030000
30
  0.00000000
40
  0.00050000
0
CIRCLE
8
DC
6
CONTINUOUS
62
7
10
  0.12360000
20
 -0.09880000
30
  0.00000000
40
  0.00040000
0
LINE
8
DC
6
CONTINUOUS
62
7
10
  0.12060000
20
 -0.09910000
30
  0.00000000
11
  0.12070000
21
 -0.09910000
31
  0.00000000
0
CIRCLE
8
DC
6
CONTINUOUS
62
7
10
  0.12310000
20
 -0.10380000
30
  0.00000000
40
  0.00050000
0
CIRCLE
8
DC
6
CONTINUOUS
62
7
10
  0.12110000
20
 -0.10240000
30
  0.00000000
40
  0.00050000
0
CIRCLE
8
DC
6
CONTINUOUS
62
7
10
  0.12060000
20
 -0.10570000
30
  0.00000000
40
  0.00050000
0
CIRCLE
8
DC
6
CONTINUOUS
62
7
10
  0.12220000
20
 -0.10690000
30
  0.00000000
40
  0.00050000
0
CIRCLE
8
DC
6
CONTINUOUS
62
7
10
  0.12360000
20
 -0.10540000
30
  0.00000000
40
  0.00040000
0
LINE
8
DC
6
CONTINUOUS
62
7
10
  0.12060000
20
 -0.10570000
30
  0.00000000
11
  0.12070000
21
 -0.10570000
31
  0.00000000
0
CIRCLE
8
DC
6
CONTINUOUS
62
7
10
  0.12310000
20
 -0.11040000
30
  0.00000000
40
  0.00050000
0
CIRCLE
8
DC
6
CONTINUOUS
62
7
10
  0.12110000
20
 -0.10900000
30
  0.00000000
40
  0.00050000
0
CIRCLE
8
DC
6
CONTINUOUS
62
7
10
  0.12060000
20
 -0.11230000
30
  0.00000000
40
  0.00050000
0
CIRCLE
8
DC
6
CONTINUOUS
62
7
10
  0.12220000
20
 -0.11350000
30
  0.00000000
40
  0.00050000
0
CIRCLE
8
DC
6
CONTINUOUS
62
7
10
  0.12360000
20
 -0.11200000
30
  0.00000000
40
  0.00040000
0
LINE
8
DC
6
CONTINUOUS
62
7
10
  0.12060000
20
 -0.11230000
30
  0.00000000
11
  0.12070000
21
 -0.11230000
31
  0.00000000
0
CIRCLE
8
DC
6
CONTINUOUS
62
7
10
  0.12310000
20
 -0.11700000
30
  0.00000000
40
  0.00050000
0
CIRCLE
8
DC
6
CONTINUOUS
62
7
10
  0.12110000
20
 -0.11560000
30
  0.00000000
40
  0.00050000
0
CIRCLE
8
DC
6
CONTINUOUS
62
7
10
  0.12060000
20
 -0.11890000
30
  0.00000000
40
  0.00050000
0
CIRCLE
8
DC
6
CONTINUOUS
62
7
10
  0.12220000
20
 -0.12010000
30
  0.00000000
40
  0.00050000
0
CIRCLE
8
DC
6
CONTINUOUS
62
7
10
  0.12360000
20
 -0.11860000
30
  0.00000000
40
  0.00040000
0
LINE
8
DC
6
CONTINUOUS
62
7
10
  0.12060000
20
 -0.11890000
30
  0.00000000
11
  0.12070000
21
 -0.11890000
31
  0.00000000
0
LINE
8
DC
6
CONTINUOUS
62
7
10
  0.12610000
20
 -0.08620000
30
  0.00000000
11
  0.12610000
21
 -0.08620000
31
  0.00000000
0
LINE
8
DC
6
CONTINUOUS
62
7
10
  0.12593417
20
 -0.08615000
30
  0.00000000
11
  0.12626583
21
 -0.08615000
31
  0.00000000
0
LINE
8
DC
6
CONTINUOUS
62
7
10
  0.12587639
20
 -0.08610000
30
  0.00000000
11
  0.12632361
21
 -0.08610000
31
  0.00000000
0
LINE
8
DC
6
CONTINUOUS
62
7
10
  0.12584019
20
 -0.08605000
30
  0.00000000
11
  0.12635981
21
 -0.08605000
31
  0.00000000
0
LINE
8
DC
6
CONTINUOUS
62
7
10
  0.12581716
20
 -0.08600000
30
  0.00000000
11
  0.12638284
21
 -0.08600000
31
  0.00000000
0
LINE
8
DC
6
CONTINUOUS
62
7
10
  0.12580420
20
 -0.08595000
30
  0.00000000
11
  0.12639580
21
 -0.08595000
31
  0.00000000
0
LINE
8
DC
6
CONTINUOUS
62
7
10
  0.12580000
20
 -0.08590000
30
  0.00000000
11
  0.12640000
21
 -0.08590000
31
  0.00000000
0
LINE
8
DC
6
CONTINUOUS
62
7
10
  0.12580420
20
 -0.08585000
30
  0.00000000
11
  0.12639580
21
 -0.08585000
31
  0.00000000
0
LINE
8
DC
6
CONTINUOUS
62
7
10
  0.12581716
20
 -0.08580000
30
  0.00000000
11
  0.12638284
21
 -0.08580000
31
  0.00000000
0
LINE
8
DC
6
CONTINUOUS
62
7
10
  0.12584019
20
 -0.08575000
30
  0.00000000
11
  0.12635981
21
 -0.08575000
31
  0.00000000
0
LINE
8
DC
6
CONTINUOUS
62
7
10
  0.12587639
20
 -0.08570000
30
  0.00000000
11
  0.12632361
21
 -0.08570000
31
  0.00000000
0
LINE
8
DC
6
CONTINUOUS
62
7
10
  0.12593417
20
 -0.08565000
30
  0.00000000
11
  0.12626583
21
 -0.08565000
31
  0.00000000
0
CIRCLE
8
DC
6
CONTINUOUS
62
7
10
  0.12610000
20
 -0.08590000
30
  0.00000000
40
  0.00030000
0
LINE
8
DC
6
CONTINUOUS
62
7
10
  0.12810000
20
 -0.08750000
30
  0.00000000
11
  0.12810000
21
 -0.08750000
31
  0.00000000
0
LINE
8
DC
6
CONTINUOUS
62
7
10
  0.12796771
20
 -0.08745000
30
  0.00000000
11
  0.12823229
21
 -0.08745000
31
  0.00000000
0
LINE
8
DC
6
CONTINUOUS
62
7
10
  0.12792679
20
 -0.08740000
30
  0.00000000
11
  0.12827321
21
 -0.08740000
31
  0.00000000
0
LINE
8
DC
6
CONTINUOUS
62
7
10
  0.12790635
20
 -0.08735000
30
  0.00000000
11
  0.12829365
21
 -0.08735000
31
  0.00000000
0
LINE
8
DC
6
CONTINUOUS
62
7
10
  0.12790000
20
 -0.08730000
30
  0.00000000
11
  0.12830000
21
 -0.08730000
31
  0.00000000
0
LINE
8
DC
6
CONTINUOUS
62
7
10
  0.12790635
20
 -0.08725000
30
  0.00000000
11
  0.12829365
21
 -0.08725000
31
  0.00000000
0
LINE
8
DC
6
CONTINUOUS
62
7
10
  0.12792679
20
 -0.08720000
30
  0.00000000
11
  0.12827321
21
 -0.08720000
31
  0.00000000
0
LINE
8
DC
6
CONTINUOUS
62
7
10
  0.12796771
20
 -0.08715000
30
  0.00000000
11
  0.12823229
21
 -0.08715000
31
  0.00000000
0
CIRCLE
8
DC
6
CONTINUOUS
62
7
10
  0.12810000
20
 -0.08730000
30
  0.00000000
40
  0.00020000
0
LINE
8
DC
6
CONTINUOUS
62
7
10
  0.12610000
20
 -0.08730000
30
  0.00000000
11
  0.12620000
21
 -0.08730000
31
  0.00000000
0
LINE
8
DC
6
CONTINUOUS
62
7
10
  0.12810000
20
 -0.08590000
30
  0.00000000
11
  0.12820000
21
 -0.08590000
31
  0.00000000
0
CIRCLE
8
DC
6
CONTINUOUS
62
7
10
  0.12560000
20
 -0.08920000
30
  0.00000000
40
  0.00050000
0
CIRCLE
8
DC
6
CONTINUOUS
62
7
10
  0.12720000
20
 -0.09040000
30
  0.00000000
40
  0.00050000
0
CIRCLE
8
DC
6
CONTINUOUS
62
7
10
  0.12860000
20
 -0.08890000
30
  0.00000000
40
  0.00040000
0
LINE
8
DC
6
CONTINUOUS
62
7
10
  0.12560000
20
 -0.08920000
30
  0.00000000
11
  0.12570000
21
 -0.08920000
31
  0.00000000
0
CIRCLE
8
DC
6
CONTINUOUS
62
7
10
  0.12810000
20
 -0.09390000
30
  0.00000000
40
  0.00050000
0
CIRCLE
8
DC
6
CONTINUOUS
62
7
10
  0.12610000
20
 -0.09250000
30
  0.00000000
40
  0.00050000
0
LINE
8
DC
6
CONTINUOUS
62
7
10
  0.12610000
20
 -0.09610000
30
  0.00000000
11
  0.12610000
21
 -0.09610000
31
  0.00000000
0
LINE
8
DC
6
CONTINUOUS
62
7
10
  0.12593417
20
 -0.09605000
30
  0.00000000
11
  0.12626583
21
 -0.09605000
31
  0.00000000
0
LINE
8
DC
6
CONTINUOUS
62
7
10
  0.12587639
20
 -0.09600000
30
  0.00000000
11
  0.12632361
21
 -0.09600000
31
  0.00000000
0
LINE
8
DC
6
CONTINUOUS
62
7
10
  0.12584019
20
 -0.09595000
30
  0.00000000
11
  0.12635981
21
 -0.09595000
31
  0.00000000
0
LINE
8
DC
6
CONTINUOUS
62
7
10
  0.12581716
20
 -0.09590000
30
  0.00000000
11
  0.12638284
21
 -0.09590000
31
  0.00000000
0
LINE
8
DC
6
CONTINUOUS
62
7
10
  0.12580420
20
 -0.09585000
30
  0.00000000
11
  0.12639580
21
 -0.09585000
31
  0.00000000
0
LINE
8
DC
6
CONTINUOUS
62
7
10
  0.12580000
20
 -0.09580000
30
  0.00000000
11
  0.12640000
21
 -0.09580000
31
  0.00000000
0
LINE
8
DC
6
CONTINUOUS
62
7
10
  0.12580420
20
 -0.09575000
30
  0.00000000
11
  0.12639580
21
 -0.09575000
31
  0.00000000
0
LINE
8
DC
6
CONTINUOUS
62
7
10
  0.12581716
20
 -0.09570000
30
  0.00000000
11
  0.12638284
21
 -0.09570000
31
  0.00000000
0
LINE
8
DC
6
CONTINUOUS
62
7
10
  0.12584019
20
 -0.09565000
30
  0.00000000
11
  0.12635981
21
 -0.09565000
31
  0.00000000
0
LINE
8
DC
6
CONTINUOUS
62
7
10
  0.12587639
20
 -0.09560000
30
  0.00000000
11
  0.12632361
21
 -0.09560000
31
  0.00000000
0
LINE
8
DC
6
CONTINUOUS
62
7
10
  0.12593417
20
 -0.09555000
30
  0.00000000
11
  0.12626583
21
 -0.09555000
31
  0.00000000
0
CIRCLE
8
DC
6
CONTINUOUS
62
7
10
  0.12610000
20
 -0.09580000
30
  0.00000000
40
  0.00030000
0
LINE
8
DC
6
CONTINUOUS
62
7
10
  0.12810000
20
 -0.09740000
30
  0.00000000
11
  0.12810000
21
 -0.09740000
31
  0.00000000
0
LINE
8
DC
6
CONTINUOUS
62
7
10
  0.12796771
20
 -0.09735000
30
  0.00000000
11
  0.12823229
21
 -0.09735000
31
  0.00000000
0
LINE
8
DC
6
CONTINUOUS
62
7
10
  0.12792679
20
 -0.09730000
30
  0.00000000
11
  0.12827321
21
 -0.09730000
31
  0.00000000
0
LINE
8
DC
6
CONTINUOUS
62
7
10
  0.12790635
20
 -0.09725000
30
  0.00000000
11
  0.12829365
21
 -0.09725000
31
  0.00000000
0
LINE
8
DC
6
CONTINUOUS
62
7
10
  0.12790000
20
 -0.09720000
30
  0.00000000
11
  0.12830000
21
 -0.09720000
31
  0.00000000
0
LINE
8
DC
6
CONTINUOUS
62
7
10
  0.12790635
20
 -0.09715000
30
  0.00000000
11
  0.12829365
21
 -0.09715000
31
  0.00000000
0
LINE
8
DC
6
CONTINUOUS
62
7
10
  0.12792679
20
 -0.09710000
30
  0.00000000
11
  0.12827321
21
 -0.09710000
31
  0.00000000
0
LINE
8
DC
6
CONTINUOUS
62
7
10
  0.12796771
20
 -0.09705000
30
  0.00000000
11
  0.12823229
21
 -0.09705000
31
  0.00000000
0
CIRCLE
8
DC
6
CONTINUOUS
62
7
10
  0.12810000
20
 -0.09720000
30
  0.00000000
40
  0.00020000
0
LINE
8
DC
6
CONTINUOUS
62
7
10
  0.12610000
20
 -0.09720000
30
  0.00000000
11
  0.12620000
21
 -0.09720000
31
  0.00000000
0
LINE
8
DC
6
CONTINUOUS
62
7
10
  0.12810000
20
 -0.09580000
30
  0.00000000
11
  0.12820000
21
 -0.09580000
31
  0.00000000
0
CIRCLE
8
DC
6
CONTINUOUS
62
7
10
  0.12560000
20
 -0.09910000
30
  0.00000000
40
  0.00050000
0
CIRCLE
8
DC
6
CONTINUOUS
62
7
10
  0.12720000
20
 -0.10030000
30
  0.00000000
40
  0.00050000
0
CIRCLE
8
DC
6
CONTINUOUS
62
7
10
  0.12860000
20
 -0.09880000
30
  0.00000000
40
  0.00040000
0
LINE
8
DC
6
CONTINUOUS
62
7
10
  0.12560000
20
 -0.09910000
30
  0.00000000
11
  0.12570000
21
 -0.09910000
31
  0.00000000
0
CIRCLE
8
DC
6
CONTINUOUS
62
7
10
  0.12810000
20
 -0.10380000
30
  0.00000000
40
  0.00050000
0
CIRCLE
8
DC
6
CONTINUOUS
62
7
10
  0.12610000
20
 -0.10240000
30
  0.00000000
40
  0.00050000
0
LINE
8
DC
6
CONTINUOUS
62
7
10
  0.12610000
20
 -0.10600000
30
  0.00000000
11
  0.12610000
21
 -0.10600000
31
  0.00000000
0
LINE
8
DC
6
CONTINUOUS
62
7
10
  0.12593417
20
 -0.10595000
30
  0.00000000
11
  0.12626583
21
 -0.10595000
31
  0.00000000
0
LINE
8
DC
6
CONTINUOUS
62
7
10
  0.12587639
20
 -0.10590000
30
  0.00000000
11
  0.12632361
21
 -0.10590000
31
  0.00000000
0
LINE
8
DC
6
CONTINUOUS
62
7
10
  0.12584019
20
 -0.10585000
30
  0.00000000
11
  0.12635981
21
 -0.10585000
31
  0.00000000
0
LINE
8
DC
6
CONTINUOUS
62
7
10
  0.12581716
20
 -0.10580000
30
  0.00000000
11
  0.12638284
21
 -0.10580000
31
  0.00000000
0
LINE
8
DC
6
CONTINUOUS
62
7
10
  0.12580420
20
 -0.10575000
30
  0.00000000
11
  0.12639580
21
 -0.10575000
31
  0.00000000
0
LINE
8
DC
6
CONTINUOUS
62
7
10
  0.12580000
20
 -0.10570000
30
  0.00000000
11
  0.12640000
21
 -0.10570000
31
  0.00000000
0
LINE
8
DC
6
CONTINUOUS
62
7
10
  0.12580420
20
 -0.10565000
30
  0.00000000
11
  0.12639580
21
 -0.10565000
31
  0.00000000
0
LINE
8
DC
6
CONTINUOUS
62
7
10
  0.12581716
20
 -0.10560000
30
  0.00000000
11
  0.12638284
21
 -0.10560000
31
  0.00000000
0
LINE
8
DC
6
CONTINUOUS
62
7
10
  0.12584019
20
 -0.10555000
30
  0.00000000
11
  0.12635981
21
 -0.10555000
31
  0.00000000
0
LINE
8
DC
6
CONTINUOUS
62
7
10
  0.12587639
20
 -0.10550000
30
  0.00000000
11
  0.12632361
21
 -0.10550000
31
  0.00000000
0
LINE
8
DC
6
CONTINUOUS
62
7
10
  0.12593417
20
 -0.10545000
30
  0.00000000
11
  0.12626583
21
 -0.10545000
31
  0.00000000
0
CIRCLE
8
DC
6
CONTINUOUS
62
7
10
  0.12610000
20
 -0.10570000
30
  0.00000000
40
  0.00030000
0
LINE
8
DC
6
CONTINUOUS
62
7
10
  0.12810000
20
 -0.10730000
30
  0.00000000
11
  0.12810000
21
 -0.10730000
31
  0.00000000
0
LINE
8
DC
6
CONTINUOUS
62
7
10
  0.12796771
20
 -0.10725000
30
  0.00000000
11
  0.12823229
21
 -0.10725000
31
  0.00000000
0
LINE
8
DC
6
CONTINUOUS
62
7
10
  0.12792679
20
 -0.10720000
30
  0.00000000
11
  0.12827321
21
 -0.10720000
31
  0.00000000
0
LINE
8
DC
6
CONTINUOUS
62
7
10
  0.12790635
20
 -0.10715000
30
  0.00000000
11
  0.12829365
21
 -0.10715000
31
  0.00000000
0
LINE
8
DC
6
CONTINUOUS
62
7
10
  0.12790000
20
 -0.10710000
30
  0.00000000
11
  0.12830000
21
 -0.10710000
31
  0.00000000
0
LINE
8
DC
6
CONTINUOUS
62
7
10
  0.12790635
20
 -0.10705000
30
  0.00000000
11
  0.12829365
21
 -0.10705000
31
  0.00000000
0
LINE
8
DC
6
CONTINUOUS
62
7
10
  0.12792679
20
 -0.10700000
30
  0.00000000
11
  0.12827321
21
 -0.10700000
31
  0.00000000
0
LINE
8
DC
6
CONTINUOUS
62
7
10
  0.12796771
20
 -0.10695000
30
  0.00000000
11
  0.12823229
21
 -0.10695000
31
  0.00000000
0
CIRCLE
8
DC
6
CONTINUOUS
62
7
10
  0.12810000
20
 -0.10710000
30
  0.00000000
40
  0.00020000
0
LINE
8
DC
6
CONTINUOUS
62
7
10
  0.12610000
20
 -0.10710000
30
  0.00000000
11
  0.12620000
21
 -0.10710000
31
  0.00000000
0
LINE
8
DC
6
CONTINUOUS
62
7
10
  0.12810000
20
 -0.10570000
30
  0.00000000
11
  0.12820000
21
 -0.10570000
31
  0.00000000
0
CIRCLE
8
DC
6
CONTINUOUS
62
7
10
  0.12560000
20
 -0.10900000
30
  0.00000000
40
  0.00050000
0
CIRCLE
8
DC
6
CONTINUOUS
62
7
10
  0.12720000
20
 -0.11020000
30
  0.00000000
40
  0.00050000
0
CIRCLE
8
DC
6
CONTINUOUS
62
7
10
  0.12860000
20
 -0.10870000
30
  0.00000000
40
  0.00040000
0
LINE
8
DC
6
CONTINUOUS
62
7
10
  0.12560000
20
 -0.10900000
30
  0.00000000
11
  0.12570000
21
 -0.10900000
31
  0.00000000
0
CIRCLE
8
DC
6
CONTINUOUS
62
7
10
  0.12810000
20
 -0.11370000
30
  0.00000000
40
  0.00050000
0
CIRCLE
8
DC
6
CONTINUOUS
62
7
10
  0.12610000
20
 -0.11230000
30
  0.00000000
40
  0.00050000
0
LINE
8
DC
6
CONTINUOUS
62
7
10
  0.12610000
20
 -0.11590000
30
  0.00000000
11
  0.12610000
21
 -0.11590000
31
  0.00000000
0
LINE
8
DC
6
CONTINUOUS
62
7
10
  0.12593417
20
 -0.11585000
30
  0.00000000
11
  0.12626583
21
 -0.11585000
31
  0.00000000
0
LINE
8
DC
6
CONTINUOUS
62
7
10
  0.12587639
20
 -0.11580000
30
  0.00000000
11
  0.12632361
21
 -0.11580000
31
  0.00000000
0
LINE
8
DC
6
CONTINUOUS
62
7
10
  0.12584019
20
 -0.11575000
30
  0.00000000
11
  0.12635981
21
 -0.11575000
31
  0.00000000
0
LINE
8
DC
6
CONTINUOUS
62
7
10
  0.12581716
20
 -0.11570000
30
  0.00000000
11
  0.12638284
21
 -0.11570000
31
  0.00000000
0
LINE
8
DC
6
CONTINUOUS
62
7
10
  0.12580420
20
 -0.11565000
30
  0.00000000
11
  0.12639580
21
 -0.11565000
31
  0.00000000
0
LINE
8
DC
6
CONTINUOUS
62
7
10
  0.12580000
20
 -0.11560000
30
  0.00000000
11
  0.12640000
21
 -0.11560000
31
  0.00000000
0
LINE
8
DC
6
CONTINUOUS
62
7
10
  0.12580420
20
 -0.11555000
30
  0.00000000
11
  0.12639580
21
 -0.11555000
31
  0.00000000
0
LINE
8
DC
6
CONTINUOUS
62
7
10
  0.12581716
20
 -0.11550000
30
  0.00000000
11
  0.12638284
21
 -0.11550000
31
  0.00000000
0
LINE
8
DC
6
CONTINUOUS
62
7
10
  0.12584019
20
 -0.11545000
30
  0.00000000
11
  0.12635981
21
 -0.11545000
31
  0.00000000
0
LINE
8
DC
6
CONTINUOUS
62
7
10
  0.12587639
20
 -0.11540000
30
  0.00000000
11
  0.12632361
21
 -0.11540000
31
  0.00000000
0
LINE
8
DC
6
CONTINUOUS
62
7
10
  0.12593417
20
 -0.11535000
30
  0.00000000
11
  0.12626583
21
 -0.11535000
31
  0.00000000
0
CIRCLE
8
DC
6
CONTINUOUS
62
7
10
  0.12610000
20
 -0.11560000
30
  0.00000000
40
  0.00030000
0
LINE
8
DC
6
CONTINUOUS
62
7
10
  0.12810000
20
 -0.11720000
30
  0.00000000
11
  0.12810000
21
 -0.11720000
31
  0.00000000
0
LINE
8
DC
6
CONTINUOUS
62
7
10
  0.12796771
20
 -0.11715000
30
  0.00000000
11
  0.12823229
21
 -0.11715000
31
  0.00000000
0
LINE
8
DC
6
CONTINUOUS
62
7
10
  0.12792679
20
 -0.11710000
30
  0.00000000
11
  0.12827321
21
 -0.11710000
31
  0.00000000
0
LINE
8
DC
6
CONTINUOUS
62
7
10
  0.12790635
20
 -0.11705000
30
  0.00000000
11
  0.12829365
21
 -0.11705000
31
  0.00000000
0
LINE
8
DC
6
CONTINUOUS
62
7
10
  0.12790000
20
 -0.11700000
30
  0.00000000
11
  0.12830000
21
 -0.11700000
31
  0.00000000
0
LINE
8
DC
6
CONTINUOUS
62
7
10
  0.12790635
20
 -0.11695000
30
  0.00000000
11
  0.12829365
21
 -0.11695000
31
  0.00000000
0
LINE
8
DC
6
CONTINUOUS
62
7
10
  0.12792679
20
 -0.11690000
30
  0.00000000
11
  0.12827321
21
 -0.11690000
31
  0.00000000
0
LINE
8
DC
6
CONTINUOUS
62
7
10
  0.12796771
20
 -0.11685000
30
  0.00000000
11
  0.12823229
21
 -0.11685000
31
  0.00000000
0
CIRCLE
8
DC
6
CONTINUOUS
62
7
10
  0.12810000
20
 -0.11700000
30
  0.00000000
40
  0.00020000
0
LINE
8
DC
6
CONTINUOUS
62
7
10
  0.12610000
20
 -0.11700000
30
  0.00000000
11
  0.12620000
21
 -0.11700000
31
  0.00000000
0
LINE
8
DC
6
CONTINUOUS
62
7
10
  0.12810000
20
 -0.11560000
30
  0.00000000
11
  0.12820000
21
 -0.11560000
31
  0.00000000
0
CIRCLE
8
DC
6
CONTINUOUS
62
7
10
  0.12560000
20
 -0.11890000
30
  0.00000000
40
  0.00050000
0
CIRCLE
8
DC
6
CONTINUOUS
62
7
10
  0.12720000
20
 -0.12010000
30
  0.00000000
40
  0.00050000
0
CIRCLE
8
DC
6
CONTINUOUS
62
7
10
  0.12860000
20
 -0.11860000
30
  0.00000000
40
  0.00040000
0
LINE
8
DC
6
CONTINUOUS
62
7
10
  0.12560000
20
 -0.11890000
30
  0.00000000
11
  0.12570000
21
 -0.11890000
31
  0.00000000
0
LINE
8
DC
6
CONTINUOUS
62
7
10
  0.11960000
20
 -0.08500000
30
  0.00000000
11
  0.13460000
21
 -0.08500000
31
  0.00000000
0
LINE
8
DC
6
CONTINUOUS
62
7
10
  0.13460000
20
 -0.08500000
30
  0.00000000
11
  0.13560000
21
 -0.09970000
31
  0.00000000
0
LINE
8
DC
6
CONTINUOUS
62
7
10
  0.13560000
20
 -0.09970000
30
  0.00000000
11
  0.17660000
21
 -0.09970000
31
  0.00000000
0
LINE
8
DC
6
CONTINUOUS
62
7
10
  0.11960000
20
 -0.12100000
30
  0.00000000
11
  0.11860000
21
 -0.12100000
31
  0.00000000
0
LINE
8
DC
6
CONTINUOUS
62
7
10
  0.10920000
20
 -0.12100000
30
  0.00000000
11
  0.11860000
21
 -0.12100000
31
  0.00000000
0
TEXT
8
DC
62
7
10
  0.11860000
20
 -0.12050000
30
  0.00000000
40
  0.00250000
41
  0.60000000
1
    3.80m
50
  0.00000000
72
2
73
0
11
  0.11860000
21
 -0.12050000
31
  0.00000000
0
TEXT
8
DC
62
7
10
  0.13660000
20
 -0.10570000
30
  0.00000000
40
  0.00216667
41
  0.60000000
1
fluviatiler Kies, Fein- bis 
50
  0.00000000
72
0
73
1
11
  0.13660000
21
 -0.10570000
31
  0.00000000
0
TEXT
8
DC
62
7
10
  0.13660000
20
 -0.10880000
30
  0.00000000
40
  0.00216667
41
  0.60000000
1
Mittelkies, sandig
50
  0.00000000
72
0
73
1
11
  0.13660000
21
 -0.10880000
31
  0.00000000
0
TEXT
8
DC
62
7
10
  0.13660000
20
 -0.11190000
30
  0.00000000
40
  0.00216667
41
  0.60000000
1
mitteldicht
50
  0.00000000
72
0
73
1
11
  0.13660000
21
 -0.11190000
31
  0.00000000
0
TEXT
8
DC
62
7
10
  0.13660000
20
 -0.11500000
30
  0.00000000
40
  0.00216667
41
  0.60000000
1
erdfeucht
50
  0.00000000
72
0
73
1
11
  0.13660000
21
 -0.11500000
31
  0.00000000
0
TEXT
8
DC
62
7
10
  0.13660000
20
 -0.11810000
30
  0.00000000
40
  0.00216667
41
  0.60000000
1
weißgrau
50
  0.00000000
72
0
73
1
11
  0.13660000
21
 -0.11810000
31
  0.00000000
0
CIRCLE
8
DC
6
CONTINUOUS
62
7
10
  0.18290000
20
 -0.11030000
30
  0.00000000
40
  0.00530000
0
TEXT
8
DC
62
7
10
  0.18030000
20
 -0.11230000
30
  0.00000000
40
  0.00250000
41
  0.60000000
1
GW
50
  0.00000000
72
0
73
1
11
  0.18030000
21
 -0.11230000
31
  0.00000000
0
LINE
8
DC
6
CONTINUOUS
62
7
10
  0.17040000
20
 -0.10720000
30
  0.00000000
11
  0.17660000
21
 -0.10720000
31
  0.00000000
0
LINE
8
DC
6
CONTINUOUS
62
7
10
  0.17660000
20
 -0.10720000
30
  0.00000000
11
  0.17660000
21
 -0.11340000
31
  0.00000000
0
LINE
8
DC
6
CONTINUOUS
62
7
10
  0.17660000
20
 -0.11340000
30
  0.00000000
11
  0.17040000
21
 -0.11340000
31
  0.00000000
0
LINE
8
DC
6
CONTINUOUS
62
7
10
  0.17040000
20
 -0.11340000
30
  0.00000000
11
  0.17040000
21
 -0.10720000
31
  0.00000000
0
TEXT
8
DC
62
7
10
  0.17350000
20
 -0.11230000
30
  0.00000000
40
  0.00250000
41
  0.60000000
1
3
50
  0.00000000
72
1
73
1
11
  0.17350000
21
 -0.11230000
31
  0.00000000
0
LINE
8
DC
6
CONTINUOUS
62
7
10
  0.13120000
20
 -0.12100000
30
  0.00000000
11
  0.13120000
21
 -0.14500000
31
  0.00000000
0
SOLID
8
DC
62
171
10
  0.11960000
20
 -0.12100000
30
  0.00000000
11
  0.12470000
21
 -0.12100000
31
  0.00000000
12
  0.11960000
22
 -0.14510000
32
  0.00000000
13
  0.12470000
23
 -0.14510000
33
  0.00000000
0
LINE
8
DC
6
CONTINUOUS
62
7
10
  0.11960000
20
 -0.12100000
30
  0.00000000
11
  0.12470000
21
 -0.12100000
31
  0.00000000
0
LINE
8
DC
6
CONTINUOUS
62
7
10
  0.12470000
20
 -0.12100000
30
  0.00000000
11
  0.12470000
21
 -0.14510000
31
  0.00000000
0
LINE
8
DC
6
CONTINUOUS
62
7
10
  0.12470000
20
 -0.14510000
30
  0.00000000
11
  0.11960000
21
 -0.14510000
31
  0.00000000
0
LINE
8
DC
6
CONTINUOUS
62
7
10
  0.11960000
20
 -0.14510000
30
  0.00000000
11
  0.11960000
21
 -0.12100000
31
  0.00000000
0
SOLID
8
DC
62
200
10
  0.12470000
20
 -0.12100000
30
  0.00000000
11
  0.12970000
21
 -0.12100000
31
  0.00000000
12
  0.12470000
22
 -0.14510000
32
  0.00000000
13
  0.12970000
23
 -0.14510000
33
  0.00000000
0
LINE
8
DC
6
CONTINUOUS
62
7
10
  0.12470000
20
 -0.12100000
30
  0.00000000
11
  0.12970000
21
 -0.12100000
31
  0.00000000
0
LINE
8
DC
6
CONTINUOUS
62
7
10
  0.12970000
20
 -0.12100000
30
  0.00000000
11
  0.12970000
21
 -0.14510000
31
  0.00000000
0
LINE
8
DC
6
CONTINUOUS
62
7
10
  0.12970000
20
 -0.14510000
30
  0.00000000
11
  0.12470000
21
 -0.14510000
31
  0.00000000
0
LINE
8
DC
6
CONTINUOUS
62
7
10
  0.12470000
20
 -0.14510000
30
  0.00000000
11
  0.12470000
21
 -0.12100000
31
  0.00000000
0
LINE
8
DC
6
CONTINUOUS
62
7
10
  0.11960000
20
 -0.12350000
30
  0.00000000
11
  0.12210000
21
 -0.12100000
31
  0.00000000
0
LINE
8
DC
6
CONTINUOUS
62
7
10
  0.12210000
20
 -0.12600000
30
  0.00000000
11
  0.12460000
21
 -0.12350000
31
  0.00000000
0
LINE
8
DC
6
CONTINUOUS
62
7
10
  0.11960000
20
 -0.12600000
30
  0.00000000
11
  0.12460000
21
 -0.12100000
31
  0.00000000
0
CIRCLE
8
DC
6
CONTINUOUS
62
7
10
  0.12160000
20
 -0.12270000
30
  0.00000000
40
  0.00060000
0
CIRCLE
8
DC
6
CONTINUOUS
62
7
10
  0.12390000
20
 -0.12270000
30
  0.00000000
40
  0.00060000
0
CIRCLE
8
DC
6
CONTINUOUS
62
7
10
  0.12160000
20
 -0.12510000
30
  0.00000000
40
  0.00060000
0
CIRCLE
8
DC
6
CONTINUOUS
62
7
10
  0.12390000
20
 -0.12510000
30
  0.00000000
40
  0.00060000
0
LINE
8
DC
6
CONTINUOUS
62
7
10
  0.11990000
20
 -0.12380000
30
  0.00000000
11
  0.12040000
21
 -0.12330000
31
  0.00000000
0
LINE
8
DC
6
CONTINUOUS
62
7
10
  0.12010000
20
 -0.12350000
30
  0.00000000
11
  0.12090000
21
 -0.12430000
31
  0.00000000
0
LINE
8
DC
6
CONTINUOUS
62
7
10
  0.12060000
20
 -0.12450000
30
  0.00000000
11
  0.12110000
21
 -0.12400000
31
  0.00000000
0
LINE
8
DC
6
CONTINUOUS
62
7
10
  0.12210000
20
 -0.12160000
30
  0.00000000
11
  0.12260000
21
 -0.12110000
31
  0.00000000
0
LINE
8
DC
6
CONTINUOUS
62
7
10
  0.12230000
20
 -0.12130000
30
  0.00000000
11
  0.12310000
21
 -0.12210000
31
  0.00000000
0
LINE
8
DC
6
CONTINUOUS
62
7
10
  0.12280000
20
 -0.12230000
30
  0.00000000
11
  0.12330000
21
 -0.12180000
31
  0.00000000
0
LINE
8
DC
6
CONTINUOUS
62
7
10
  0.12220000
20
 -0.12380000
30
  0.00000000
11
  0.12270000
21
 -0.12330000
31
  0.00000000
0
LINE
8
DC
6
CONTINUOUS
62
7
10
  0.12240000
20
 -0.12350000
30
  0.00000000
11
  0.12320000
21
 -0.12430000
31
  0.00000000
0
LINE
8
DC
6
CONTINUOUS
62
7
10
  0.12290000
20
 -0.12450000
30
  0.00000000
11
  0.12340000
21
 -0.12400000
31
  0.00000000
0
LINE
8
DC
6
CONTINUOUS
62
7
10
  0.11970000
20
 -0.12150000
30
  0.00000000
11
  0.12020000
21
 -0.12100000
31
  0.00000000
0
LINE
8
DC
6
CONTINUOUS
62
7
10
  0.11990000
20
 -0.12120000
30
  0.00000000
11
  0.12070000
21
 -0.12200000
31
  0.00000000
0
LINE
8
DC
6
CONTINUOUS
62
7
10
  0.12040000
20
 -0.12220000
30
  0.00000000
11
  0.12090000
21
 -0.12170000
31
  0.00000000
0
LINE
8
DC
6
CONTINUOUS
62
7
10
  0.12010000
20
 -0.12680000
30
  0.00000000
11
  0.12310000
21
 -0.12680000
31
  0.00000000
0
LINE
8
DC
6
CONTINUOUS
62
7
10
  0.12110000
20
 -0.12840000
30
  0.00000000
11
  0.12410000
21
 -0.12840000
31
  0.00000000
0
LINE
8
DC
6
CONTINUOUS
62
7
10
  0.11960000
20
 -0.13180000
30
  0.00000000
11
  0.12210000
21
 -0.12930000
31
  0.00000000
0
LINE
8
DC
6
CONTINUOUS
62
7
10
  0.12210000
20
 -0.13430000
30
  0.00000000
11
  0.12460000
21
 -0.13180000
31
  0.00000000
0
LINE
8
DC
6
CONTINUOUS
62
7
10
  0.11960000
20
 -0.13430000
30
  0.00000000
11
  0.12460000
21
 -0.12930000
31
  0.00000000
0
CIRCLE
8
DC
6
CONTINUOUS
62
7
10
  0.12160000
20
 -0.13100000
30
  0.00000000
40
  0.00060000
0
CIRCLE
8
DC
6
CONTINUOUS
62
7
10
  0.12390000
20
 -0.13100000
30
  0.00000000
40
  0.00060000
0
CIRCLE
8
DC
6
CONTINUOUS
62
7
10
  0.12160000
20
 -0.13340000
30
  0.00000000
40
  0.00060000
0
CIRCLE
8
DC
6
CONTINUOUS
62
7
10
  0.12390000
20
 -0.13340000
30
  0.00000000
40
  0.00060000
0
LINE
8
DC
6
CONTINUOUS
62
7
10
  0.11990000
20
 -0.13210000
30
  0.00000000
11
  0.12040000
21
 -0.13160000
31
  0.00000000
0
LINE
8
DC
6
CONTINUOUS
62
7
10
  0.12010000
20
 -0.13180000
30
  0.00000000
11
  0.12090000
21
 -0.13260000
31
  0.00000000
0
LINE
8
DC
6
CONTINUOUS
62
7
10
  0.12060000
20
 -0.13280000
30
  0.00000000
11
  0.12110000
21
 -0.13230000
31
  0.00000000
0
LINE
8
DC
6
CONTINUOUS
62
7
10
  0.12210000
20
 -0.12990000
30
  0.00000000
11
  0.12260000
21
 -0.12940000
31
  0.00000000
0
LINE
8
DC
6
CONTINUOUS
62
7
10
  0.12230000
20
 -0.12960000
30
  0.00000000
11
  0.12310000
21
 -0.13040000
31
  0.00000000
0
LINE
8
DC
6
CONTINUOUS
62
7
10
  0.12280000
20
 -0.13060000
30
  0.00000000
11
  0.12330000
21
 -0.13010000
31
  0.00000000
0
LINE
8
DC
6
CONTINUOUS
62
7
10
  0.12220000
20
 -0.13210000
30
  0.00000000
11
  0.12270000
21
 -0.13160000
31
  0.00000000
0
LINE
8
DC
6
CONTINUOUS
62
7
10
  0.12240000
20
 -0.13180000
30
  0.00000000
11
  0.12320000
21
 -0.13260000
31
  0.00000000
0
LINE
8
DC
6
CONTINUOUS
62
7
10
  0.12290000
20
 -0.13280000
30
  0.00000000
11
  0.12340000
21
 -0.13230000
31
  0.00000000
0
LINE
8
DC
6
CONTINUOUS
62
7
10
  0.11970000
20
 -0.12980000
30
  0.00000000
11
  0.12020000
21
 -0.12930000
31
  0.00000000
0
LINE
8
DC
6
CONTINUOUS
62
7
10
  0.11990000
20
 -0.12950000
30
  0.00000000
11
  0.12070000
21
 -0.13030000
31
  0.00000000
0
LINE
8
DC
6
CONTINUOUS
62
7
10
  0.12040000
20
 -0.13050000
30
  0.00000000
11
  0.12090000
21
 -0.13000000
31
  0.00000000
0
LINE
8
DC
6
CONTINUOUS
62
7
10
  0.12010000
20
 -0.13510000
30
  0.00000000
11
  0.12310000
21
 -0.13510000
31
  0.00000000
0
LINE
8
DC
6
CONTINUOUS
62
7
10
  0.12110000
20
 -0.13670000
30
  0.00000000
11
  0.12410000
21
 -0.13670000
31
  0.00000000
0
LINE
8
DC
6
CONTINUOUS
62
7
10
  0.11960000
20
 -0.14010000
30
  0.00000000
11
  0.12210000
21
 -0.13760000
31
  0.00000000
0
LINE
8
DC
6
CONTINUOUS
62
7
10
  0.12210000
20
 -0.14260000
30
  0.00000000
11
  0.12460000
21
 -0.14010000
31
  0.00000000
0
LINE
8
DC
6
CONTINUOUS
62
7
10
  0.11960000
20
 -0.14260000
30
  0.00000000
11
  0.12460000
21
 -0.13760000
31
  0.00000000
0
CIRCLE
8
DC
6
CONTINUOUS
62
7
10
  0.12160000
20
 -0.13930000
30
  0.00000000
40
  0.00060000
0
CIRCLE
8
DC
6
CONTINUOUS
62
7
10
  0.12390000
20
 -0.13930000
30
  0.00000000
40
  0.00060000
0
CIRCLE
8
DC
6
CONTINUOUS
62
7
10
  0.12160000
20
 -0.14170000
30
  0.00000000
40
  0.00060000
0
CIRCLE
8
DC
6
CONTINUOUS
62
7
10
  0.12390000
20
 -0.14170000
30
  0.00000000
40
  0.00060000
0
LINE
8
DC
6
CONTINUOUS
62
7
10
  0.11990000
20
 -0.14040000
30
  0.00000000
11
  0.12040000
21
 -0.13990000
31
  0.00000000
0
LINE
8
DC
6
CONTINUOUS
62
7
10
  0.12010000
20
 -0.14010000
30
  0.00000000
11
  0.12090000
21
 -0.14090000
31
  0.00000000
0
LINE
8
DC
6
CONTINUOUS
62
7
10
  0.12060000
20
 -0.14110000
30
  0.00000000
11
  0.12110000
21
 -0.14060000
31
  0.00000000
0
LINE
8
DC
6
CONTINUOUS
62
7
10
  0.12210000
20
 -0.13820000
30
  0.00000000
11
  0.12260000
21
 -0.13770000
31
  0.00000000
0
LINE
8
DC
6
CONTINUOUS
62
7
10
  0.12230000
20
 -0.13790000
30
  0.00000000
11
  0.12310000
21
 -0.13870000
31
  0.00000000
0
LINE
8
DC
6
CONTINUOUS
62
7
10
  0.12280000
20
 -0.13890000
30
  0.00000000
11
  0.12330000
21
 -0.13840000
31
  0.00000000
0
LINE
8
DC
6
CONTINUOUS
62
7
10
  0.12220000
20
 -0.14040000
30
  0.00000000
11
  0.12270000
21
 -0.13990000
31
  0.00000000
0
LINE
8
DC
6
CONTINUOUS
62
7
10
  0.12240000
20
 -0.14010000
30
  0.00000000
11
  0.12320000
21
 -0.14090000
31
  0.00000000
0
LINE
8
DC
6
CONTINUOUS
62
7
10
  0.12290000
20
 -0.14110000
30
  0.00000000
11
  0.12340000
21
 -0.14060000
31
  0.00000000
0
LINE
8
DC
6
CONTINUOUS
62
7
10
  0.11970000
20
 -0.13810000
30
  0.00000000
11
  0.12020000
21
 -0.13760000
31
  0.00000000
0
LINE
8
DC
6
CONTINUOUS
62
7
10
  0.11990000
20
 -0.13780000
30
  0.00000000
11
  0.12070000
21
 -0.13860000
31
  0.00000000
0
LINE
8
DC
6
CONTINUOUS
62
7
10
  0.12040000
20
 -0.13880000
30
  0.00000000
11
  0.12090000
21
 -0.13830000
31
  0.00000000
0
LINE
8
DC
6
CONTINUOUS
62
7
10
  0.12010000
20
 -0.14340000
30
  0.00000000
11
  0.12310000
21
 -0.14340000
31
  0.00000000
0
LINE
8
DC
6
CONTINUOUS
62
7
10
  0.12620000
20
 -0.12310000
30
  0.00000000
11
  0.12620000
21
 -0.12310000
31
  0.00000000
0
LINE
8
DC
6
CONTINUOUS
62
7
10
  0.12598206
20
 -0.12305000
30
  0.00000000
11
  0.12641794
21
 -0.12305000
31
  0.00000000
0
LINE
8
DC
6
CONTINUOUS
62
7
10
  0.12590000
20
 -0.12300000
30
  0.00000000
11
  0.12650000
21
 -0.12300000
31
  0.00000000
0
LINE
8
DC
6
CONTINUOUS
62
7
10
  0.12584293
20
 -0.12295000
30
  0.00000000
11
  0.12655707
21
 -0.12295000
31
  0.00000000
0
LINE
8
DC
6
CONTINUOUS
62
7
10
  0.12580000
20
 -0.12290000
30
  0.00000000
11
  0.12660000
21
 -0.12290000
31
  0.00000000
0
LINE
8
DC
6
CONTINUOUS
62
7
10
  0.12576699
20
 -0.12285000
30
  0.00000000
11
  0.12663301
21
 -0.12285000
31
  0.00000000
0
LINE
8
DC
6
CONTINUOUS
62
7
10
  0.12574174
20
 -0.12280000
30
  0.00000000
11
  0.12665826
21
 -0.12280000
31
  0.00000000
0
LINE
8
DC
6
CONTINUOUS
62
7
10
  0.12572303
20
 -0.12275000
30
  0.00000000
11
  0.12667697
21
 -0.12275000
31
  0.00000000
0
LINE
8
DC
6
CONTINUOUS
62
7
10
  0.12571010
20
 -0.12270000
30
  0.00000000
11
  0.12668990
21
 -0.12270000
31
  0.00000000
0
LINE
8
DC
6
CONTINUOUS
62
7
10
  0.12570251
20
 -0.12265000
30
  0.00000000
11
  0.12669749
21
 -0.12265000
31
  0.00000000
0
LINE
8
DC
6
CONTINUOUS
62
7
10
  0.12570000
20
 -0.12260000
30
  0.00000000
11
  0.12670000
21
 -0.12260000
31
  0.00000000
0
LINE
8
DC
6
CONTINUOUS
62
7
10
  0.12570251
20
 -0.12255000
30
  0.00000000
11
  0.12669749
21
 -0.12255000
31
  0.00000000
0
LINE
8
DC
6
CONTINUOUS
62
7
10
  0.12571010
20
 -0.12250000
30
  0.00000000
11
  0.12668990
21
 -0.12250000
31
  0.00000000
0
LINE
8
DC
6
CONTINUOUS
62
7
10
  0.12572303
20
 -0.12245000
30
  0.00000000
11
  0.12667697
21
 -0.12245000
31
  0.00000000
0
LINE
8
DC
6
CONTINUOUS
62
7
10
  0.12574174
20
 -0.12240000
30
  0.00000000
11
  0.12665826
21
 -0.12240000
31
  0.00000000
0
LINE
8
DC
6
CONTINUOUS
62
7
10
  0.12576699
20
 -0.12235000
30
  0.00000000
11
  0.12663301
21
 -0.12235000
31
  0.00000000
0
LINE
8
DC
6
CONTINUOUS
62
7
10
  0.12580000
20
 -0.12230000
30
  0.00000000
11
  0.12660000
21
 -0.12230000
31
  0.00000000
0
LINE
8
DC
6
CONTINUOUS
62
7
10
  0.12584293
20
 -0.12225000
30
  0.00000000
11
  0.12655707
21
 -0.12225000
31
  0.00000000
0
LINE
8
DC
6
CONTINUOUS
62
7
10
  0.12590000
20
 -0.12220000
30
  0.00000000
11
  0.12650000
21
 -0.12220000
31
  0.00000000
0
LINE
8
DC
6
CONTINUOUS
62
7
10
  0.12598206
20
 -0.12215000
30
  0.00000000
11
  0.12641794
21
 -0.12215000
31
  0.00000000
0
CIRCLE
8
DC
6
CONTINUOUS
62
7
10
  0.12620000
20
 -0.12260000
30
  0.00000000
40
  0.00050000
0
LINE
8
DC
6
CONTINUOUS
62
7
10
  0.12780000
20
 -0.12310000
30
  0.00000000
11
  0.12780000
21
 -0.12310000
31
  0.00000000
0
LINE
8
DC
6
CONTINUOUS
62
7
10
  0.12758206
20
 -0.12305000
30
  0.00000000
11
  0.12801794
21
 -0.12305000
31
  0.00000000
0
LINE
8
DC
6
CONTINUOUS
62
7
10
  0.12750000
20
 -0.12300000
30
  0.00000000
11
  0.12810000
21
 -0.12300000
31
  0.00000000
0
LINE
8
DC
6
CONTINUOUS
62
7
10
  0.12744293
20
 -0.12295000
30
  0.00000000
11
  0.12815707
21
 -0.12295000
31
  0.00000000
0
LINE
8
DC
6
CONTINUOUS
62
7
10
  0.12740000
20
 -0.12290000
30
  0.00000000
11
  0.12820000
21
 -0.12290000
31
  0.00000000
0
LINE
8
DC
6
CONTINUOUS
62
7
10
  0.12736699
20
 -0.12285000
30
  0.00000000
11
  0.12823301
21
 -0.12285000
31
  0.00000000
0
LINE
8
DC
6
CONTINUOUS
62
7
10
  0.12734174
20
 -0.12280000
30
  0.00000000
11
  0.12825826
21
 -0.12280000
31
  0.00000000
0
LINE
8
DC
6
CONTINUOUS
62
7
10
  0.12732303
20
 -0.12275000
30
  0.00000000
11
  0.12827697
21
 -0.12275000
31
  0.00000000
0
LINE
8
DC
6
CONTINUOUS
62
7
10
  0.12731010
20
 -0.12270000
30
  0.00000000
11
  0.12828990
21
 -0.12270000
31
  0.00000000
0
LINE
8
DC
6
CONTINUOUS
62
7
10
  0.12730251
20
 -0.12265000
30
  0.00000000
11
  0.12829749
21
 -0.12265000
31
  0.00000000
0
LINE
8
DC
6
CONTINUOUS
62
7
10
  0.12730000
20
 -0.12260000
30
  0.00000000
11
  0.12830000
21
 -0.12260000
31
  0.00000000
0
LINE
8
DC
6
CONTINUOUS
62
7
10
  0.12730251
20
 -0.12255000
30
  0.00000000
11
  0.12829749
21
 -0.12255000
31
  0.00000000
0
LINE
8
DC
6
CONTINUOUS
62
7
10
  0.12731010
20
 -0.12250000
30
  0.00000000
11
  0.12828990
21
 -0.12250000
31
  0.00000000
0
LINE
8
DC
6
CONTINUOUS
62
7
10
  0.12732303
20
 -0.12245000
30
  0.00000000
11
  0.12827697
21
 -0.12245000
31
  0.00000000
0
LINE
8
DC
6
CONTINUOUS
62
7
10
  0.12734174
20
 -0.12240000
30
  0.00000000
11
  0.12825826
21
 -0.12240000
31
  0.00000000
0
LINE
8
DC
6
CONTINUOUS
62
7
10
  0.12736699
20
 -0.12235000
30
  0.00000000
11
  0.12823301
21
 -0.12235000
31
  0.00000000
0
LINE
8
DC
6
CONTINUOUS
62
7
10
  0.12740000
20
 -0.12230000
30
  0.00000000
11
  0.12820000
21
 -0.12230000
31
  0.00000000
0
LINE
8
DC
6
CONTINUOUS
62
7
10
  0.12744293
20
 -0.12225000
30
  0.00000000
11
  0.12815707
21
 -0.12225000
31
  0.00000000
0
LINE
8
DC
6
CONTINUOUS
62
7
10
  0.12750000
20
 -0.12220000
30
  0.00000000
11
  0.12810000
21
 -0.12220000
31
  0.00000000
0
LINE
8
DC
6
CONTINUOUS
62
7
10
  0.12758206
20
 -0.12215000
30
  0.00000000
11
  0.12801794
21
 -0.12215000
31
  0.00000000
0
CIRCLE
8
DC
6
CONTINUOUS
62
7
10
  0.12780000
20
 -0.12260000
30
  0.00000000
40
  0.00050000
0
LINE
8
DC
6
CONTINUOUS
62
7
10
  0.12560000
20
 -0.12310000
30
  0.00000000
11
  0.12860000
21
 -0.12310000
31
  0.00000000
0
LINE
8
DC
6
CONTINUOUS
62
7
10
  0.12480000
20
 -0.12500000
30
  0.00000000
11
  0.12480000
21
 -0.12500000
31
  0.00000000
0
LINE
8
DC
6
CONTINUOUS
62
7
10
  0.12466771
20
 -0.12495000
30
  0.00000000
11
  0.12493229
21
 -0.12495000
31
  0.00000000
0
LINE
8
DC
6
CONTINUOUS
62
7
10
  0.12462679
20
 -0.12490000
30
  0.00000000
11
  0.12497321
21
 -0.12490000
31
  0.00000000
0
LINE
8
DC
6
CONTINUOUS
62
7
10
  0.12460635
20
 -0.12485000
30
  0.00000000
11
  0.12499365
21
 -0.12485000
31
  0.00000000
0
LINE
8
DC
6
CONTINUOUS
62
7
10
  0.12460000
20
 -0.12480000
30
  0.00000000
11
  0.12500000
21
 -0.12480000
31
  0.00000000
0
LINE
8
DC
6
CONTINUOUS
62
7
10
  0.12460635
20
 -0.12475000
30
  0.00000000
11
  0.12499365
21
 -0.12475000
31
  0.00000000
0
LINE
8
DC
6
CONTINUOUS
62
7
10
  0.12462679
20
 -0.12470000
30
  0.00000000
11
  0.12497321
21
 -0.12470000
31
  0.00000000
0
LINE
8
DC
6
CONTINUOUS
62
7
10
  0.12466771
20
 -0.12465000
30
  0.00000000
11
  0.12493229
21
 -0.12465000
31
  0.00000000
0
CIRCLE
8
DC
6
CONTINUOUS
62
7
10
  0.12480000
20
 -0.12480000
30
  0.00000000
40
  0.00020000
0
LINE
8
DC
6
CONTINUOUS
62
7
10
  0.12580000
20
 -0.12500000
30
  0.00000000
11
  0.12580000
21
 -0.12500000
31
  0.00000000
0
LINE
8
DC
6
CONTINUOUS
62
7
10
  0.12566771
20
 -0.12495000
30
  0.00000000
11
  0.12593229
21
 -0.12495000
31
  0.00000000
0
LINE
8
DC
6
CONTINUOUS
62
7
10
  0.12562679
20
 -0.12490000
30
  0.00000000
11
  0.12597321
21
 -0.12490000
31
  0.00000000
0
LINE
8
DC
6
CONTINUOUS
62
7
10
  0.12560635
20
 -0.12485000
30
  0.00000000
11
  0.12599365
21
 -0.12485000
31
  0.00000000
0
LINE
8
DC
6
CONTINUOUS
62
7
10
  0.12560000
20
 -0.12480000
30
  0.00000000
11
  0.12600000
21
 -0.12480000
31
  0.00000000
0
LINE
8
DC
6
CONTINUOUS
62
7
10
  0.12560635
20
 -0.12475000
30
  0.00000000
11
  0.12599365
21
 -0.12475000
31
  0.00000000
0
LINE
8
DC
6
CONTINUOUS
62
7
10
  0.12562679
20
 -0.12470000
30
  0.00000000
11
  0.12597321
21
 -0.12470000
31
  0.00000000
0
LINE
8
DC
6
CONTINUOUS
62
7
10
  0.12566771
20
 -0.12465000
30
  0.00000000
11
  0.12593229
21
 -0.12465000
31
  0.00000000
0
CIRCLE
8
DC
6
CONTINUOUS
62
7
10
  0.12580000
20
 -0.12480000
30
  0.00000000
40
  0.00020000
0
LINE
8
DC
6
CONTINUOUS
62
7
10
  0.12680000
20
 -0.12500000
30
  0.00000000
11
  0.12680000
21
 -0.12500000
31
  0.00000000
0
LINE
8
DC
6
CONTINUOUS
62
7
10
  0.12666771
20
 -0.12495000
30
  0.00000000
11
  0.12693229
21
 -0.12495000
31
  0.00000000
0
LINE
8
DC
6
CONTINUOUS
62
7
10
  0.12662679
20
 -0.12490000
30
  0.00000000
11
  0.12697321
21
 -0.12490000
31
  0.00000000
0
LINE
8
DC
6
CONTINUOUS
62
7
10
  0.12660635
20
 -0.12485000
30
  0.00000000
11
  0.12699365
21
 -0.12485000
31
  0.00000000
0
LINE
8
DC
6
CONTINUOUS
62
7
10
  0.12660000
20
 -0.12480000
30
  0.00000000
11
  0.12700000
21
 -0.12480000
31
  0.00000000
0
LINE
8
DC
6
CONTINUOUS
62
7
10
  0.12660635
20
 -0.12475000
30
  0.00000000
11
  0.12699365
21
 -0.12475000
31
  0.00000000
0
LINE
8
DC
6
CONTINUOUS
62
7
10
  0.12662679
20
 -0.12470000
30
  0.00000000
11
  0.12697321
21
 -0.12470000
31
  0.00000000
0
LINE
8
DC
6
CONTINUOUS
62
7
10
  0.12666771
20
 -0.12465000
30
  0.00000000
11
  0.12693229
21
 -0.12465000
31
  0.00000000
0
CIRCLE
8
DC
6
CONTINUOUS
62
7
10
  0.12680000
20
 -0.12480000
30
  0.00000000
40
  0.00020000
0
LINE
8
DC
6
CONTINUOUS
62
7
10
  0.12780000
20
 -0.12500000
30
  0.00000000
11
  0.12780000
21
 -0.12500000
31
  0.00000000
0
LINE
8
DC
6
CONTINUOUS
62
7
10
  0.12766771
20
 -0.12495000
30
  0.00000000
11
  0.12793229
21
 -0.12495000
31
  0.00000000
0
LINE
8
DC
6
CONTINUOUS
62
7
10
  0.12762679
20
 -0.12490000
30
  0.00000000
11
  0.12797321
21
 -0.12490000
31
  0.00000000
0
LINE
8
DC
6
CONTINUOUS
62
7
10
  0.12760635
20
 -0.12485000
30
  0.00000000
11
  0.12799365
21
 -0.12485000
31
  0.00000000
0
LINE
8
DC
6
CONTINUOUS
62
7
10
  0.12760000
20
 -0.12480000
30
  0.00000000
11
  0.12800000
21
 -0.12480000
31
  0.00000000
0
LINE
8
DC
6
CONTINUOUS
62
7
10
  0.12760635
20
 -0.12475000
30
  0.00000000
11
  0.12799365
21
 -0.12475000
31
  0.00000000
0
LINE
8
DC
6
CONTINUOUS
62
7
10
  0.12762679
20
 -0.12470000
30
  0.00000000
11
  0.12797321
21
 -0.12470000
31
  0.00000000
0
LINE
8
DC
6
CONTINUOUS
62
7
10
  0.12766771
20
 -0.12465000
30
  0.00000000
11
  0.12793229
21
 -0.12465000
31
  0.00000000
0
CIRCLE
8
DC
6
CONTINUOUS
62
7
10
  0.12780000
20
 -0.12480000
30
  0.00000000
40
  0.00020000
0
LINE
8
DC
6
CONTINUOUS
62
7
10
  0.12880000
20
 -0.12500000
30
  0.00000000
11
  0.12880000
21
 -0.12500000
31
  0.00000000
0
LINE
8
DC
6
CONTINUOUS
62
7
10
  0.12866771
20
 -0.12495000
30
  0.00000000
11
  0.12893229
21
 -0.12495000
31
  0.00000000
0
LINE
8
DC
6
CONTINUOUS
62
7
10
  0.12862679
20
 -0.12490000
30
  0.00000000
11
  0.12897321
21
 -0.12490000
31
  0.00000000
0
LINE
8
DC
6
CONTINUOUS
62
7
10
  0.12860635
20
 -0.12485000
30
  0.00000000
11
  0.12899365
21
 -0.12485000
31
  0.00000000
0
LINE
8
DC
6
CONTINUOUS
62
7
10
  0.12860000
20
 -0.12480000
30
  0.00000000
11
  0.12900000
21
 -0.12480000
31
  0.00000000
0
LINE
8
DC
6
CONTINUOUS
62
7
10
  0.12860635
20
 -0.12475000
30
  0.00000000
11
  0.12899365
21
 -0.12475000
31
  0.00000000
0
LINE
8
DC
6
CONTINUOUS
62
7
10
  0.12862679
20
 -0.12470000
30
  0.00000000
11
  0.12897321
21
 -0.12470000
31
  0.00000000
0
LINE
8
DC
6
CONTINUOUS
62
7
10
  0.12866771
20
 -0.12465000
30
  0.00000000
11
  0.12893229
21
 -0.12465000
31
  0.00000000
0
CIRCLE
8
DC
6
CONTINUOUS
62
7
10
  0.12880000
20
 -0.12480000
30
  0.00000000
40
  0.00020000
0
LINE
8
DC
6
CONTINUOUS
62
7
10
  0.12480000
20
 -0.12720000
30
  0.00000000
11
  0.12480000
21
 -0.12720000
31
  0.00000000
0
LINE
8
DC
6
CONTINUOUS
62
7
10
  0.12466771
20
 -0.12715000
30
  0.00000000
11
  0.12493229
21
 -0.12715000
31
  0.00000000
0
LINE
8
DC
6
CONTINUOUS
62
7
10
  0.12462679
20
 -0.12710000
30
  0.00000000
11
  0.12497321
21
 -0.12710000
31
  0.00000000
0
LINE
8
DC
6
CONTINUOUS
62
7
10
  0.12460635
20
 -0.12705000
30
  0.00000000
11
  0.12499365
21
 -0.12705000
31
  0.00000000
0
LINE
8
DC
6
CONTINUOUS
62
7
10
  0.12460000
20
 -0.12700000
30
  0.00000000
11
  0.12500000
21
 -0.12700000
31
  0.00000000
0
LINE
8
DC
6
CONTINUOUS
62
7
10
  0.12460635
20
 -0.12695000
30
  0.00000000
11
  0.12499365
21
 -0.12695000
31
  0.00000000
0
LINE
8
DC
6
CONTINUOUS
62
7
10
  0.12462679
20
 -0.12690000
30
  0.00000000
11
  0.12497321
21
 -0.12690000
31
  0.00000000
0
LINE
8
DC
6
CONTINUOUS
62
7
10
  0.12466771
20
 -0.12685000
30
  0.00000000
11
  0.12493229
21
 -0.12685000
31
  0.00000000
0
CIRCLE
8
DC
6
CONTINUOUS
62
7
10
  0.12480000
20
 -0.12700000
30
  0.00000000
40
  0.00020000
0
LINE
8
DC
6
CONTINUOUS
62
7
10
  0.12580000
20
 -0.12720000
30
  0.00000000
11
  0.12580000
21
 -0.12720000
31
  0.00000000
0
LINE
8
DC
6
CONTINUOUS
62
7
10
  0.12566771
20
 -0.12715000
30
  0.00000000
11
  0.12593229
21
 -0.12715000
31
  0.00000000
0
LINE
8
DC
6
CONTINUOUS
62
7
10
  0.12562679
20
 -0.12710000
30
  0.00000000
11
  0.12597321
21
 -0.12710000
31
  0.00000000
0
LINE
8
DC
6
CONTINUOUS
62
7
10
  0.12560635
20
 -0.12705000
30
  0.00000000
11
  0.12599365
21
 -0.12705000
31
  0.00000000
0
LINE
8
DC
6
CONTINUOUS
62
7
10
  0.12560000
20
 -0.12700000
30
  0.00000000
11
  0.12600000
21
 -0.12700000
31
  0.00000000
0
LINE
8
DC
6
CONTINUOUS
62
7
10
  0.12560635
20
 -0.12695000
30
  0.00000000
11
  0.12599365
21
 -0.12695000
31
  0.00000000
0
LINE
8
DC
6
CONTINUOUS
62
7
10
  0.12562679
20
 -0.12690000
30
  0.00000000
11
  0.12597321
21
 -0.12690000
31
  0.00000000
0
LINE
8
DC
6
CONTINUOUS
62
7
10
  0.12566771
20
 -0.12685000
30
  0.00000000
11
  0.12593229
21
 -0.12685000
31
  0.00000000
0
CIRCLE
8
DC
6
CONTINUOUS
62
7
10
  0.12580000
20
 -0.12700000
30
  0.00000000
40
  0.00020000
0
LINE
8
DC
6
CONTINUOUS
62
7
10
  0.12680000
20
 -0.12720000
30
  0.00000000
11
  0.12680000
21
 -0.12720000
31
  0.00000000
0
LINE
8
DC
6
CONTINUOUS
62
7
10
  0.12666771
20
 -0.12715000
30
  0.00000000
11
  0.12693229
21
 -0.12715000
31
  0.00000000
0
LINE
8
DC
6
CONTINUOUS
62
7
10
  0.12662679
20
 -0.12710000
30
  0.00000000
11
  0.12697321
21
 -0.12710000
31
  0.00000000
0
LINE
8
DC
6
CONTINUOUS
62
7
10
  0.12660635
20
 -0.12705000
30
  0.00000000
11
  0.12699365
21
 -0.12705000
31
  0.00000000
0
LINE
8
DC
6
CONTINUOUS
62
7
10
  0.12660000
20
 -0.12700000
30
  0.00000000
11
  0.12700000
21
 -0.12700000
31
  0.00000000
0
LINE
8
DC
6
CONTINUOUS
62
7
10
  0.12660635
20
 -0.12695000
30
  0.00000000
11
  0.12699365
21
 -0.12695000
31
  0.00000000
0
LINE
8
DC
6
CONTINUOUS
62
7
10
  0.12662679
20
 -0.12690000
30
  0.00000000
11
  0.12697321
21
 -0.12690000
31
  0.00000000
0
LINE
8
DC
6
CONTINUOUS
62
7
10
  0.12666771
20
 -0.12685000
30
  0.00000000
11
  0.12693229
21
 -0.12685000
31
  0.00000000
0
CIRCLE
8
DC
6
CONTINUOUS
62
7
10
  0.12680000
20
 -0.12700000
30
  0.00000000
40
  0.00020000
0
LINE
8
DC
6
CONTINUOUS
62
7
10
  0.12780000
20
 -0.12720000
30
  0.00000000
11
  0.12780000
21
 -0.12720000
31
  0.00000000
0
LINE
8
DC
6
CONTINUOUS
62
7
10
  0.12766771
20
 -0.12715000
30
  0.00000000
11
  0.12793229
21
 -0.12715000
31
  0.00000000
0
LINE
8
DC
6
CONTINUOUS
62
7
10
  0.12762679
20
 -0.12710000
30
  0.00000000
11
  0.12797321
21
 -0.12710000
31
  0.00000000
0
LINE
8
DC
6
CONTINUOUS
62
7
10
  0.12760635
20
 -0.12705000
30
  0.00000000
11
  0.12799365
21
 -0.12705000
31
  0.00000000
0
LINE
8
DC
6
CONTINUOUS
62
7
10
  0.12760000
20
 -0.12700000
30
  0.00000000
11
  0.12800000
21
 -0.12700000
31
  0.00000000
0
LINE
8
DC
6
CONTINUOUS
62
7
10
  0.12760635
20
 -0.12695000
30
  0.00000000
11
  0.12799365
21
 -0.12695000
31
  0.00000000
0
LINE
8
DC
6
CONTINUOUS
62
7
10
  0.12762679
20
 -0.12690000
30
  0.00000000
11
  0.12797321
21
 -0.12690000
31
  0.00000000
0
LINE
8
DC
6
CONTINUOUS
62
7
10
  0.12766771
20
 -0.12685000
30
  0.00000000
11
  0.12793229
21
 -0.12685000
31
  0.00000000
0
CIRCLE
8
DC
6
CONTINUOUS
62
7
10
  0.12780000
20
 -0.12700000
30
  0.00000000
40
  0.00020000
0
LINE
8
DC
6
CONTINUOUS
62
7
10
  0.12880000
20
 -0.12720000
30
  0.00000000
11
  0.12880000
21
 -0.12720000
31
  0.00000000
0
LINE
8
DC
6
CONTINUOUS
62
7
10
  0.12866771
20
 -0.12715000
30
  0.00000000
11
  0.12893229
21
 -0.12715000
31
  0.00000000
0
LINE
8
DC
6
CONTINUOUS
62
7
10
  0.12862679
20
 -0.12710000
30
  0.00000000
11
  0.12897321
21
 -0.12710000
31
  0.00000000
0
LINE
8
DC
6
CONTINUOUS
62
7
10
  0.12860635
20
 -0.12705000
30
  0.00000000
11
  0.12899365
21
 -0.12705000
31
  0.00000000
0
LINE
8
DC
6
CONTINUOUS
62
7
10
  0.12860000
20
 -0.12700000
30
  0.00000000
11
  0.12900000
21
 -0.12700000
31
  0.00000000
0
LINE
8
DC
6
CONTINUOUS
62
7
10
  0.12860635
20
 -0.12695000
30
  0.00000000
11
  0.12899365
21
 -0.12695000
31
  0.00000000
0
LINE
8
DC
6
CONTINUOUS
62
7
10
  0.12862679
20
 -0.12690000
30
  0.00000000
11
  0.12897321
21
 -0.12690000
31
  0.00000000
0
LINE
8
DC
6
CONTINUOUS
62
7
10
  0.12866771
20
 -0.12685000
30
  0.00000000
11
  0.12893229
21
 -0.12685000
31
  0.00000000
0
CIRCLE
8
DC
6
CONTINUOUS
62
7
10
  0.12880000
20
 -0.12700000
30
  0.00000000
40
  0.00020000
0
LINE
8
DC
6
CONTINUOUS
62
7
10
  0.12530000
20
 -0.12610000
30
  0.00000000
11
  0.12530000
21
 -0.12610000
31
  0.00000000
0
LINE
8
DC
6
CONTINUOUS
62
7
10
  0.12516771
20
 -0.12605000
30
  0.00000000
11
  0.12543229
21
 -0.12605000
31
  0.00000000
0
LINE
8
DC
6
CONTINUOUS
62
7
10
  0.12512679
20
 -0.12600000
30
  0.00000000
11
  0.12547321
21
 -0.12600000
31
  0.00000000
0
LINE
8
DC
6
CONTINUOUS
62
7
10
  0.12510635
20
 -0.12595000
30
  0.00000000
11
  0.12549365
21
 -0.12595000
31
  0.00000000
0
LINE
8
DC
6
CONTINUOUS
62
7
10
  0.12510000
20
 -0.12590000
30
  0.00000000
11
  0.12550000
21
 -0.12590000
31
  0.00000000
0
LINE
8
DC
6
CONTINUOUS
62
7
10
  0.12510635
20
 -0.12585000
30
  0.00000000
11
  0.12549365
21
 -0.12585000
31
  0.00000000
0
LINE
8
DC
6
CONTINUOUS
62
7
10
  0.12512679
20
 -0.12580000
30
  0.00000000
11
  0.12547321
21
 -0.12580000
31
  0.00000000
0
LINE
8
DC
6
CONTINUOUS
62
7
10
  0.12516771
20
 -0.12575000
30
  0.00000000
11
  0.12543229
21
 -0.12575000
31
  0.00000000
0
CIRCLE
8
DC
6
CONTINUOUS
62
7
10
  0.12530000
20
 -0.12590000
30
  0.00000000
40
  0.00020000
0
LINE
8
DC
6
CONTINUOUS
62
7
10
  0.12630000
20
 -0.12610000
30
  0.00000000
11
  0.12630000
21
 -0.12610000
31
  0.00000000
0
LINE
8
DC
6
CONTINUOUS
62
7
10
  0.12616771
20
 -0.12605000
30
  0.00000000
11
  0.12643229
21
 -0.12605000
31
  0.00000000
0
LINE
8
DC
6
CONTINUOUS
62
7
10
  0.12612679
20
 -0.12600000
30
  0.00000000
11
  0.12647321
21
 -0.12600000
31
  0.00000000
0
LINE
8
DC
6
CONTINUOUS
62
7
10
  0.12610635
20
 -0.12595000
30
  0.00000000
11
  0.12649365
21
 -0.12595000
31
  0.00000000
0
LINE
8
DC
6
CONTINUOUS
62
7
10
  0.12610000
20
 -0.12590000
30
  0.00000000
11
  0.12650000
21
 -0.12590000
31
  0.00000000
0
LINE
8
DC
6
CONTINUOUS
62
7
10
  0.12610635
20
 -0.12585000
30
  0.00000000
11
  0.12649365
21
 -0.12585000
31
  0.00000000
0
LINE
8
DC
6
CONTINUOUS
62
7
10
  0.12612679
20
 -0.12580000
30
  0.00000000
11
  0.12647321
21
 -0.12580000
31
  0.00000000
0
LINE
8
DC
6
CONTINUOUS
62
7
10
  0.12616771
20
 -0.12575000
30
  0.00000000
11
  0.12643229
21
 -0.12575000
31
  0.00000000
0
CIRCLE
8
DC
6
CONTINUOUS
62
7
10
  0.12630000
20
 -0.12590000
30
  0.00000000
40
  0.00020000
0
LINE
8
DC
6
CONTINUOUS
62
7
10
  0.12730000
20
 -0.12610000
30
  0.00000000
11
  0.12730000
21
 -0.12610000
31
  0.00000000
0
LINE
8
DC
6
CONTINUOUS
62
7
10
  0.12716771
20
 -0.12605000
30
  0.00000000
11
  0.12743229
21
 -0.12605000
31
  0.00000000
0
LINE
8
DC
6
CONTINUOUS
62
7
10
  0.12712679
20
 -0.12600000
30
  0.00000000
11
  0.12747321
21
 -0.12600000
31
  0.00000000
0
LINE
8
DC
6
CONTINUOUS
62
7
10
  0.12710635
20
 -0.12595000
30
  0.00000000
11
  0.12749365
21
 -0.12595000
31
  0.00000000
0
LINE
8
DC
6
CONTINUOUS
62
7
10
  0.12710000
20
 -0.12590000
30
  0.00000000
11
  0.12750000
21
 -0.12590000
31
  0.00000000
0
LINE
8
DC
6
CONTINUOUS
62
7
10
  0.12710635
20
 -0.12585000
30
  0.00000000
11
  0.12749365
21
 -0.12585000
31
  0.00000000
0
LINE
8
DC
6
CONTINUOUS
62
7
10
  0.12712679
20
 -0.12580000
30
  0.00000000
11
  0.12747321
21
 -0.12580000
31
  0.00000000
0
LINE
8
DC
6
CONTINUOUS
62
7
10
  0.12716771
20
 -0.12575000
30
  0.00000000
11
  0.12743229
21
 -0.12575000
31
  0.00000000
0
CIRCLE
8
DC
6
CONTINUOUS
62
7
10
  0.12730000
20
 -0.12590000
30
  0.00000000
40
  0.00020000
0
LINE
8
DC
6
CONTINUOUS
62
7
10
  0.12830000
20
 -0.12610000
30
  0.00000000
11
  0.12830000
21
 -0.12610000
31
  0.00000000
0
LINE
8
DC
6
CONTINUOUS
62
7
10
  0.12816771
20
 -0.12605000
30
  0.00000000
11
  0.12843229
21
 -0.12605000
31
  0.00000000
0
LINE
8
DC
6
CONTINUOUS
62
7
10
  0.12812679
20
 -0.12600000
30
  0.00000000
11
  0.12847321
21
 -0.12600000
31
  0.00000000
0
LINE
8
DC
6
CONTINUOUS
62
7
10
  0.12810635
20
 -0.12595000
30
  0.00000000
11
  0.12849365
21
 -0.12595000
31
  0.00000000
0
LINE
8
DC
6
CONTINUOUS
62
7
10
  0.12810000
20
 -0.12590000
30
  0.00000000
11
  0.12850000
21
 -0.12590000
31
  0.00000000
0
LINE
8
DC
6
CONTINUOUS
62
7
10
  0.12810635
20
 -0.12585000
30
  0.00000000
11
  0.12849365
21
 -0.12585000
31
  0.00000000
0
LINE
8
DC
6
CONTINUOUS
62
7
10
  0.12812679
20
 -0.12580000
30
  0.00000000
11
  0.12847321
21
 -0.12580000
31
  0.00000000
0
LINE
8
DC
6
CONTINUOUS
62
7
10
  0.12816771
20
 -0.12575000
30
  0.00000000
11
  0.12843229
21
 -0.12575000
31
  0.00000000
0
CIRCLE
8
DC
6
CONTINUOUS
62
7
10
  0.12830000
20
 -0.12590000
30
  0.00000000
40
  0.00020000
0
LINE
8
DC
6
CONTINUOUS
62
7
10
  0.12930000
20
 -0.12610000
30
  0.00000000
11
  0.12930000
21
 -0.12610000
31
  0.00000000
0
LINE
8
DC
6
CONTINUOUS
62
7
10
  0.12916771
20
 -0.12605000
30
  0.00000000
11
  0.12943229
21
 -0.12605000
31
  0.00000000
0
LINE
8
DC
6
CONTINUOUS
62
7
10
  0.12912679
20
 -0.12600000
30
  0.00000000
11
  0.12947321
21
 -0.12600000
31
  0.00000000
0
LINE
8
DC
6
CONTINUOUS
62
7
10
  0.12910635
20
 -0.12595000
30
  0.00000000
11
  0.12949365
21
 -0.12595000
31
  0.00000000
0
LINE
8
DC
6
CONTINUOUS
62
7
10
  0.12910000
20
 -0.12590000
30
  0.00000000
11
  0.12950000
21
 -0.12590000
31
  0.00000000
0
LINE
8
DC
6
CONTINUOUS
62
7
10
  0.12910635
20
 -0.12585000
30
  0.00000000
11
  0.12949365
21
 -0.12585000
31
  0.00000000
0
LINE
8
DC
6
CONTINUOUS
62
7
10
  0.12912679
20
 -0.12580000
30
  0.00000000
11
  0.12947321
21
 -0.12580000
31
  0.00000000
0
LINE
8
DC
6
CONTINUOUS
62
7
10
  0.12916771
20
 -0.12575000
30
  0.00000000
11
  0.12943229
21
 -0.12575000
31
  0.00000000
0
CIRCLE
8
DC
6
CONTINUOUS
62
7
10
  0.12930000
20
 -0.12590000
30
  0.00000000
40
  0.00020000
0
LINE
8
DC
6
CONTINUOUS
62
7
10
  0.12460000
20
 -0.13010000
30
  0.00000000
11
  0.12710000
21
 -0.12760000
31
  0.00000000
0
LINE
8
DC
6
CONTINUOUS
62
7
10
  0.12710000
20
 -0.13260000
30
  0.00000000
11
  0.12960000
21
 -0.13010000
31
  0.00000000
0
LINE
8
DC
6
CONTINUOUS
62
7
10
  0.12460000
20
 -0.13260000
30
  0.00000000
11
  0.12960000
21
 -0.12760000
31
  0.00000000
0
CIRCLE
8
DC
6
CONTINUOUS
62
7
10
  0.12660000
20
 -0.12930000
30
  0.00000000
40
  0.00060000
0
CIRCLE
8
DC
6
CONTINUOUS
62
7
10
  0.12890000
20
 -0.12930000
30
  0.00000000
40
  0.00060000
0
CIRCLE
8
DC
6
CONTINUOUS
62
7
10
  0.12660000
20
 -0.13170000
30
  0.00000000
40
  0.00060000
0
CIRCLE
8
DC
6
CONTINUOUS
62
7
10
  0.12890000
20
 -0.13170000
30
  0.00000000
40
  0.00060000
0
LINE
8
DC
6
CONTINUOUS
62
7
10
  0.12490000
20
 -0.13040000
30
  0.00000000
11
  0.12540000
21
 -0.12990000
31
  0.00000000
0
LINE
8
DC
6
CONTINUOUS
62
7
10
  0.12510000
20
 -0.13010000
30
  0.00000000
11
  0.12590000
21
 -0.13090000
31
  0.00000000
0
LINE
8
DC
6
CONTINUOUS
62
7
10
  0.12560000
20
 -0.13110000
30
  0.00000000
11
  0.12610000
21
 -0.13060000
31
  0.00000000
0
LINE
8
DC
6
CONTINUOUS
62
7
10
  0.12710000
20
 -0.12820000
30
  0.00000000
11
  0.12760000
21
 -0.12770000
31
  0.00000000
0
LINE
8
DC
6
CONTINUOUS
62
7
10
  0.12730000
20
 -0.12790000
30
  0.00000000
11
  0.12810000
21
 -0.12870000
31
  0.00000000
0
LINE
8
DC
6
CONTINUOUS
62
7
10
  0.12780000
20
 -0.12890000
30
  0.00000000
11
  0.12830000
21
 -0.12840000
31
  0.00000000
0
LINE
8
DC
6
CONTINUOUS
62
7
10
  0.12720000
20
 -0.13040000
30
  0.00000000
11
  0.12770000
21
 -0.12990000
31
  0.00000000
0
LINE
8
DC
6
CONTINUOUS
62
7
10
  0.12740000
20
 -0.13010000
30
  0.00000000
11
  0.12820000
21
 -0.13090000
31
  0.00000000
0
LINE
8
DC
6
CONTINUOUS
62
7
10
  0.12790000
20
 -0.13110000
30
  0.00000000
11
  0.12840000
21
 -0.13060000
31
  0.00000000
0
LINE
8
DC
6
CONTINUOUS
62
7
10
  0.12470000
20
 -0.12810000
30
  0.00000000
11
  0.12520000
21
 -0.12760000
31
  0.00000000
0
LINE
8
DC
6
CONTINUOUS
62
7
10
  0.12490000
20
 -0.12780000
30
  0.00000000
11
  0.12570000
21
 -0.12860000
31
  0.00000000
0
LINE
8
DC
6
CONTINUOUS
62
7
10
  0.12540000
20
 -0.12880000
30
  0.00000000
11
  0.12590000
21
 -0.12830000
31
  0.00000000
0
LINE
8
DC
6
CONTINUOUS
62
7
10
  0.12510000
20
 -0.13340000
30
  0.00000000
11
  0.12810000
21
 -0.13340000
31
  0.00000000
0
LINE
8
DC
6
CONTINUOUS
62
7
10
  0.12610000
20
 -0.13500000
30
  0.00000000
11
  0.12910000
21
 -0.13500000
31
  0.00000000
0
LINE
8
DC
6
CONTINUOUS
62
7
10
  0.12620000
20
 -0.13800000
30
  0.00000000
11
  0.12620000
21
 -0.13800000
31
  0.00000000
0
LINE
8
DC
6
CONTINUOUS
62
7
10
  0.12598206
20
 -0.13795000
30
  0.00000000
11
  0.12641794
21
 -0.13795000
31
  0.00000000
0
LINE
8
DC
6
CONTINUOUS
62
7
10
  0.12590000
20
 -0.13790000
30
  0.00000000
11
  0.12650000
21
 -0.13790000
31
  0.00000000
0
LINE
8
DC
6
CONTINUOUS
62
7
10
  0.12584293
20
 -0.13785000
30
  0.00000000
11
  0.12655707
21
 -0.13785000
31
  0.00000000
0
LINE
8
DC
6
CONTINUOUS
62
7
10
  0.12580000
20
 -0.13780000
30
  0.00000000
11
  0.12660000
21
 -0.13780000
31
  0.00000000
0
LINE
8
DC
6
CONTINUOUS
62
7
10
  0.12576699
20
 -0.13775000
30
  0.00000000
11
  0.12663301
21
 -0.13775000
31
  0.00000000
0
LINE
8
DC
6
CONTINUOUS
62
7
10
  0.12574174
20
 -0.13770000
30
  0.00000000
11
  0.12665826
21
 -0.13770000
31
  0.00000000
0
LINE
8
DC
6
CONTINUOUS
62
7
10
  0.12572303
20
 -0.13765000
30
  0.00000000
11
  0.12667697
21
 -0.13765000
31
  0.00000000
0
LINE
8
DC
6
CONTINUOUS
62
7
10
  0.12571010
20
 -0.13760000
30
  0.00000000
11
  0.12668990
21
 -0.13760000
31
  0.00000000
0
LINE
8
DC
6
CONTINUOUS
62
7
10
  0.12570251
20
 -0.13755000
30
  0.00000000
11
  0.12669749
21
 -0.13755000
31
  0.00000000
0
LINE
8
DC
6
CONTINUOUS
62
7
10
  0.12570000
20
 -0.13750000
30
  0.00000000
11
  0.12670000
21
 -0.13750000
31
  0.00000000
0
LINE
8
DC
6
CONTINUOUS
62
7
10
  0.12570251
20
 -0.13745000
30
  0.00000000
11
  0.12669749
21
 -0.13745000
31
  0.00000000
0
LINE
8
DC
6
CONTINUOUS
62
7
10
  0.12571010
20
 -0.13740000
30
  0.00000000
11
  0.12668990
21
 -0.13740000
31
  0.00000000
0
LINE
8
DC
6
CONTINUOUS
62
7
10
  0.12572303
20
 -0.13735000
30
  0.00000000
11
  0.12667697
21
 -0.13735000
31
  0.00000000
0
LINE
8
DC
6
CONTINUOUS
62
7
10
  0.12574174
20
 -0.13730000
30
  0.00000000
11
  0.12665826
21
 -0.13730000
31
  0.00000000
0
LINE
8
DC
6
CONTINUOUS
62
7
10
  0.12576699
20
 -0.13725000
30
  0.00000000
11
  0.12663301
21
 -0.13725000
31
  0.00000000
0
LINE
8
DC
6
CONTINUOUS
62
7
10
  0.12580000
20
 -0.13720000
30
  0.00000000
11
  0.12660000
21
 -0.13720000
31
  0.00000000
0
LINE
8
DC
6
CONTINUOUS
62
7
10
  0.12584293
20
 -0.13715000
30
  0.00000000
11
  0.12655707
21
 -0.13715000
31
  0.00000000
0
LINE
8
DC
6
CONTINUOUS
62
7
10
  0.12590000
20
 -0.13710000
30
  0.00000000
11
  0.12650000
21
 -0.13710000
31
  0.00000000
0
LINE
8
DC
6
CONTINUOUS
62
7
10
  0.12598206
20
 -0.13705000
30
  0.00000000
11
  0.12641794
21
 -0.13705000
31
  0.00000000
0
CIRCLE
8
DC
6
CONTINUOUS
62
7
10
  0.12620000
20
 -0.13750000
30
  0.00000000
40
  0.00050000
0
LINE
8
DC
6
CONTINUOUS
62
7
10
  0.12780000
20
 -0.13800000
30
  0.00000000
11
  0.12780000
21
 -0.13800000
31
  0.00000000
0
LINE
8
DC
6
CONTINUOUS
62
7
10
  0.12758206
20
 -0.13795000
30
  0.00000000
11
  0.12801794
21
 -0.13795000
31
  0.00000000
0
LINE
8
DC
6
CONTINUOUS
62
7
10
  0.12750000
20
 -0.13790000
30
  0.00000000
11
  0.12810000
21
 -0.13790000
31
  0.00000000
0
LINE
8
DC
6
CONTINUOUS
62
7
10
  0.12744293
20
 -0.13785000
30
  0.00000000
11
  0.12815707
21
 -0.13785000
31
  0.00000000
0
LINE
8
DC
6
CONTINUOUS
62
7
10
  0.12740000
20
 -0.13780000
30
  0.00000000
11
  0.12820000
21
 -0.13780000
31
  0.00000000
0
LINE
8
DC
6
CONTINUOUS
62
7
10
  0.12736699
20
 -0.13775000
30
  0.00000000
11
  0.12823301
21
 -0.13775000
31
  0.00000000
0
LINE
8
DC
6
CONTINUOUS
62
7
10
  0.12734174
20
 -0.13770000
30
  0.00000000
11
  0.12825826
21
 -0.13770000
31
  0.00000000
0
LINE
8
DC
6
CONTINUOUS
62
7
10
  0.12732303
20
 -0.13765000
30
  0.00000000
11
  0.12827697
21
 -0.13765000
31
  0.00000000
0
LINE
8
DC
6
CONTINUOUS
62
7
10
  0.12731010
20
 -0.13760000
30
  0.00000000
11
  0.12828990
21
 -0.13760000
31
  0.00000000
0
LINE
8
DC
6
CONTINUOUS
62
7
10
  0.12730251
20
 -0.13755000
30
  0.00000000
11
  0.12829749
21
 -0.13755000
31
  0.00000000
0
LINE
8
DC
6
CONTINUOUS
62
7
10
  0.12730000
20
 -0.13750000
30
  0.00000000
11
  0.12830000
21
 -0.13750000
31
  0.00000000
0
LINE
8
DC
6
CONTINUOUS
62
7
10
  0.12730251
20
 -0.13745000
30
  0.00000000
11
  0.12829749
21
 -0.13745000
31
  0.00000000
0
LINE
8
DC
6
CONTINUOUS
62
7
10
  0.12731010
20
 -0.13740000
30
  0.00000000
11
  0.12828990
21
 -0.13740000
31
  0.00000000
0
LINE
8
DC
6
CONTINUOUS
62
7
10
  0.12732303
20
 -0.13735000
30
  0.00000000
11
  0.12827697
21
 -0.13735000
31
  0.00000000
0
LINE
8
DC
6
CONTINUOUS
62
7
10
  0.12734174
20
 -0.13730000
30
  0.00000000
11
  0.12825826
21
 -0.13730000
31
  0.00000000
0
LINE
8
DC
6
CONTINUOUS
62
7
10
  0.12736699
20
 -0.13725000
30
  0.00000000
11
  0.12823301
21
 -0.13725000
31
  0.00000000
0
LINE
8
DC
6
CONTINUOUS
62
7
10
  0.12740000
20
 -0.13720000
30
  0.00000000
11
  0.12820000
21
 -0.13720000
31
  0.00000000
0
LINE
8
DC
6
CONTINUOUS
62
7
10
  0.12744293
20
 -0.13715000
30
  0.00000000
11
  0.12815707
21
 -0.13715000
31
  0.00000000
0
LINE
8
DC
6
CONTINUOUS
62
7
10
  0.12750000
20
 -0.13710000
30
  0.00000000
11
  0.12810000
21
 -0.13710000
31
  0.00000000
0
LINE
8
DC
6
CONTINUOUS
62
7
10
  0.12758206
20
 -0.13705000
30
  0.00000000
11
  0.12801794
21
 -0.13705000
31
  0.00000000
0
CIRCLE
8
DC
6
CONTINUOUS
62
7
10
  0.12780000
20
 -0.13750000
30
  0.00000000
40
  0.00050000
0
LINE
8
DC
6
CONTINUOUS
62
7
10
  0.12560000
20
 -0.13800000
30
  0.00000000
11
  0.12860000
21
 -0.13800000
31
  0.00000000
0
LINE
8
DC
6
CONTINUOUS
62
7
10
  0.12480000
20
 -0.13990000
30
  0.00000000
11
  0.12480000
21
 -0.13990000
31
  0.00000000
0
LINE
8
DC
6
CONTINUOUS
62
7
10
  0.12466771
20
 -0.13985000
30
  0.00000000
11
  0.12493229
21
 -0.13985000
31
  0.00000000
0
LINE
8
DC
6
CONTINUOUS
62
7
10
  0.12462679
20
 -0.13980000
30
  0.00000000
11
  0.12497321
21
 -0.13980000
31
  0.00000000
0
LINE
8
DC
6
CONTINUOUS
62
7
10
  0.12460635
20
 -0.13975000
30
  0.00000000
11
  0.12499365
21
 -0.13975000
31
  0.00000000
0
LINE
8
DC
6
CONTINUOUS
62
7
10
  0.12460000
20
 -0.13970000
30
  0.00000000
11
  0.12500000
21
 -0.13970000
31
  0.00000000
0
LINE
8
DC
6
CONTINUOUS
62
7
10
  0.12460635
20
 -0.13965000
30
  0.00000000
11
  0.12499365
21
 -0.13965000
31
  0.00000000
0
LINE
8
DC
6
CONTINUOUS
62
7
10
  0.12462679
20
 -0.13960000
30
  0.00000000
11
  0.12497321
21
 -0.13960000
31
  0.00000000
0
LINE
8
DC
6
CONTINUOUS
62
7
10
  0.12466771
20
 -0.13955000
30
  0.00000000
11
  0.12493229
21
 -0.13955000
31
  0.00000000
0
CIRCLE
8
DC
6
CONTINUOUS
62
7
10
  0.12480000
20
 -0.13970000
30
  0.00000000
40
  0.00020000
0
LINE
8
DC
6
CONTINUOUS
62
7
10
  0.12580000
20
 -0.13990000
30
  0.00000000
11
  0.12580000
21
 -0.13990000
31
  0.00000000
0
LINE
8
DC
6
CONTINUOUS
62
7
10
  0.12566771
20
 -0.13985000
30
  0.00000000
11
  0.12593229
21
 -0.13985000
31
  0.00000000
0
LINE
8
DC
6
CONTINUOUS
62
7
10
  0.12562679
20
 -0.13980000
30
  0.00000000
11
  0.12597321
21
 -0.13980000
31
  0.00000000
0
LINE
8
DC
6
CONTINUOUS
62
7
10
  0.12560635
20
 -0.13975000
30
  0.00000000
11
  0.12599365
21
 -0.13975000
31
  0.00000000
0
LINE
8
DC
6
CONTINUOUS
62
7
10
  0.12560000
20
 -0.13970000
30
  0.00000000
11
  0.12600000
21
 -0.13970000
31
  0.00000000
0
LINE
8
DC
6
CONTINUOUS
62
7
10
  0.12560635
20
 -0.13965000
30
  0.00000000
11
  0.12599365
21
 -0.13965000
31
  0.00000000
0
LINE
8
DC
6
CONTINUOUS
62
7
10
  0.12562679
20
 -0.13960000
30
  0.00000000
11
  0.12597321
21
 -0.13960000
31
  0.00000000
0
LINE
8
DC
6
CONTINUOUS
62
7
10
  0.12566771
20
 -0.13955000
30
  0.00000000
11
  0.12593229
21
 -0.13955000
31
  0.00000000
0
CIRCLE
8
DC
6
CONTINUOUS
62
7
10
  0.12580000
20
 -0.13970000
30
  0.00000000
40
  0.00020000
0
LINE
8
DC
6
CONTINUOUS
62
7
10
  0.12680000
20
 -0.13990000
30
  0.00000000
11
  0.12680000
21
 -0.13990000
31
  0.00000000
0
LINE
8
DC
6
CONTINUOUS
62
7
10
  0.12666771
20
 -0.13985000
30
  0.00000000
11
  0.12693229
21
 -0.13985000
31
  0.00000000
0
LINE
8
DC
6
CONTINUOUS
62
7
10
  0.12662679
20
 -0.13980000
30
  0.00000000
11
  0.12697321
21
 -0.13980000
31
  0.00000000
0
LINE
8
DC
6
CONTINUOUS
62
7
10
  0.12660635
20
 -0.13975000
30
  0.00000000
11
  0.12699365
21
 -0.13975000
31
  0.00000000
0
LINE
8
DC
6
CONTINUOUS
62
7
10
  0.12660000
20
 -0.13970000
30
  0.00000000
11
  0.12700000
21
 -0.13970000
31
  0.00000000
0
LINE
8
DC
6
CONTINUOUS
62
7
10
  0.12660635
20
 -0.13965000
30
  0.00000000
11
  0.12699365
21
 -0.13965000
31
  0.00000000
0
LINE
8
DC
6
CONTINUOUS
62
7
10
  0.12662679
20
 -0.13960000
30
  0.00000000
11
  0.12697321
21
 -0.13960000
31
  0.00000000
0
LINE
8
DC
6
CONTINUOUS
62
7
10
  0.12666771
20
 -0.13955000
30
  0.00000000
11
  0.12693229
21
 -0.13955000
31
  0.00000000
0
CIRCLE
8
DC
6
CONTINUOUS
62
7
10
  0.12680000
20
 -0.13970000
30
  0.00000000
40
  0.00020000
0
LINE
8
DC
6
CONTINUOUS
62
7
10
  0.12780000
20
 -0.13990000
30
  0.00000000
11
  0.12780000
21
 -0.13990000
31
  0.00000000
0
LINE
8
DC
6
CONTINUOUS
62
7
10
  0.12766771
20
 -0.13985000
30
  0.00000000
11
  0.12793229
21
 -0.13985000
31
  0.00000000
0
LINE
8
DC
6
CONTINUOUS
62
7
10
  0.12762679
20
 -0.13980000
30
  0.00000000
11
  0.12797321
21
 -0.13980000
31
  0.00000000
0
LINE
8
DC
6
CONTINUOUS
62
7
10
  0.12760635
20
 -0.13975000
30
  0.00000000
11
  0.12799365
21
 -0.13975000
31
  0.00000000
0
LINE
8
DC
6
CONTINUOUS
62
7
10
  0.12760000
20
 -0.13970000
30
  0.00000000
11
  0.12800000
21
 -0.13970000
31
  0.00000000
0
LINE
8
DC
6
CONTINUOUS
62
7
10
  0.12760635
20
 -0.13965000
30
  0.00000000
11
  0.12799365
21
 -0.13965000
31
  0.00000000
0
LINE
8
DC
6
CONTINUOUS
62
7
10
  0.12762679
20
 -0.13960000
30
  0.00000000
11
  0.12797321
21
 -0.13960000
31
  0.00000000
0
LINE
8
DC
6
CONTINUOUS
62
7
10
  0.12766771
20
 -0.13955000
30
  0.00000000
11
  0.12793229
21
 -0.13955000
31
  0.00000000
0
CIRCLE
8
DC
6
CONTINUOUS
62
7
10
  0.12780000
20
 -0.13970000
30
  0.00000000
40
  0.00020000
0
LINE
8
DC
6
CONTINUOUS
62
7
10
  0.12880000
20
 -0.13990000
30
  0.00000000
11
  0.12880000
21
 -0.13990000
31
  0.00000000
0
LINE
8
DC
6
CONTINUOUS
62
7
10
  0.12866771
20
 -0.13985000
30
  0.00000000
11
  0.12893229
21
 -0.13985000
31
  0.00000000
0
LINE
8
DC
6
CONTINUOUS
62
7
10
  0.12862679
20
 -0.13980000
30
  0.00000000
11
  0.12897321
21
 -0.13980000
31
  0.00000000
0
LINE
8
DC
6
CONTINUOUS
62
7
10
  0.12860635
20
 -0.13975000
30
  0.00000000
11
  0.12899365
21
 -0.13975000
31
  0.00000000
0
LINE
8
DC
6
CONTINUOUS
62
7
10
  0.12860000
20
 -0.13970000
30
  0.00000000
11
  0.12900000
21
 -0.13970000
31
  0.00000000
0
LINE
8
DC
6
CONTINUOUS
62
7
10
  0.12860635
20
 -0.13965000
30
  0.00000000
11
  0.12899365
21
 -0.13965000
31
  0.00000000
0
LINE
8
DC
6
CONTINUOUS
62
7
10
  0.12862679
20
 -0.13960000
30
  0.00000000
11
  0.12897321
21
 -0.13960000
31
  0.00000000
0
LINE
8
DC
6
CONTINUOUS
62
7
10
  0.12866771
20
 -0.13955000
30
  0.00000000
11
  0.12893229
21
 -0.13955000
31
  0.00000000
0
CIRCLE
8
DC
6
CONTINUOUS
62
7
10
  0.12880000
20
 -0.13970000
30
  0.00000000
40
  0.00020000
0
LINE
8
DC
6
CONTINUOUS
62
7
10
  0.12480000
20
 -0.14210000
30
  0.00000000
11
  0.12480000
21
 -0.14210000
31
  0.00000000
0
LINE
8
DC
6
CONTINUOUS
62
7
10
  0.12466771
20
 -0.14205000
30
  0.00000000
11
  0.12493229
21
 -0.14205000
31
  0.00000000
0
LINE
8
DC
6
CONTINUOUS
62
7
10
  0.12462679
20
 -0.14200000
30
  0.00000000
11
  0.12497321
21
 -0.14200000
31
  0.00000000
0
LINE
8
DC
6
CONTINUOUS
62
7
10
  0.12460635
20
 -0.14195000
30
  0.00000000
11
  0.12499365
21
 -0.14195000
31
  0.00000000
0
LINE
8
DC
6
CONTINUOUS
62
7
10
  0.12460000
20
 -0.14190000
30
  0.00000000
11
  0.12500000
21
 -0.14190000
31
  0.00000000
0
LINE
8
DC
6
CONTINUOUS
62
7
10
  0.12460635
20
 -0.14185000
30
  0.00000000
11
  0.12499365
21
 -0.14185000
31
  0.00000000
0
LINE
8
DC
6
CONTINUOUS
62
7
10
  0.12462679
20
 -0.14180000
30
  0.00000000
11
  0.12497321
21
 -0.14180000
31
  0.00000000
0
LINE
8
DC
6
CONTINUOUS
62
7
10
  0.12466771
20
 -0.14175000
30
  0.00000000
11
  0.12493229
21
 -0.14175000
31
  0.00000000
0
CIRCLE
8
DC
6
CONTINUOUS
62
7
10
  0.12480000
20
 -0.14190000
30
  0.00000000
40
  0.00020000
0
LINE
8
DC
6
CONTINUOUS
62
7
10
  0.12580000
20
 -0.14210000
30
  0.00000000
11
  0.12580000
21
 -0.14210000
31
  0.00000000
0
LINE
8
DC
6
CONTINUOUS
62
7
10
  0.12566771
20
 -0.14205000
30
  0.00000000
11
  0.12593229
21
 -0.14205000
31
  0.00000000
0
LINE
8
DC
6
CONTINUOUS
62
7
10
  0.12562679
20
 -0.14200000
30
  0.00000000
11
  0.12597321
21
 -0.14200000
31
  0.00000000
0
LINE
8
DC
6
CONTINUOUS
62
7
10
  0.12560635
20
 -0.14195000
30
  0.00000000
11
  0.12599365
21
 -0.14195000
31
  0.00000000
0
LINE
8
DC
6
CONTINUOUS
62
7
10
  0.12560000
20
 -0.14190000
30
  0.00000000
11
  0.12600000
21
 -0.14190000
31
  0.00000000
0
LINE
8
DC
6
CONTINUOUS
62
7
10
  0.12560635
20
 -0.14185000
30
  0.00000000
11
  0.12599365
21
 -0.14185000
31
  0.00000000
0
LINE
8
DC
6
CONTINUOUS
62
7
10
  0.12562679
20
 -0.14180000
30
  0.00000000
11
  0.12597321
21
 -0.14180000
31
  0.00000000
0
LINE
8
DC
6
CONTINUOUS
62
7
10
  0.12566771
20
 -0.14175000
30
  0.00000000
11
  0.12593229
21
 -0.14175000
31
  0.00000000
0
CIRCLE
8
DC
6
CONTINUOUS
62
7
10
  0.12580000
20
 -0.14190000
30
  0.00000000
40
  0.00020000
0
LINE
8
DC
6
CONTINUOUS
62
7
10
  0.12680000
20
 -0.14210000
30
  0.00000000
11
  0.12680000
21
 -0.14210000
31
  0.00000000
0
LINE
8
DC
6
CONTINUOUS
62
7
10
  0.12666771
20
 -0.14205000
30
  0.00000000
11
  0.12693229
21
 -0.14205000
31
  0.00000000
0
LINE
8
DC
6
CONTINUOUS
62
7
10
  0.12662679
20
 -0.14200000
30
  0.00000000
11
  0.12697321
21
 -0.14200000
31
  0.00000000
0
LINE
8
DC
6
CONTINUOUS
62
7
10
  0.12660635
20
 -0.14195000
30
  0.00000000
11
  0.12699365
21
 -0.14195000
31
  0.00000000
0
LINE
8
DC
6
CONTINUOUS
62
7
10
  0.12660000
20
 -0.14190000
30
  0.00000000
11
  0.12700000
21
 -0.14190000
31
  0.00000000
0
LINE
8
DC
6
CONTINUOUS
62
7
10
  0.12660635
20
 -0.14185000
30
  0.00000000
11
  0.12699365
21
 -0.14185000
31
  0.00000000
0
LINE
8
DC
6
CONTINUOUS
62
7
10
  0.12662679
20
 -0.14180000
30
  0.00000000
11
  0.12697321
21
 -0.14180000
31
  0.00000000
0
LINE
8
DC
6
CONTINUOUS
62
7
10
  0.12666771
20
 -0.14175000
30
  0.00000000
11
  0.12693229
21
 -0.14175000
31
  0.00000000
0
CIRCLE
8
DC
6
CONTINUOUS
62
7
10
  0.12680000
20
 -0.14190000
30
  0.00000000
40
  0.00020000
0
LINE
8
DC
6
CONTINUOUS
62
7
10
  0.12780000
20
 -0.14210000
30
  0.00000000
11
  0.12780000
21
 -0.14210000
31
  0.00000000
0
LINE
8
DC
6
CONTINUOUS
62
7
10
  0.12766771
20
 -0.14205000
30
  0.00000000
11
  0.12793229
21
 -0.14205000
31
  0.00000000
0
LINE
8
DC
6
CONTINUOUS
62
7
10
  0.12762679
20
 -0.14200000
30
  0.00000000
11
  0.12797321
21
 -0.14200000
31
  0.00000000
0
LINE
8
DC
6
CONTINUOUS
62
7
10
  0.12760635
20
 -0.14195000
30
  0.00000000
11
  0.12799365
21
 -0.14195000
31
  0.00000000
0
LINE
8
DC
6
CONTINUOUS
62
7
10
  0.12760000
20
 -0.14190000
30
  0.00000000
11
  0.12800000
21
 -0.14190000
31
  0.00000000
0
LINE
8
DC
6
CONTINUOUS
62
7
10
  0.12760635
20
 -0.14185000
30
  0.00000000
11
  0.12799365
21
 -0.14185000
31
  0.00000000
0
LINE
8
DC
6
CONTINUOUS
62
7
10
  0.12762679
20
 -0.14180000
30
  0.00000000
11
  0.12797321
21
 -0.14180000
31
  0.00000000
0
LINE
8
DC
6
CONTINUOUS
62
7
10
  0.12766771
20
 -0.14175000
30
  0.00000000
11
  0.12793229
21
 -0.14175000
31
  0.00000000
0
CIRCLE
8
DC
6
CONTINUOUS
62
7
10
  0.12780000
20
 -0.14190000
30
  0.00000000
40
  0.00020000
0
LINE
8
DC
6
CONTINUOUS
62
7
10
  0.12880000
20
 -0.14210000
30
  0.00000000
11
  0.12880000
21
 -0.14210000
31
  0.00000000
0
LINE
8
DC
6
CONTINUOUS
62
7
10
  0.12866771
20
 -0.14205000
30
  0.00000000
11
  0.12893229
21
 -0.14205000
31
  0.00000000
0
LINE
8
DC
6
CONTINUOUS
62
7
10
  0.12862679
20
 -0.14200000
30
  0.00000000
11
  0.12897321
21
 -0.14200000
31
  0.00000000
0
LINE
8
DC
6
CONTINUOUS
62
7
10
  0.12860635
20
 -0.14195000
30
  0.00000000
11
  0.12899365
21
 -0.14195000
31
  0.00000000
0
LINE
8
DC
6
CONTINUOUS
62
7
10
  0.12860000
20
 -0.14190000
30
  0.00000000
11
  0.12900000
21
 -0.14190000
31
  0.00000000
0
LINE
8
DC
6
CONTINUOUS
62
7
10
  0.12860635
20
 -0.14185000
30
  0.00000000
11
  0.12899365
21
 -0.14185000
31
  0.00000000
0
LINE
8
DC
6
CONTINUOUS
62
7
10
  0.12862679
20
 -0.14180000
30
  0.00000000
11
  0.12897321
21
 -0.14180000
31
  0.00000000
0
LINE
8
DC
6
CONTINUOUS
62
7
10
  0.12866771
20
 -0.14175000
30
  0.00000000
11
  0.12893229
21
 -0.14175000
31
  0.00000000
0
CIRCLE
8
DC
6
CONTINUOUS
62
7
10
  0.12880000
20
 -0.14190000
30
  0.00000000
40
  0.00020000
0
LINE
8
DC
6
CONTINUOUS
62
7
10
  0.12530000
20
 -0.14100000
30
  0.00000000
11
  0.12530000
21
 -0.14100000
31
  0.00000000
0
LINE
8
DC
6
CONTINUOUS
62
7
10
  0.12516771
20
 -0.14095000
30
  0.00000000
11
  0.12543229
21
 -0.14095000
31
  0.00000000
0
LINE
8
DC
6
CONTINUOUS
62
7
10
  0.12512679
20
 -0.14090000
30
  0.00000000
11
  0.12547321
21
 -0.14090000
31
  0.00000000
0
LINE
8
DC
6
CONTINUOUS
62
7
10
  0.12510635
20
 -0.14085000
30
  0.00000000
11
  0.12549365
21
 -0.14085000
31
  0.00000000
0
LINE
8
DC
6
CONTINUOUS
62
7
10
  0.12510000
20
 -0.14080000
30
  0.00000000
11
  0.12550000
21
 -0.14080000
31
  0.00000000
0
LINE
8
DC
6
CONTINUOUS
62
7
10
  0.12510635
20
 -0.14075000
30
  0.00000000
11
  0.12549365
21
 -0.14075000
31
  0.00000000
0
LINE
8
DC
6
CONTINUOUS
62
7
10
  0.12512679
20
 -0.14070000
30
  0.00000000
11
  0.12547321
21
 -0.14070000
31
  0.00000000
0
LINE
8
DC
6
CONTINUOUS
62
7
10
  0.12516771
20
 -0.14065000
30
  0.00000000
11
  0.12543229
21
 -0.14065000
31
  0.00000000
0
CIRCLE
8
DC
6
CONTINUOUS
62
7
10
  0.12530000
20
 -0.14080000
30
  0.00000000
40
  0.00020000
0
LINE
8
DC
6
CONTINUOUS
62
7
10
  0.12630000
20
 -0.14100000
30
  0.00000000
11
  0.12630000
21
 -0.14100000
31
  0.00000000
0
LINE
8
DC
6
CONTINUOUS
62
7
10
  0.12616771
20
 -0.14095000
30
  0.00000000
11
  0.12643229
21
 -0.14095000
31
  0.00000000
0
LINE
8
DC
6
CONTINUOUS
62
7
10
  0.12612679
20
 -0.14090000
30
  0.00000000
11
  0.12647321
21
 -0.14090000
31
  0.00000000
0
LINE
8
DC
6
CONTINUOUS
62
7
10
  0.12610635
20
 -0.14085000
30
  0.00000000
11
  0.12649365
21
 -0.14085000
31
  0.00000000
0
LINE
8
DC
6
CONTINUOUS
62
7
10
  0.12610000
20
 -0.14080000
30
  0.00000000
11
  0.12650000
21
 -0.14080000
31
  0.00000000
0
LINE
8
DC
6
CONTINUOUS
62
7
10
  0.12610635
20
 -0.14075000
30
  0.00000000
11
  0.12649365
21
 -0.14075000
31
  0.00000000
0
LINE
8
DC
6
CONTINUOUS
62
7
10
  0.12612679
20
 -0.14070000
30
  0.00000000
11
  0.12647321
21
 -0.14070000
31
  0.00000000
0
LINE
8
DC
6
CONTINUOUS
62
7
10
  0.12616771
20
 -0.14065000
30
  0.00000000
11
  0.12643229
21
 -0.14065000
31
  0.00000000
0
CIRCLE
8
DC
6
CONTINUOUS
62
7
10
  0.12630000
20
 -0.14080000
30
  0.00000000
40
  0.00020000
0
LINE
8
DC
6
CONTINUOUS
62
7
10
  0.12730000
20
 -0.14100000
30
  0.00000000
11
  0.12730000
21
 -0.14100000
31
  0.00000000
0
LINE
8
DC
6
CONTINUOUS
62
7
10
  0.12716771
20
 -0.14095000
30
  0.00000000
11
  0.12743229
21
 -0.14095000
31
  0.00000000
0
LINE
8
DC
6
CONTINUOUS
62
7
10
  0.12712679
20
 -0.14090000
30
  0.00000000
11
  0.12747321
21
 -0.14090000
31
  0.00000000
0
LINE
8
DC
6
CONTINUOUS
62
7
10
  0.12710635
20
 -0.14085000
30
  0.00000000
11
  0.12749365
21
 -0.14085000
31
  0.00000000
0
LINE
8
DC
6
CONTINUOUS
62
7
10
  0.12710000
20
 -0.14080000
30
  0.00000000
11
  0.12750000
21
 -0.14080000
31
  0.00000000
0
LINE
8
DC
6
CONTINUOUS
62
7
10
  0.12710635
20
 -0.14075000
30
  0.00000000
11
  0.12749365
21
 -0.14075000
31
  0.00000000
0
LINE
8
DC
6
CONTINUOUS
62
7
10
  0.12712679
20
 -0.14070000
30
  0.00000000
11
  0.12747321
21
 -0.14070000
31
  0.00000000
0
LINE
8
DC
6
CONTINUOUS
62
7
10
  0.12716771
20
 -0.14065000
30
  0.00000000
11
  0.12743229
21
 -0.14065000
31
  0.00000000
0
CIRCLE
8
DC
6
CONTINUOUS
62
7
10
  0.12730000
20
 -0.14080000
30
  0.00000000
40
  0.00020000
0
LINE
8
DC
6
CONTINUOUS
62
7
10
  0.12830000
20
 -0.14100000
30
  0.00000000
11
  0.12830000
21
 -0.14100000
31
  0.00000000
0
LINE
8
DC
6
CONTINUOUS
62
7
10
  0.12816771
20
 -0.14095000
30
  0.00000000
11
  0.12843229
21
 -0.14095000
31
  0.00000000
0
LINE
8
DC
6
CONTINUOUS
62
7
10
  0.12812679
20
 -0.14090000
30
  0.00000000
11
  0.12847321
21
 -0.14090000
31
  0.00000000
0
LINE
8
DC
6
CONTINUOUS
62
7
10
  0.12810635
20
 -0.14085000
30
  0.00000000
11
  0.12849365
21
 -0.14085000
31
  0.00000000
0
LINE
8
DC
6
CONTINUOUS
62
7
10
  0.12810000
20
 -0.14080000
30
  0.00000000
11
  0.12850000
21
 -0.14080000
31
  0.00000000
0
LINE
8
DC
6
CONTINUOUS
62
7
10
  0.12810635
20
 -0.14075000
30
  0.00000000
11
  0.12849365
21
 -0.14075000
31
  0.00000000
0
LINE
8
DC
6
CONTINUOUS
62
7
10
  0.12812679
20
 -0.14070000
30
  0.00000000
11
  0.12847321
21
 -0.14070000
31
  0.00000000
0
LINE
8
DC
6
CONTINUOUS
62
7
10
  0.12816771
20
 -0.14065000
30
  0.00000000
11
  0.12843229
21
 -0.14065000
31
  0.00000000
0
CIRCLE
8
DC
6
CONTINUOUS
62
7
10
  0.12830000
20
 -0.14080000
30
  0.00000000
40
  0.00020000
0
LINE
8
DC
6
CONTINUOUS
62
7
10
  0.12930000
20
 -0.14100000
30
  0.00000000
11
  0.12930000
21
 -0.14100000
31
  0.00000000
0
LINE
8
DC
6
CONTINUOUS
62
7
10
  0.12916771
20
 -0.14095000
30
  0.00000000
11
  0.12943229
21
 -0.14095000
31
  0.00000000
0
LINE
8
DC
6
CONTINUOUS
62
7
10
  0.12912679
20
 -0.14090000
30
  0.00000000
11
  0.12947321
21
 -0.14090000
31
  0.00000000
0
LINE
8
DC
6
CONTINUOUS
62
7
10
  0.12910635
20
 -0.14085000
30
  0.00000000
11
  0.12949365
21
 -0.14085000
31
  0.00000000
0
LINE
8
DC
6
CONTINUOUS
62
7
10
  0.12910000
20
 -0.14080000
30
  0.00000000
11
  0.12950000
21
 -0.14080000
31
  0.00000000
0
LINE
8
DC
6
CONTINUOUS
62
7
10
  0.12910635
20
 -0.14075000
30
  0.00000000
11
  0.12949365
21
 -0.14075000
31
  0.00000000
0
LINE
8
DC
6
CONTINUOUS
62
7
10
  0.12912679
20
 -0.14070000
30
  0.00000000
11
  0.12947321
21
 -0.14070000
31
  0.00000000
0
LINE
8
DC
6
CONTINUOUS
62
7
10
  0.12916771
20
 -0.14065000
30
  0.00000000
11
  0.12943229
21
 -0.14065000
31
  0.00000000
0
CIRCLE
8
DC
6
CONTINUOUS
62
7
10
  0.12930000
20
 -0.14080000
30
  0.00000000
40
  0.00020000
0
LINE
8
DC
6
CONTINUOUS
62
7
10
  0.12460000
20
 -0.14500000
30
  0.00000000
11
  0.12710000
21
 -0.14250000
31
  0.00000000
0
LINE
8
DC
6
CONTINUOUS
62
7
10
  0.12950000
20
 -0.14510000
30
  0.00000000
11
  0.12960000
21
 -0.14500000
31
  0.00000000
0
LINE
8
DC
6
CONTINUOUS
62
7
10
  0.12700000
20
 -0.14510000
30
  0.00000000
11
  0.12960000
21
 -0.14250000
31
  0.00000000
0
CIRCLE
8
DC
6
CONTINUOUS
62
7
10
  0.12660000
20
 -0.14420000
30
  0.00000000
40
  0.00060000
0
CIRCLE
8
DC
6
CONTINUOUS
62
7
10
  0.12890000
20
 -0.14420000
30
  0.00000000
40
  0.00060000
0
LINE
8
DC
6
CONTINUOUS
62
7
10
  0.12710000
20
 -0.14310000
30
  0.00000000
11
  0.12760000
21
 -0.14260000
31
  0.00000000
0
LINE
8
DC
6
CONTINUOUS
62
7
10
  0.12730000
20
 -0.14280000
30
  0.00000000
11
  0.12810000
21
 -0.14360000
31
  0.00000000
0
LINE
8
DC
6
CONTINUOUS
62
7
10
  0.12780000
20
 -0.14380000
30
  0.00000000
11
  0.12830000
21
 -0.14330000
31
  0.00000000
0
LINE
8
DC
6
CONTINUOUS
62
7
10
  0.12470000
20
 -0.14300000
30
  0.00000000
11
  0.12520000
21
 -0.14250000
31
  0.00000000
0
LINE
8
DC
6
CONTINUOUS
62
7
10
  0.12490000
20
 -0.14270000
30
  0.00000000
11
  0.12570000
21
 -0.14350000
31
  0.00000000
0
LINE
8
DC
6
CONTINUOUS
62
7
10
  0.12540000
20
 -0.14370000
30
  0.00000000
11
  0.12590000
21
 -0.14320000
31
  0.00000000
0
LINE
8
DC
6
CONTINUOUS
62
7
10
  0.11960000
20
 -0.12100000
30
  0.00000000
11
  0.17660000
21
 -0.12100000
31
  0.00000000
0
LINE
8
DC
6
CONTINUOUS
62
7
10
  0.11960000
20
 -0.14500000
30
  0.00000000
11
  0.11860000
21
 -0.14500000
31
  0.00000000
0
LINE
8
DC
6
CONTINUOUS
62
7
10
  0.10920000
20
 -0.14500000
30
  0.00000000
11
  0.11860000
21
 -0.14500000
31
  0.00000000
0
TEXT
8
DC
62
7
10
  0.11860000
20
 -0.14450000
30
  0.00000000
40
  0.00250000
41
  0.60000000
1
    5.00m
50
  0.00000000
72
2
73
0
11
  0.11860000
21
 -0.14450000
31
  0.00000000
0
TEXT
8
DC
62
7
10
  0.13660000
20
 -0.12830000
30
  0.00000000
40
  0.00216667
41
  0.60000000
1
Geschiebemergel, Ton, stark 
50
  0.00000000
72
0
73
1
11
  0.13660000
21
 -0.12830000
31
  0.00000000
0
TEXT
8
DC
62
7
10
  0.13660000
20
 -0.13140000
30
  0.00000000
40
  0.00216667
41
  0.60000000
1
schluffig, schwach feinsandig
50
  0.00000000
72
0
73
1
11
  0.13660000
21
 -0.13140000
31
  0.00000000
0
TEXT
8
DC
62
7
10
  0.13660000
20
 -0.13450000
30
  0.00000000
40
  0.00216667
41
  0.60000000
1
halbfest
50
  0.00000000
72
0
73
1
11
  0.13660000
21
 -0.13450000
31
  0.00000000
0
TEXT
8
DC
62
7
10
  0.13660000
20
 -0.13760000
30
  0.00000000
40
  0.00216667
41
  0.60000000
1
erdfeucht
50
  0.00000000
72
0
73
1
11
  0.13660000
21
 -0.13760000
31
  0.00000000
0
TEXT
8
DC
62
7
10
  0.13660000
20
 -0.14070000
30
  0.00000000
40
  0.00216667
41
  0.60000000
1
grünbraun
50
  0.00000000
72
0
73
1
11
  0.13660000
21
 -0.14070000
31
  0.00000000
0
CIRCLE
8
DC
6
CONTINUOUS
62
7
10
  0.18290000
20
 -0.13300000
30
  0.00000000
40
  0.00530000
0
TEXT
8
DC
62
7
10
  0.18090000
20
 -0.13500000
30
  0.00000000
40
  0.00250000
41
  0.60000000
1
TL
50
  0.00000000
72
0
73
1
11
  0.18090000
21
 -0.13500000
31
  0.00000000
0
LINE
8
DC
6
CONTINUOUS
62
7
10
  0.17040000
20
 -0.12990000
30
  0.00000000
11
  0.17660000
21
 -0.12990000
31
  0.00000000
0
LINE
8
DC
6
CONTINUOUS
62
7
10
  0.17660000
20
 -0.12990000
30
  0.00000000
11
  0.17660000
21
 -0.13610000
31
  0.00000000
0
LINE
8
DC
6
CONTINUOUS
62
7
10
  0.17660000
20
 -0.13610000
30
  0.00000000
11
  0.17040000
21
 -0.13610000
31
  0.00000000
0
LINE
8
DC
6
CONTINUOUS
62
7
10
  0.17040000
20
 -0.13610000
30
  0.00000000
11
  0.17040000
21
 -0.12990000
31
  0.00000000
0
TEXT
8
DC
62
7
10
  0.17350000
20
 -0.13500000
30
  0.00000000
40
  0.00250000
41
  0.60000000
1
4
50
  0.00000000
72
1
73
1
11
  0.17350000
21
 -0.13500000
31
  0.00000000
0
LINE
8
DC
6
CONTINUOUS
62
7
10
  0.11960000
20
 -0.14500000
30
  0.00000000
11
  0.17660000
21
 -0.14500000
31
  0.00000000
0
TEXT
8
DC
62
7
10
  0.11960000
20
 -0.14850000
30
  0.00000000
40
  0.00250000
41
  0.60000000
1
Endtiefe
50
  0.00000000
72
2
73
1
11
  0.11960000
21
 -0.14850000
31
  0.00000000
0
TEXT
8
DC
62
7
10
  0.12460000
20
 -0.15250000
30
  0.00000000
40
  0.00250000
41
  0.60000000
1
Station 0+296.000
50
  0.00000000
72
1
73
1
11
  0.12460000
21
 -0.15250000
31
  0.00000000
0
LINE
8
DC
6
CONTINUOUS
62
7
10
  0.11960000
20
 -0.04500000
30
  0.00000000
11
  0.12960000
21
 -0.04500000
31
  0.00000000
0
LINE
8
DC
6
CONTINUOUS
62
7
10
  0.12960000
20
 -0.04500000
30
  0.00000000
11
  0.12960000
21
 -0.14500000
31
  0.00000000
0
LINE
8
DC
6
CONTINUOUS
62
7
10
  0.12960000
20
 -0.14500000
30
  0.00000000
11
  0.11960000
21
 -0.14500000
31
  0.00000000
0
LINE
8
DC
6
CONTINUOUS
62
7
10
  0.11960000
20
 -0.14500000
30
  0.00000000
11
  0.11960000
21
 -0.04500000
31
  0.00000000
0
TEXT
8
DC
62
7
10
  0.12460000
20
 -0.03600000
30
  0.00000000
40
  0.00500000
41
  0.60000000
1
BS 2/22
50
  0.00000000
72
1
73
0
11
  0.12460000
21
 -0.03600000
31
  0.00000000
0
TEXT
8
DC
62
7
10
  0.12460000
20
 -0.04100000
30
  0.00000000
40
  0.00250000
41
  0.60000000
1
Ansatzpunkt:GOK
50
  0.00000000
72
1
73
0
11
  0.12460000
21
 -0.04100000
31
  0.00000000
0
LINE
8
DC
6
CONTINUOUS
62
7
10
  0.03560000
20
 -0.04500000
30
  0.00000000
11
  0.05200000
21
 -0.04500000
31
  0.00000000
0
LINE
8
DC
6
CONTINUOUS
62
7
10
  0.03700000
20
 -0.04500000
30
  0.00000000
11
  0.03560000
21
 -0.04210000
31
  0.00000000
0
LINE
8
DC
6
CONTINUOUS
62
7
10
  0.03560000
20
 -0.04210000
30
  0.00000000
11
  0.03850000
21
 -0.04210000
31
  0.00000000
0
LINE
8
DC
6
CONTINUOUS
62
7
10
  0.03850000
20
 -0.04210000
30
  0.00000000
11
  0.03700000
21
 -0.04500000
31
  0.00000000
0
TEXT
8
DC
62
7
10
  0.03980000
20
 -0.04300000
30
  0.00000000
40
  0.00250000
41
  0.60000000
1
   0.00m
50
  0.00000000
72
0
73
0
11
  0.03980000
21
 -0.04300000
31
  0.00000000
0
LINE
8
DC
6
CONTINUOUS
62
7
10
  0.03560000
20
 -0.06500000
30
  0.00000000
11
  0.05200000
21
 -0.06500000
31
  0.00000000
0
LINE
8
DC
6
CONTINUOUS
62
7
10
  0.03700000
20
 -0.06500000
30
  0.00000000
11
  0.03560000
21
 -0.06210000
31
  0.00000000
0
LINE
8
DC
6
CONTINUOUS
62
7
10
  0.03560000
20
 -0.06210000
30
  0.00000000
11
  0.03850000
21
 -0.06210000
31
  0.00000000
0
LINE
8
DC
6
CONTINUOUS
62
7
10
  0.03850000
20
 -0.06210000
30
  0.00000000
11
  0.03700000
21
 -0.06500000
31
  0.00000000
0
TEXT
8
DC
62
7
10
  0.03980000
20
 -0.06300000
30
  0.00000000
40
  0.00250000
41
  0.60000000
1
  -1.00m
50
  0.00000000
72
0
73
0
11
  0.03980000
21
 -0.06300000
31
  0.00000000
0
LINE
8
DC
6
CONTINUOUS
62
7
10
  0.03560000
20
 -0.08500000
30
  0.00000000
11
  0.05200000
21
 -0.08500000
31
  0.00000000
0
LINE
8
DC
6
CONTINUOUS
62
7
10
  0.03700000
20
 -0.08500000
30
  0.00000000
11
  0.03560000
21
 -0.08210000
31
  0.00000000
0
LINE
8
DC
6
CONTINUOUS
62
7
10
  0.03560000
20
 -0.08210000
30
  0.00000000
11
  0.03850000
21
 -0.08210000
31
  0.00000000
0
LINE
8
DC
6
CONTINUOUS
62
7
10
  0.03850000
20
 -0.08210000
30
  0.00000000
11
  0.03700000
21
 -0.08500000
31
  0.00000000
0
TEXT
8
DC
62
7
10
  0.03980000
20
 -0.08300000
30
  0.00000000
40
  0.00250000
41
  0.60000000
1
  -2.00m
50
  0.00000000
72
0
73
0
11
  0.03980000
21
 -0.08300000
31
  0.00000000
0
LINE
8
DC
6
CONTINUOUS
62
7
10
  0.03560000
20
 -0.10500000
30
  0.00000000
11
  0.05200000
21
 -0.10500000
31
  0.00000000
0
LINE
8
DC
6
CONTINUOUS
62
7
10
  0.03700000
20
 -0.10500000
30
  0.00000000
11
  0.03560000
21
 -0.10210000
31
  0.00000000
0
LINE
8
DC
6
CONTINUOUS
62
7
10
  0.03560000
20
 -0.10210000
30
  0.00000000
11
  0.03850000
21
 -0.10210000
31
  0.00000000
0
LINE
8
DC
6
CONTINUOUS
62
7
10
  0.03850000
20
 -0.10210000
30
  0.00000000
11
  0.03700000
21
 -0.10500000
31
  0.00000000
0
TEXT
8
DC
62
7
10
  0.03980000
20
 -0.10300000
30
  0.00000000
40
  0.00250000
41
  0.60000000
1
  -3.00m
50
  0.00000000
72
0
73
0
11
  0.03980000
21
 -0.10300000
31
  0.00000000
0
LINE
8
DC
6
CONTINUOUS
62
7
10
  0.03560000
20
 -0.12500000
30
  0.00000000
11
  0.05200000
21
 -0.12500000
31
  0.00000000
0
LINE
8
DC
6
CONTINUOUS
62
7
10
  0.03700000
20
 -0.12500000
30
  0.00000000
11
  0.03560000
21
 -0.12210000
31
  0.00000000
0
LINE
8
DC
6
CONTINUOUS
62
7
10
  0.03560000
20
 -0.12210000
30
  0.00000000
11
  0.03850000
21
 -0.12210000
31
  0.00000000
0
LINE
8
DC
6
CONTINUOUS
62
7
10
  0.03850000
20
 -0.12210000
30
  0.00000000
11
  0.03700000
21
 -0.12500000
31
  0.00000000
0
TEXT
8
DC
62
7
10
  0.03980000
20
 -0.12300000
30
  0.00000000
40
  0.00250000
41
  0.60000000
1
  -4.00m
50
  0.00000000
72
0
73
0
11
  0.03980000
21
 -0.12300000
31
  0.00000000
0
LINE
8
DC
6
CONTINUOUS
62
7
10
  0.03560000
20
 -0.14500000
30
  0.00000000
11
  0.05200000
21
 -0.14500000
31
  0.00000000
0
LINE
8
DC
6
CONTINUOUS
62
7
10
  0.03700000
20
 -0.14500000
30
  0.00000000
11
  0.03560000
21
 -0.14210000
31
  0.00000000
0
LINE
8
DC
6
CONTINUOUS
62
7
10
  0.03560000
20
 -0.14210000
30
  0.00000000
11
  0.03850000
21
 -0.14210000
31
  0.00000000
0
LINE
8
DC
6
CONTINUOUS
62
7
10
  0.03850000
20
 -0.14210000
30
  0.00000000
11
  0.03700000
21
 -0.14500000
31
  0.00000000
0
TEXT
8
DC
62
7
10
  0.03980000
20
 -0.14300000
30
  0.00000000
40
  0.00250000
41
  0.60000000
1
  -5.00m
50
  0.00000000
72
0
73
0
11
  0.03980000
21
 -0.14300000
31
  0.00000000
0
LINE
8
DC
6
CONTINUOUS
62
7
10
  0.03560000
20
 -0.16500000
30
  0.00000000
11
  0.05200000
21
 -0.16500000
31
  0.00000000
0
LINE
8
DC
6
CONTINUOUS
62
7
10
  0.03700000
20
 -0.16500000
30
  0.00000000
11
  0.03560000
21
 -0.16210000
31
  0.00000000
0
LINE
8
DC
6
CONTINUOUS
62
7
10
  0.03560000
20
 -0.16210000
30
  0.00000000
11
  0.03850000
21
 -0.16210000
31
  0.00000000
0
LINE
8
DC
6
CONTINUOUS
62
7
10
  0.03850000
20
 -0.16210000
30
  0.00000000
11
  0.03700000
21
 -0.16500000
31
  0.00000000
0
TEXT
8
DC
62
7
10
  0.03980000
20
 -0.16300000
30
  0.00000000
40
  0.00250000
41
  0.60000000
1
  -6.00m
50
  0.00000000
72
0
73
0
11
  0.03980000
21
 -0.16300000
31
  0.00000000
0
ENDSEC
0
EOF
