0
SECTION
2
HEADER
9
$EXTMIN
10
  0.0000
20
  0.0000
30
  0.0000
9
$EXTMAX
10
  0.2090
20
  0.2960
30
  0.0000
9
$LIMMIN
10
  0.0000
20
  0.0000
9
$LIMMAX
10
  0.2090
20
  0.2960
0
ENDSEC
0
SECTION
2
TABLES
0
TABLE
2
LTYPE
70
5
0
LTYPE
2
CONTINUOUS
70
64
3
CONTINUOUS
72
65
73
2
40
0
0
LTYPE
2
GESTRICHELT
70
64
3
GESTRICHELT
72
65
73
2
40
0.00125
49
0.000875
49
-0.000375
0
LTYPE
2
PUNKT
70
64
3
PUNKT
72
65
73
2
40
0.000625
49
0.000125
49
-0.0005
0
LTYPE
2
STRICHPUNKT
70
64
3
STRICHPUNKT
72
65
73
4
40
0.00175
49
0.000875
49
-0.000375
49
0.000125
49
-0.000375
0
LTYPE
2
GETRENNT
70
64
3
GETRENNT
72
65
73
6
40
0.00225
49
0.000875
49
-0.000375
49
0.000125
49
-0.000375
49
0.000125
49
-0.000375
0
ENDTAB
0
TABLE
2
LAYER
70
2
0
LAYER
2
Rahmen
70
0
62
7
6
CONTINUOUS
0
LAYER
2
DC
70
0
62
7
6
CONTINUOUS
0
ENDTAB
0
ENDSEC
0
SECTION
2
ENTITIES
0
LINE
8
Rahmen
6
CONTINUOUS
62
7
10
  0.00020000
20
 -0.00020000
30
  0.00000000
11
  0.20880000
21
 -0.00020000
31
  0.00000000
0
LINE
8
Rahmen
6
CONTINUOUS
62
7
10
  0.20880000
20
 -0.00020000
30
  0.00000000
11
  0.20880000
21
 -0.29580000
31
  0.00000000
0
LINE
8
Rahmen
6
CONTINUOUS
62
7
10
  0.20880000
20
 -0.29580000
30
  0.00000000
11
  0.00020000
21
 -0.29580000
31
  0.00000000
0
LINE
8
Rahmen
6
CONTINUOUS
62
7
10
  0.00020000
20
 -0.29580000
30
  0.00000000
11
  0.00020000
21
 -0.00020000
31
  0.00000000
0
LINE
8
Rahmen
6
CONTINUOUS
62
7
10
  0.00020000
20
 -0.14790000
30
  0.00000000
11
  0.01020000
21
 -0.14790000
31
  0.00000000
0
SOLID
8
Rahmen
62
255
10
  0.20430000
20
 -0.29530000
30
  0.00000000
11
  0.20830000
21
 -0.29530000
31
  0.00000000
12
  0.20430000
22
 -0.29130000
32
  0.00000000
13
  0.20830000
23
 -0.29130000
33
  0.00000000
0
LINE
8
Rahmen
6
CONTINUOUS
62
7
10
  0.20430000
20
 -0.29530000
30
  0.00000000
11
  0.20830000
21
 -0.29530000
31
  0.00000000
0
LINE
8
Rahmen
6
CONTINUOUS
62
7
10
  0.20830000
20
 -0.29530000
30
  0.00000000
11
  0.20830000
21
 -0.29130000
31
  0.00000000
0
LINE
8
Rahmen
6
CONTINUOUS
62
7
10
  0.20830000
20
 -0.29130000
30
  0.00000000
11
  0.20430000
21
 -0.29130000
31
  0.00000000
0
LINE
8
Rahmen
6
CONTINUOUS
62
7
10
  0.20430000
20
 -0.29130000
30
  0.00000000
11
  0.20430000
21
 -0.29530000
31
  0.00000000
0
TEXT
8
Rahmen
62
7
10
  0.20630000
20
 -0.29450000
30
  0.00000000
40
  0.00191667
41
  0.60000000
1
DC
50
  0.00000000
72
1
73
1
11
  0.20630000
21
 -0.29450000
31
  0.00000000
0
LINE
8
Rahmen
6
CONTINUOUS
62
7
10
  0.02000000
20
 -0.00500000
30
  0.00000000
11
  0.20400000
21
 -0.00500000
31
  0.00000000
0
LINE
8
Rahmen
6
CONTINUOUS
62
7
10
  0.20400000
20
 -0.00500000
30
  0.00000000
11
  0.20400000
21
 -0.29100000
31
  0.00000000
0
LINE
8
Rahmen
6
CONTINUOUS
62
7
10
  0.20400000
20
 -0.29100000
30
  0.00000000
11
  0.02000000
21
 -0.29100000
31
  0.00000000
0
LINE
8
Rahmen
6
CONTINUOUS
62
7
10
  0.02000000
20
 -0.29100000
30
  0.00000000
11
  0.02000000
21
 -0.00500000
31
  0.00000000
0
LINE
8
Rahmen
6
CONTINUOUS
62
7
10
  0.02000000
20
 -0.00500000
30
  0.00000000
11
  0.09000000
21
 -0.00500000
31
  0.00000000
0
LINE
8
Rahmen
6
CONTINUOUS
62
7
10
  0.02000000
20
 -0.01000000
30
  0.00000000
11
  0.09000000
21
 -0.01000000
31
  0.00000000
0
LINE
8
Rahmen
6
CONTINUOUS
62
7
10
  0.02000000
20
 -0.00500000
30
  0.00000000
11
  0.02000000
21
 -0.01000000
31
  0.00000000
0
LINE
8
Rahmen
6
CONTINUOUS
62
7
10
  0.09000000
20
 -0.00500000
30
  0.00000000
11
  0.09000000
21
 -0.01000000
31
  0.00000000
0
TEXT
8
Rahmen
62
7
10
  0.02100000
20
 -0.00970000
30
  0.00000000
40
  0.00300000
41
  0.60000000
1
Ingenieurbüro TBV GmbH
50
  0.00000000
72
0
73
1
11
  0.02100000
21
 -0.00970000
31
  0.00000000
0
LINE
8
Rahmen
6
CONTINUOUS
62
7
10
  0.09000000
20
 -0.00500000
30
  0.00000000
11
  0.20400000
21
 -0.00500000
31
  0.00000000
0
LINE
8
Rahmen
6
CONTINUOUS
62
7
10
  0.09000000
20
 -0.01000000
30
  0.00000000
11
  0.20400000
21
 -0.01000000
31
  0.00000000
0
LINE
8
Rahmen
6
CONTINUOUS
62
7
10
  0.09000000
20
 -0.00500000
30
  0.00000000
11
  0.09000000
21
 -0.01000000
31
  0.00000000
0
LINE
8
Rahmen
6
CONTINUOUS
62
7
10
  0.20400000
20
 -0.00500000
30
  0.00000000
11
  0.20400000
21
 -0.01000000
31
  0.00000000
0
TEXT
8
Rahmen
62
7
10
  0.09100000
20
 -0.00970000
30
  0.00000000
40
  0.00300000
41
  0.60000000
1
Projekt     :
50
  0.00000000
72
0
73
1
11
  0.09100000
21
 -0.00970000
31
  0.00000000
0
TEXT
8
Rahmen
62
7
10
  0.11100000
20
 -0.00970000
30
  0.00000000
40
  0.00300000
41
  0.60000000
1
Neuverlegung VBL SW-Kanal Söhesten-Stößwitz
50
  0.00000000
72
0
73
1
11
  0.11100000
21
 -0.00970000
31
  0.00000000
0
LINE
8
Rahmen
6
CONTINUOUS
62
7
10
  0.02000000
20
 -0.01000000
30
  0.00000000
11
  0.09000000
21
 -0.01000000
31
  0.00000000
0
LINE
8
Rahmen
6
CONTINUOUS
62
7
10
  0.02000000
20
 -0.01500000
30
  0.00000000
11
  0.09000000
21
 -0.01500000
31
  0.00000000
0
LINE
8
Rahmen
6
CONTINUOUS
62
7
10
  0.02000000
20
 -0.01000000
30
  0.00000000
11
  0.02000000
21
 -0.01500000
31
  0.00000000
0
LINE
8
Rahmen
6
CONTINUOUS
62
7
10
  0.09000000
20
 -0.01000000
30
  0.00000000
11
  0.09000000
21
 -0.01500000
31
  0.00000000
0
TEXT
8
Rahmen
62
7
10
  0.02100000
20
 -0.01470000
30
  0.00000000
40
  0.00300000
41
  0.60000000
1
Baenschstraße 6
50
  0.00000000
72
0
73
1
11
  0.02100000
21
 -0.01470000
31
  0.00000000
0
LINE
8
Rahmen
6
CONTINUOUS
62
7
10
  0.09000000
20
 -0.01000000
30
  0.00000000
11
  0.20400000
21
 -0.01000000
31
  0.00000000
0
LINE
8
Rahmen
6
CONTINUOUS
62
7
10
  0.09000000
20
 -0.01500000
30
  0.00000000
11
  0.20400000
21
 -0.01500000
31
  0.00000000
0
LINE
8
Rahmen
6
CONTINUOUS
62
7
10
  0.09000000
20
 -0.01000000
30
  0.00000000
11
  0.09000000
21
 -0.01500000
31
  0.00000000
0
LINE
8
Rahmen
6
CONTINUOUS
62
7
10
  0.20400000
20
 -0.01000000
30
  0.00000000
11
  0.20400000
21
 -0.01500000
31
  0.00000000
0
TEXT
8
Rahmen
62
7
10
  0.09100000
20
 -0.01470000
30
  0.00000000
40
  0.00300000
41
  0.60000000
1
Projektnr.:
50
  0.00000000
72
0
73
1
11
  0.09100000
21
 -0.01470000
31
  0.00000000
0
TEXT
8
Rahmen
62
7
10
  0.11100000
20
 -0.01470000
30
  0.00000000
40
  0.00300000
41
  0.60000000
1
22/12068.1
50
  0.00000000
72
0
73
1
11
  0.11100000
21
 -0.01470000
31
  0.00000000
0
LINE
8
Rahmen
6
CONTINUOUS
62
7
10
  0.02000000
20
 -0.01500000
30
  0.00000000
11
  0.09000000
21
 -0.01500000
31
  0.00000000
0
LINE
8
Rahmen
6
CONTINUOUS
62
7
10
  0.02000000
20
 -0.02000000
30
  0.00000000
11
  0.09000000
21
 -0.02000000
31
  0.00000000
0
LINE
8
Rahmen
6
CONTINUOUS
62
7
10
  0.02000000
20
 -0.01500000
30
  0.00000000
11
  0.02000000
21
 -0.02000000
31
  0.00000000
0
LINE
8
Rahmen
6
CONTINUOUS
62
7
10
  0.09000000
20
 -0.01500000
30
  0.00000000
11
  0.09000000
21
 -0.02000000
31
  0.00000000
0
TEXT
8
Rahmen
62
7
10
  0.02100000
20
 -0.01970000
30
  0.00000000
40
  0.00300000
41
  0.60000000
1
06712 Zeitz
50
  0.00000000
72
0
73
1
11
  0.02100000
21
 -0.01970000
31
  0.00000000
0
LINE
8
Rahmen
6
CONTINUOUS
62
7
10
  0.09000000
20
 -0.01500000
30
  0.00000000
11
  0.20400000
21
 -0.01500000
31
  0.00000000
0
LINE
8
Rahmen
6
CONTINUOUS
62
7
10
  0.09000000
20
 -0.02000000
30
  0.00000000
11
  0.20400000
21
 -0.02000000
31
  0.00000000
0
LINE
8
Rahmen
6
CONTINUOUS
62
7
10
  0.09000000
20
 -0.01500000
30
  0.00000000
11
  0.09000000
21
 -0.02000000
31
  0.00000000
0
LINE
8
Rahmen
6
CONTINUOUS
62
7
10
  0.20400000
20
 -0.01500000
30
  0.00000000
11
  0.20400000
21
 -0.02000000
31
  0.00000000
0
TEXT
8
Rahmen
62
7
10
  0.09100000
20
 -0.01970000
30
  0.00000000
40
  0.00300000
41
  0.60000000
1
Anlage     :
50
  0.00000000
72
0
73
1
11
  0.09100000
21
 -0.01970000
31
  0.00000000
0
TEXT
8
Rahmen
62
7
10
  0.11100000
20
 -0.01970000
30
  0.00000000
40
  0.00300000
41
  0.60000000
1
Bereich 1: VS Kreischau-Stößwitz
50
  0.00000000
72
0
73
1
11
  0.11100000
21
 -0.01970000
31
  0.00000000
0
LINE
8
Rahmen
6
CONTINUOUS
62
7
10
  0.02000000
20
 -0.02000000
30
  0.00000000
11
  0.09000000
21
 -0.02000000
31
  0.00000000
0
LINE
8
Rahmen
6
CONTINUOUS
62
7
10
  0.02000000
20
 -0.02500000
30
  0.00000000
11
  0.09000000
21
 -0.02500000
31
  0.00000000
0
LINE
8
Rahmen
6
CONTINUOUS
62
7
10
  0.02000000
20
 -0.02000000
30
  0.00000000
11
  0.02000000
21
 -0.02500000
31
  0.00000000
0
LINE
8
Rahmen
6
CONTINUOUS
62
7
10
  0.09000000
20
 -0.02000000
30
  0.00000000
11
  0.09000000
21
 -0.02500000
31
  0.00000000
0
TEXT
8
Rahmen
62
7
10
  0.02100000
20
 -0.02470000
30
  0.00000000
40
  0.00300000
41
  0.60000000
1
Tel: 03441 215737
50
  0.00000000
72
0
73
1
11
  0.02100000
21
 -0.02470000
31
  0.00000000
0
LINE
8
Rahmen
6
CONTINUOUS
62
7
10
  0.09000000
20
 -0.02000000
30
  0.00000000
11
  0.20400000
21
 -0.02000000
31
  0.00000000
0
LINE
8
Rahmen
6
CONTINUOUS
62
7
10
  0.09000000
20
 -0.02500000
30
  0.00000000
11
  0.20400000
21
 -0.02500000
31
  0.00000000
0
LINE
8
Rahmen
6
CONTINUOUS
62
7
10
  0.09000000
20
 -0.02000000
30
  0.00000000
11
  0.09000000
21
 -0.02500000
31
  0.00000000
0
LINE
8
Rahmen
6
CONTINUOUS
62
7
10
  0.20400000
20
 -0.02000000
30
  0.00000000
11
  0.20400000
21
 -0.02500000
31
  0.00000000
0
TEXT
8
Rahmen
62
7
10
  0.09100000
20
 -0.02470000
30
  0.00000000
40
  0.00300000
41
  0.60000000
1
Maßstab  :
50
  0.00000000
72
0
73
1
11
  0.09100000
21
 -0.02470000
31
  0.00000000
0
TEXT
8
Rahmen
62
7
10
  0.11100000
20
 -0.02470000
30
  0.00000000
40
  0.00300000
41
  0.60000000
1
1: 50
50
  0.00000000
72
0
73
1
11
  0.11100000
21
 -0.02470000
31
  0.00000000
0
TEXT
8
Rahmen
62
7
10
  0.02100000
20
 -0.27570000
30
  0.00000000
40
  0.00300000
41
  0.60000000
1
Bemerkung
50
  0.00000000
72
0
73
1
11
  0.02100000
21
 -0.27570000
31
  0.00000000
0
LINE
8
Rahmen
6
CONTINUOUS
62
7
10
  0.02000000
20
 -0.00500000
30
  0.00000000
11
  0.09000000
21
 -0.00500000
31
  0.00000000
0
LINE
8
Rahmen
6
CONTINUOUS
62
7
10
  0.02000000
20
 -0.01000000
30
  0.00000000
11
  0.09000000
21
 -0.01000000
31
  0.00000000
0
LINE
8
Rahmen
6
CONTINUOUS
62
7
10
  0.02000000
20
 -0.00500000
30
  0.00000000
11
  0.02000000
21
 -0.01000000
31
  0.00000000
0
LINE
8
Rahmen
6
CONTINUOUS
62
7
10
  0.09000000
20
 -0.00500000
30
  0.00000000
11
  0.09000000
21
 -0.01000000
31
  0.00000000
0
LINE
8
Rahmen
6
CONTINUOUS
62
7
10
  0.09000000
20
 -0.00500000
30
  0.00000000
11
  0.20400000
21
 -0.00500000
31
  0.00000000
0
LINE
8
Rahmen
6
CONTINUOUS
62
7
10
  0.09000000
20
 -0.01000000
30
  0.00000000
11
  0.20400000
21
 -0.01000000
31
  0.00000000
0
LINE
8
Rahmen
6
CONTINUOUS
62
7
10
  0.09000000
20
 -0.00500000
30
  0.00000000
11
  0.09000000
21
 -0.01000000
31
  0.00000000
0
LINE
8
Rahmen
6
CONTINUOUS
62
7
10
  0.20400000
20
 -0.00500000
30
  0.00000000
11
  0.20400000
21
 -0.01000000
31
  0.00000000
0
LINE
8
Rahmen
6
CONTINUOUS
62
7
10
  0.02000000
20
 -0.01000000
30
  0.00000000
11
  0.09000000
21
 -0.01000000
31
  0.00000000
0
LINE
8
Rahmen
6
CONTINUOUS
62
7
10
  0.02000000
20
 -0.01500000
30
  0.00000000
11
  0.09000000
21
 -0.01500000
31
  0.00000000
0
LINE
8
Rahmen
6
CONTINUOUS
62
7
10
  0.02000000
20
 -0.01000000
30
  0.00000000
11
  0.02000000
21
 -0.01500000
31
  0.00000000
0
LINE
8
Rahmen
6
CONTINUOUS
62
7
10
  0.09000000
20
 -0.01000000
30
  0.00000000
11
  0.09000000
21
 -0.01500000
31
  0.00000000
0
LINE
8
Rahmen
6
CONTINUOUS
62
7
10
  0.09000000
20
 -0.01000000
30
  0.00000000
11
  0.20400000
21
 -0.01000000
31
  0.00000000
0
LINE
8
Rahmen
6
CONTINUOUS
62
7
10
  0.09000000
20
 -0.01500000
30
  0.00000000
11
  0.20400000
21
 -0.01500000
31
  0.00000000
0
LINE
8
Rahmen
6
CONTINUOUS
62
7
10
  0.09000000
20
 -0.01000000
30
  0.00000000
11
  0.09000000
21
 -0.01500000
31
  0.00000000
0
LINE
8
Rahmen
6
CONTINUOUS
62
7
10
  0.20400000
20
 -0.01000000
30
  0.00000000
11
  0.20400000
21
 -0.01500000
31
  0.00000000
0
LINE
8
Rahmen
6
CONTINUOUS
62
7
10
  0.02000000
20
 -0.01500000
30
  0.00000000
11
  0.09000000
21
 -0.01500000
31
  0.00000000
0
LINE
8
Rahmen
6
CONTINUOUS
62
7
10
  0.02000000
20
 -0.02000000
30
  0.00000000
11
  0.09000000
21
 -0.02000000
31
  0.00000000
0
LINE
8
Rahmen
6
CONTINUOUS
62
7
10
  0.02000000
20
 -0.01500000
30
  0.00000000
11
  0.02000000
21
 -0.02000000
31
  0.00000000
0
LINE
8
Rahmen
6
CONTINUOUS
62
7
10
  0.09000000
20
 -0.01500000
30
  0.00000000
11
  0.09000000
21
 -0.02000000
31
  0.00000000
0
LINE
8
Rahmen
6
CONTINUOUS
62
7
10
  0.09000000
20
 -0.01500000
30
  0.00000000
11
  0.20400000
21
 -0.01500000
31
  0.00000000
0
LINE
8
Rahmen
6
CONTINUOUS
62
7
10
  0.09000000
20
 -0.02000000
30
  0.00000000
11
  0.20400000
21
 -0.02000000
31
  0.00000000
0
LINE
8
Rahmen
6
CONTINUOUS
62
7
10
  0.09000000
20
 -0.01500000
30
  0.00000000
11
  0.09000000
21
 -0.02000000
31
  0.00000000
0
LINE
8
Rahmen
6
CONTINUOUS
62
7
10
  0.20400000
20
 -0.01500000
30
  0.00000000
11
  0.20400000
21
 -0.02000000
31
  0.00000000
0
LINE
8
Rahmen
6
CONTINUOUS
62
7
10
  0.02000000
20
 -0.02000000
30
  0.00000000
11
  0.09000000
21
 -0.02000000
31
  0.00000000
0
LINE
8
Rahmen
6
CONTINUOUS
62
7
10
  0.02000000
20
 -0.02500000
30
  0.00000000
11
  0.09000000
21
 -0.02500000
31
  0.00000000
0
LINE
8
Rahmen
6
CONTINUOUS
62
7
10
  0.02000000
20
 -0.02000000
30
  0.00000000
11
  0.02000000
21
 -0.02500000
31
  0.00000000
0
LINE
8
Rahmen
6
CONTINUOUS
62
7
10
  0.09000000
20
 -0.02000000
30
  0.00000000
11
  0.09000000
21
 -0.02500000
31
  0.00000000
0
LINE
8
Rahmen
6
CONTINUOUS
62
7
10
  0.09000000
20
 -0.02000000
30
  0.00000000
11
  0.20400000
21
 -0.02000000
31
  0.00000000
0
LINE
8
Rahmen
6
CONTINUOUS
62
7
10
  0.09000000
20
 -0.02500000
30
  0.00000000
11
  0.20400000
21
 -0.02500000
31
  0.00000000
0
LINE
8
Rahmen
6
CONTINUOUS
62
7
10
  0.09000000
20
 -0.02000000
30
  0.00000000
11
  0.09000000
21
 -0.02500000
31
  0.00000000
0
LINE
8
Rahmen
6
CONTINUOUS
62
7
10
  0.20400000
20
 -0.02000000
30
  0.00000000
11
  0.20400000
21
 -0.02500000
31
  0.00000000
0
LINE
8
Rahmen
6
CONTINUOUS
62
7
10
  0.02000000
20
 -0.27100000
30
  0.00000000
11
  0.20400000
21
 -0.27100000
31
  0.00000000
0
LINE
8
Rahmen
6
CONTINUOUS
62
7
10
  0.02000000
20
 -0.00500000
30
  0.00000000
11
  0.20400000
21
 -0.00500000
31
  0.00000000
0
LINE
8
Rahmen
6
CONTINUOUS
62
7
10
  0.20400000
20
 -0.00500000
30
  0.00000000
11
  0.20400000
21
 -0.29100000
31
  0.00000000
0
LINE
8
Rahmen
6
CONTINUOUS
62
7
10
  0.20400000
20
 -0.29100000
30
  0.00000000
11
  0.02000000
21
 -0.29100000
31
  0.00000000
0
LINE
8
Rahmen
6
CONTINUOUS
62
7
10
  0.02000000
20
 -0.29100000
30
  0.00000000
11
  0.02000000
21
 -0.00500000
31
  0.00000000
0
LINE
8
DC
6
CONTINUOUS
62
7
10
  0.08540000
20
 -0.07700000
30
  0.00000000
11
  0.10920000
21
 -0.07700000
31
  0.00000000
0
TEXT
8
DC
62
7
10
  0.08440000
20
 -0.07650000
30
  0.00000000
40
  0.00250000
41
  0.60000000
1
1-1
50
  0.00000000
72
2
73
0
11
  0.08440000
21
 -0.07650000
31
  0.00000000
0
TEXT
8
DC
62
7
10
  0.09820000
20
 -0.07650000
30
  0.00000000
40
  0.00250000
41
  0.60000000
1
1.60m
50
  0.00000000
72
2
73
0
11
  0.09820000
21
 -0.07650000
31
  0.00000000
0
LINE
8
DC
6
CONTINUOUS
62
7
10
  0.08540000
20
 -0.07700000
30
  0.00000000
11
  0.08780000
21
 -0.07700000
31
  0.00000000
0
LINE
8
DC
6
CONTINUOUS
62
7
10
  0.08780000
20
 -0.07700000
30
  0.00000000
11
  0.08780000
21
 -0.07340000
31
  0.00000000
0
LINE
8
DC
6
CONTINUOUS
62
7
10
  0.08780000
20
 -0.07340000
30
  0.00000000
11
  0.08540000
21
 -0.07340000
31
  0.00000000
0
LINE
8
DC
6
CONTINUOUS
62
7
10
  0.08540000
20
 -0.07340000
30
  0.00000000
11
  0.08540000
21
 -0.07700000
31
  0.00000000
0
TEXT
8
DC
62
7
10
  0.09820000
20
 -0.14690000
30
  0.00000000
40
  0.00250000
41
  0.60000000
1
Kein Wasser
50
  0.00000000
72
2
73
0
11
  0.09820000
21
 -0.14690000
31
  0.00000000
0
TEXT
8
DC
62
7
10
  0.09820000
20
 -0.15100000
30
  0.00000000
40
  0.00250000
41
  0.60000000
1
(23.11.2022)
50
  0.00000000
72
2
73
0
11
  0.09820000
21
 -0.15100000
31
  0.00000000
0
LINE
8
DC
6
CONTINUOUS
62
7
10
  0.08660000
20
 -0.07340000
30
  0.00000000
11
  0.08660000
21
 -0.07290000
31
  0.00000000
0
LINE
8
DC
6
CONTINUOUS
62
7
10
  0.08660000
20
 -0.07290000
30
  0.00000000
11
  0.08660000
21
 -0.05500000
31
  0.00000000
0
LINE
8
DC
6
CONTINUOUS
62
7
10
  0.08560000
20
 -0.05500000
30
  0.00000000
11
  0.08760000
21
 -0.05500000
31
  0.00000000
0
LINE
8
DC
6
CONTINUOUS
62
7
10
  0.11960000
20
 -0.04500000
30
  0.00000000
11
  0.11860000
21
 -0.04500000
31
  0.00000000
0
LINE
8
DC
6
CONTINUOUS
62
7
10
  0.10920000
20
 -0.04500000
30
  0.00000000
11
  0.11860000
21
 -0.04500000
31
  0.00000000
0
TEXT
8
DC
62
7
10
  0.11860000
20
 -0.04450000
30
  0.00000000
40
  0.00250000
41
  0.60000000
1
    0.00m
50
  0.00000000
72
2
73
0
11
  0.11860000
21
 -0.04450000
31
  0.00000000
0
SOLID
8
DC
62
255
10
  0.11960000
20
 -0.04500000
30
  0.00000000
11
  0.12970000
21
 -0.04500000
31
  0.00000000
12
  0.11960000
22
 -0.04710000
32
  0.00000000
13
  0.12970000
23
 -0.04710000
33
  0.00000000
0
LINE
8
DC
6
CONTINUOUS
62
7
10
  0.11960000
20
 -0.04500000
30
  0.00000000
11
  0.12970000
21
 -0.04500000
31
  0.00000000
0
LINE
8
DC
6
CONTINUOUS
62
7
10
  0.12970000
20
 -0.04500000
30
  0.00000000
11
  0.12970000
21
 -0.04710000
31
  0.00000000
0
LINE
8
DC
6
CONTINUOUS
62
7
10
  0.12970000
20
 -0.04710000
30
  0.00000000
11
  0.11960000
21
 -0.04710000
31
  0.00000000
0
LINE
8
DC
6
CONTINUOUS
62
7
10
  0.11960000
20
 -0.04710000
30
  0.00000000
11
  0.11960000
21
 -0.04500000
31
  0.00000000
0
LINE
8
DC
6
CONTINUOUS
62
7
10
  0.11960000
20
 -0.04500000
30
  0.00000000
11
  0.17660000
21
 -0.04500000
31
  0.00000000
0
LINE
8
DC
6
CONTINUOUS
62
7
10
  0.11960000
20
 -0.04700000
30
  0.00000000
11
  0.11860000
21
 -0.04910000
31
  0.00000000
0
LINE
8
DC
6
CONTINUOUS
62
7
10
  0.10920000
20
 -0.04910000
30
  0.00000000
11
  0.11860000
21
 -0.04910000
31
  0.00000000
0
TEXT
8
DC
62
7
10
  0.11860000
20
 -0.04860000
30
  0.00000000
40
  0.00250000
41
  0.60000000
1
    0.10m
50
  0.00000000
72
2
73
0
11
  0.11860000
21
 -0.04860000
31
  0.00000000
0
TEXT
8
DC
62
7
10
  0.13660000
20
 -0.04860000
30
  0.00000000
40
  0.00216667
41
  0.60000000
1
Auffüllung, Asphalt
50
  0.00000000
72
0
73
1
11
  0.13660000
21
 -0.04860000
31
  0.00000000
0
TEXT
8
DC
62
7
10
  0.13660000
20
 -0.05170000
30
  0.00000000
40
  0.00216667
41
  0.60000000
1
rotgrau
50
  0.00000000
72
0
73
1
11
  0.13660000
21
 -0.05170000
31
  0.00000000
0
LINE
8
DC
6
CONTINUOUS
62
7
10
  0.13070000
20
 -0.04830000
30
  0.00000000
11
  0.13070000
21
 -0.04830000
31
  0.00000000
0
LINE
8
DC
6
CONTINUOUS
62
7
10
  0.13053417
20
 -0.04825000
30
  0.00000000
11
  0.13086583
21
 -0.04825000
31
  0.00000000
0
LINE
8
DC
6
CONTINUOUS
62
7
10
  0.13047639
20
 -0.04820000
30
  0.00000000
11
  0.13092361
21
 -0.04820000
31
  0.00000000
0
LINE
8
DC
6
CONTINUOUS
62
7
10
  0.13044019
20
 -0.04815000
30
  0.00000000
11
  0.13095981
21
 -0.04815000
31
  0.00000000
0
LINE
8
DC
6
CONTINUOUS
62
7
10
  0.13041716
20
 -0.04810000
30
  0.00000000
11
  0.13098284
21
 -0.04810000
31
  0.00000000
0
LINE
8
DC
6
CONTINUOUS
62
7
10
  0.13040420
20
 -0.04805000
30
  0.00000000
11
  0.13099580
21
 -0.04805000
31
  0.00000000
0
LINE
8
DC
6
CONTINUOUS
62
7
10
  0.13040000
20
 -0.04800000
30
  0.00000000
11
  0.13100000
21
 -0.04800000
31
  0.00000000
0
LINE
8
DC
6
CONTINUOUS
62
7
10
  0.13040420
20
 -0.04795000
30
  0.00000000
11
  0.13099580
21
 -0.04795000
31
  0.00000000
0
LINE
8
DC
6
CONTINUOUS
62
7
10
  0.13041716
20
 -0.04790000
30
  0.00000000
11
  0.13098284
21
 -0.04790000
31
  0.00000000
0
LINE
8
DC
6
CONTINUOUS
62
7
10
  0.13044019
20
 -0.04785000
30
  0.00000000
11
  0.13095981
21
 -0.04785000
31
  0.00000000
0
LINE
8
DC
6
CONTINUOUS
62
7
10
  0.13047639
20
 -0.04780000
30
  0.00000000
11
  0.13092361
21
 -0.04780000
31
  0.00000000
0
LINE
8
DC
6
CONTINUOUS
62
7
10
  0.13053417
20
 -0.04775000
30
  0.00000000
11
  0.13086583
21
 -0.04775000
31
  0.00000000
0
CIRCLE
8
DC
6
CONTINUOUS
62
7
10
  0.13070000
20
 -0.04800000
30
  0.00000000
40
  0.00030000
0
LINE
8
DC
6
CONTINUOUS
62
7
10
  0.13070000
20
 -0.05030000
30
  0.00000000
11
  0.13070000
21
 -0.05030000
31
  0.00000000
0
LINE
8
DC
6
CONTINUOUS
62
7
10
  0.13053417
20
 -0.05025000
30
  0.00000000
11
  0.13086583
21
 -0.05025000
31
  0.00000000
0
LINE
8
DC
6
CONTINUOUS
62
7
10
  0.13047639
20
 -0.05020000
30
  0.00000000
11
  0.13092361
21
 -0.05020000
31
  0.00000000
0
LINE
8
DC
6
CONTINUOUS
62
7
10
  0.13044019
20
 -0.05015000
30
  0.00000000
11
  0.13095981
21
 -0.05015000
31
  0.00000000
0
LINE
8
DC
6
CONTINUOUS
62
7
10
  0.13041716
20
 -0.05010000
30
  0.00000000
11
  0.13098284
21
 -0.05010000
31
  0.00000000
0
LINE
8
DC
6
CONTINUOUS
62
7
10
  0.13040420
20
 -0.05005000
30
  0.00000000
11
  0.13099580
21
 -0.05005000
31
  0.00000000
0
LINE
8
DC
6
CONTINUOUS
62
7
10
  0.13040000
20
 -0.05000000
30
  0.00000000
11
  0.13100000
21
 -0.05000000
31
  0.00000000
0
LINE
8
DC
6
CONTINUOUS
62
7
10
  0.13040420
20
 -0.04995000
30
  0.00000000
11
  0.13099580
21
 -0.04995000
31
  0.00000000
0
LINE
8
DC
6
CONTINUOUS
62
7
10
  0.13041716
20
 -0.04990000
30
  0.00000000
11
  0.13098284
21
 -0.04990000
31
  0.00000000
0
LINE
8
DC
6
CONTINUOUS
62
7
10
  0.13044019
20
 -0.04985000
30
  0.00000000
11
  0.13095981
21
 -0.04985000
31
  0.00000000
0
LINE
8
DC
6
CONTINUOUS
62
7
10
  0.13047639
20
 -0.04980000
30
  0.00000000
11
  0.13092361
21
 -0.04980000
31
  0.00000000
0
LINE
8
DC
6
CONTINUOUS
62
7
10
  0.13053417
20
 -0.04975000
30
  0.00000000
11
  0.13086583
21
 -0.04975000
31
  0.00000000
0
CIRCLE
8
DC
6
CONTINUOUS
62
7
10
  0.13070000
20
 -0.05000000
30
  0.00000000
40
  0.00030000
0
LINE
8
DC
6
CONTINUOUS
62
7
10
  0.13070000
20
 -0.05230000
30
  0.00000000
11
  0.13070000
21
 -0.05230000
31
  0.00000000
0
LINE
8
DC
6
CONTINUOUS
62
7
10
  0.13053417
20
 -0.05225000
30
  0.00000000
11
  0.13086583
21
 -0.05225000
31
  0.00000000
0
LINE
8
DC
6
CONTINUOUS
62
7
10
  0.13047639
20
 -0.05220000
30
  0.00000000
11
  0.13092361
21
 -0.05220000
31
  0.00000000
0
LINE
8
DC
6
CONTINUOUS
62
7
10
  0.13044019
20
 -0.05215000
30
  0.00000000
11
  0.13095981
21
 -0.05215000
31
  0.00000000
0
LINE
8
DC
6
CONTINUOUS
62
7
10
  0.13041716
20
 -0.05210000
30
  0.00000000
11
  0.13098284
21
 -0.05210000
31
  0.00000000
0
LINE
8
DC
6
CONTINUOUS
62
7
10
  0.13040420
20
 -0.05205000
30
  0.00000000
11
  0.13099580
21
 -0.05205000
31
  0.00000000
0
LINE
8
DC
6
CONTINUOUS
62
7
10
  0.13040000
20
 -0.05200000
30
  0.00000000
11
  0.13100000
21
 -0.05200000
31
  0.00000000
0
LINE
8
DC
6
CONTINUOUS
62
7
10
  0.13040420
20
 -0.05195000
30
  0.00000000
11
  0.13099580
21
 -0.05195000
31
  0.00000000
0
LINE
8
DC
6
CONTINUOUS
62
7
10
  0.13041716
20
 -0.05190000
30
  0.00000000
11
  0.13098284
21
 -0.05190000
31
  0.00000000
0
LINE
8
DC
6
CONTINUOUS
62
7
10
  0.13044019
20
 -0.05185000
30
  0.00000000
11
  0.13095981
21
 -0.05185000
31
  0.00000000
0
LINE
8
DC
6
CONTINUOUS
62
7
10
  0.13047639
20
 -0.05180000
30
  0.00000000
11
  0.13092361
21
 -0.05180000
31
  0.00000000
0
LINE
8
DC
6
CONTINUOUS
62
7
10
  0.13053417
20
 -0.05175000
30
  0.00000000
11
  0.13086583
21
 -0.05175000
31
  0.00000000
0
CIRCLE
8
DC
6
CONTINUOUS
62
7
10
  0.13070000
20
 -0.05200000
30
  0.00000000
40
  0.00030000
0
LINE
8
DC
6
CONTINUOUS
62
7
10
  0.13070000
20
 -0.05430000
30
  0.00000000
11
  0.13070000
21
 -0.05430000
31
  0.00000000
0
LINE
8
DC
6
CONTINUOUS
62
7
10
  0.13053417
20
 -0.05425000
30
  0.00000000
11
  0.13086583
21
 -0.05425000
31
  0.00000000
0
LINE
8
DC
6
CONTINUOUS
62
7
10
  0.13047639
20
 -0.05420000
30
  0.00000000
11
  0.13092361
21
 -0.05420000
31
  0.00000000
0
LINE
8
DC
6
CONTINUOUS
62
7
10
  0.13044019
20
 -0.05415000
30
  0.00000000
11
  0.13095981
21
 -0.05415000
31
  0.00000000
0
LINE
8
DC
6
CONTINUOUS
62
7
10
  0.13041716
20
 -0.05410000
30
  0.00000000
11
  0.13098284
21
 -0.05410000
31
  0.00000000
0
LINE
8
DC
6
CONTINUOUS
62
7
10
  0.13040420
20
 -0.05405000
30
  0.00000000
11
  0.13099580
21
 -0.05405000
31
  0.00000000
0
LINE
8
DC
6
CONTINUOUS
62
7
10
  0.13040000
20
 -0.05400000
30
  0.00000000
11
  0.13100000
21
 -0.05400000
31
  0.00000000
0
LINE
8
DC
6
CONTINUOUS
62
7
10
  0.13040420
20
 -0.05395000
30
  0.00000000
11
  0.13099580
21
 -0.05395000
31
  0.00000000
0
LINE
8
DC
6
CONTINUOUS
62
7
10
  0.13041716
20
 -0.05390000
30
  0.00000000
11
  0.13098284
21
 -0.05390000
31
  0.00000000
0
LINE
8
DC
6
CONTINUOUS
62
7
10
  0.13044019
20
 -0.05385000
30
  0.00000000
11
  0.13095981
21
 -0.05385000
31
  0.00000000
0
LINE
8
DC
6
CONTINUOUS
62
7
10
  0.13047639
20
 -0.05380000
30
  0.00000000
11
  0.13092361
21
 -0.05380000
31
  0.00000000
0
LINE
8
DC
6
CONTINUOUS
62
7
10
  0.13053417
20
 -0.05375000
30
  0.00000000
11
  0.13086583
21
 -0.05375000
31
  0.00000000
0
CIRCLE
8
DC
6
CONTINUOUS
62
7
10
  0.13070000
20
 -0.05400000
30
  0.00000000
40
  0.00030000
0
LINE
8
DC
6
CONTINUOUS
62
7
10
  0.13170000
20
 -0.04830000
30
  0.00000000
11
  0.13170000
21
 -0.04830000
31
  0.00000000
0
LINE
8
DC
6
CONTINUOUS
62
7
10
  0.13153417
20
 -0.04825000
30
  0.00000000
11
  0.13186583
21
 -0.04825000
31
  0.00000000
0
LINE
8
DC
6
CONTINUOUS
62
7
10
  0.13147639
20
 -0.04820000
30
  0.00000000
11
  0.13192361
21
 -0.04820000
31
  0.00000000
0
LINE
8
DC
6
CONTINUOUS
62
7
10
  0.13144019
20
 -0.04815000
30
  0.00000000
11
  0.13195981
21
 -0.04815000
31
  0.00000000
0
LINE
8
DC
6
CONTINUOUS
62
7
10
  0.13141716
20
 -0.04810000
30
  0.00000000
11
  0.13198284
21
 -0.04810000
31
  0.00000000
0
LINE
8
DC
6
CONTINUOUS
62
7
10
  0.13140420
20
 -0.04805000
30
  0.00000000
11
  0.13199580
21
 -0.04805000
31
  0.00000000
0
LINE
8
DC
6
CONTINUOUS
62
7
10
  0.13140000
20
 -0.04800000
30
  0.00000000
11
  0.13200000
21
 -0.04800000
31
  0.00000000
0
LINE
8
DC
6
CONTINUOUS
62
7
10
  0.13140420
20
 -0.04795000
30
  0.00000000
11
  0.13199580
21
 -0.04795000
31
  0.00000000
0
LINE
8
DC
6
CONTINUOUS
62
7
10
  0.13141716
20
 -0.04790000
30
  0.00000000
11
  0.13198284
21
 -0.04790000
31
  0.00000000
0
LINE
8
DC
6
CONTINUOUS
62
7
10
  0.13144019
20
 -0.04785000
30
  0.00000000
11
  0.13195981
21
 -0.04785000
31
  0.00000000
0
LINE
8
DC
6
CONTINUOUS
62
7
10
  0.13147639
20
 -0.04780000
30
  0.00000000
11
  0.13192361
21
 -0.04780000
31
  0.00000000
0
LINE
8
DC
6
CONTINUOUS
62
7
10
  0.13153417
20
 -0.04775000
30
  0.00000000
11
  0.13186583
21
 -0.04775000
31
  0.00000000
0
CIRCLE
8
DC
6
CONTINUOUS
62
7
10
  0.13170000
20
 -0.04800000
30
  0.00000000
40
  0.00030000
0
LINE
8
DC
6
CONTINUOUS
62
7
10
  0.13170000
20
 -0.05030000
30
  0.00000000
11
  0.13170000
21
 -0.05030000
31
  0.00000000
0
LINE
8
DC
6
CONTINUOUS
62
7
10
  0.13153417
20
 -0.05025000
30
  0.00000000
11
  0.13186583
21
 -0.05025000
31
  0.00000000
0
LINE
8
DC
6
CONTINUOUS
62
7
10
  0.13147639
20
 -0.05020000
30
  0.00000000
11
  0.13192361
21
 -0.05020000
31
  0.00000000
0
LINE
8
DC
6
CONTINUOUS
62
7
10
  0.13144019
20
 -0.05015000
30
  0.00000000
11
  0.13195981
21
 -0.05015000
31
  0.00000000
0
LINE
8
DC
6
CONTINUOUS
62
7
10
  0.13141716
20
 -0.05010000
30
  0.00000000
11
  0.13198284
21
 -0.05010000
31
  0.00000000
0
LINE
8
DC
6
CONTINUOUS
62
7
10
  0.13140420
20
 -0.05005000
30
  0.00000000
11
  0.13199580
21
 -0.05005000
31
  0.00000000
0
LINE
8
DC
6
CONTINUOUS
62
7
10
  0.13140000
20
 -0.05000000
30
  0.00000000
11
  0.13200000
21
 -0.05000000
31
  0.00000000
0
LINE
8
DC
6
CONTINUOUS
62
7
10
  0.13140420
20
 -0.04995000
30
  0.00000000
11
  0.13199580
21
 -0.04995000
31
  0.00000000
0
LINE
8
DC
6
CONTINUOUS
62
7
10
  0.13141716
20
 -0.04990000
30
  0.00000000
11
  0.13198284
21
 -0.04990000
31
  0.00000000
0
LINE
8
DC
6
CONTINUOUS
62
7
10
  0.13144019
20
 -0.04985000
30
  0.00000000
11
  0.13195981
21
 -0.04985000
31
  0.00000000
0
LINE
8
DC
6
CONTINUOUS
62
7
10
  0.13147639
20
 -0.04980000
30
  0.00000000
11
  0.13192361
21
 -0.04980000
31
  0.00000000
0
LINE
8
DC
6
CONTINUOUS
62
7
10
  0.13153417
20
 -0.04975000
30
  0.00000000
11
  0.13186583
21
 -0.04975000
31
  0.00000000
0
CIRCLE
8
DC
6
CONTINUOUS
62
7
10
  0.13170000
20
 -0.05000000
30
  0.00000000
40
  0.00030000
0
LINE
8
DC
6
CONTINUOUS
62
7
10
  0.13170000
20
 -0.05230000
30
  0.00000000
11
  0.13170000
21
 -0.05230000
31
  0.00000000
0
LINE
8
DC
6
CONTINUOUS
62
7
10
  0.13153417
20
 -0.05225000
30
  0.00000000
11
  0.13186583
21
 -0.05225000
31
  0.00000000
0
LINE
8
DC
6
CONTINUOUS
62
7
10
  0.13147639
20
 -0.05220000
30
  0.00000000
11
  0.13192361
21
 -0.05220000
31
  0.00000000
0
LINE
8
DC
6
CONTINUOUS
62
7
10
  0.13144019
20
 -0.05215000
30
  0.00000000
11
  0.13195981
21
 -0.05215000
31
  0.00000000
0
LINE
8
DC
6
CONTINUOUS
62
7
10
  0.13141716
20
 -0.05210000
30
  0.00000000
11
  0.13198284
21
 -0.05210000
31
  0.00000000
0
LINE
8
DC
6
CONTINUOUS
62
7
10
  0.13140420
20
 -0.05205000
30
  0.00000000
11
  0.13199580
21
 -0.05205000
31
  0.00000000
0
LINE
8
DC
6
CONTINUOUS
62
7
10
  0.13140000
20
 -0.05200000
30
  0.00000000
11
  0.13200000
21
 -0.05200000
31
  0.00000000
0
LINE
8
DC
6
CONTINUOUS
62
7
10
  0.13140420
20
 -0.05195000
30
  0.00000000
11
  0.13199580
21
 -0.05195000
31
  0.00000000
0
LINE
8
DC
6
CONTINUOUS
62
7
10
  0.13141716
20
 -0.05190000
30
  0.00000000
11
  0.13198284
21
 -0.05190000
31
  0.00000000
0
LINE
8
DC
6
CONTINUOUS
62
7
10
  0.13144019
20
 -0.05185000
30
  0.00000000
11
  0.13195981
21
 -0.05185000
31
  0.00000000
0
LINE
8
DC
6
CONTINUOUS
62
7
10
  0.13147639
20
 -0.05180000
30
  0.00000000
11
  0.13192361
21
 -0.05180000
31
  0.00000000
0
LINE
8
DC
6
CONTINUOUS
62
7
10
  0.13153417
20
 -0.05175000
30
  0.00000000
11
  0.13186583
21
 -0.05175000
31
  0.00000000
0
CIRCLE
8
DC
6
CONTINUOUS
62
7
10
  0.13170000
20
 -0.05200000
30
  0.00000000
40
  0.00030000
0
LINE
8
DC
6
CONTINUOUS
62
7
10
  0.13170000
20
 -0.05430000
30
  0.00000000
11
  0.13170000
21
 -0.05430000
31
  0.00000000
0
LINE
8
DC
6
CONTINUOUS
62
7
10
  0.13153417
20
 -0.05425000
30
  0.00000000
11
  0.13186583
21
 -0.05425000
31
  0.00000000
0
LINE
8
DC
6
CONTINUOUS
62
7
10
  0.13147639
20
 -0.05420000
30
  0.00000000
11
  0.13192361
21
 -0.05420000
31
  0.00000000
0
LINE
8
DC
6
CONTINUOUS
62
7
10
  0.13144019
20
 -0.05415000
30
  0.00000000
11
  0.13195981
21
 -0.05415000
31
  0.00000000
0
LINE
8
DC
6
CONTINUOUS
62
7
10
  0.13141716
20
 -0.05410000
30
  0.00000000
11
  0.13198284
21
 -0.05410000
31
  0.00000000
0
LINE
8
DC
6
CONTINUOUS
62
7
10
  0.13140420
20
 -0.05405000
30
  0.00000000
11
  0.13199580
21
 -0.05405000
31
  0.00000000
0
LINE
8
DC
6
CONTINUOUS
62
7
10
  0.13140000
20
 -0.05400000
30
  0.00000000
11
  0.13200000
21
 -0.05400000
31
  0.00000000
0
LINE
8
DC
6
CONTINUOUS
62
7
10
  0.13140420
20
 -0.05395000
30
  0.00000000
11
  0.13199580
21
 -0.05395000
31
  0.00000000
0
LINE
8
DC
6
CONTINUOUS
62
7
10
  0.13141716
20
 -0.05390000
30
  0.00000000
11
  0.13198284
21
 -0.05390000
31
  0.00000000
0
LINE
8
DC
6
CONTINUOUS
62
7
10
  0.13144019
20
 -0.05385000
30
  0.00000000
11
  0.13195981
21
 -0.05385000
31
  0.00000000
0
LINE
8
DC
6
CONTINUOUS
62
7
10
  0.13147639
20
 -0.05380000
30
  0.00000000
11
  0.13192361
21
 -0.05380000
31
  0.00000000
0
LINE
8
DC
6
CONTINUOUS
62
7
10
  0.13153417
20
 -0.05375000
30
  0.00000000
11
  0.13186583
21
 -0.05375000
31
  0.00000000
0
CIRCLE
8
DC
6
CONTINUOUS
62
7
10
  0.13170000
20
 -0.05400000
30
  0.00000000
40
  0.00030000
0
SOLID
8
DC
62
255
10
  0.11960000
20
 -0.04700000
30
  0.00000000
11
  0.12970000
21
 -0.04700000
31
  0.00000000
12
  0.11960000
22
 -0.05510000
32
  0.00000000
13
  0.12970000
23
 -0.05510000
33
  0.00000000
0
LINE
8
DC
6
CONTINUOUS
62
7
10
  0.11960000
20
 -0.04700000
30
  0.00000000
11
  0.12970000
21
 -0.04700000
31
  0.00000000
0
LINE
8
DC
6
CONTINUOUS
62
7
10
  0.12970000
20
 -0.04700000
30
  0.00000000
11
  0.12970000
21
 -0.05510000
31
  0.00000000
0
LINE
8
DC
6
CONTINUOUS
62
7
10
  0.12970000
20
 -0.05510000
30
  0.00000000
11
  0.11960000
21
 -0.05510000
31
  0.00000000
0
LINE
8
DC
6
CONTINUOUS
62
7
10
  0.11960000
20
 -0.05510000
30
  0.00000000
11
  0.11960000
21
 -0.04700000
31
  0.00000000
0
TEXT
8
DC
62
7
10
  0.12210000
20
 -0.04720000
30
  0.00000000
40
  0.00325000
41
  0.60000000
1
A
50
  0.00000000
72
1
73
3
11
  0.12210000
21
 -0.04720000
31
  0.00000000
0
LINE
8
DC
6
CONTINUOUS
62
7
10
  0.12060000
20
 -0.05200000
30
  0.00000000
11
  0.12060000
21
 -0.05510000
31
  0.00000000
0
LINE
8
DC
6
CONTINUOUS
62
7
10
  0.12160000
20
 -0.05200000
30
  0.00000000
11
  0.12160000
21
 -0.05510000
31
  0.00000000
0
LINE
8
DC
6
CONTINUOUS
62
7
10
  0.12260000
20
 -0.05200000
30
  0.00000000
11
  0.12260000
21
 -0.05510000
31
  0.00000000
0
LINE
8
DC
6
CONTINUOUS
62
7
10
  0.12360000
20
 -0.05200000
30
  0.00000000
11
  0.12360000
21
 -0.05510000
31
  0.00000000
0
LINE
8
DC
6
CONTINUOUS
62
7
10
  0.12460000
20
 -0.05200000
30
  0.00000000
11
  0.12460000
21
 -0.05510000
31
  0.00000000
0
LINE
8
DC
6
CONTINUOUS
62
7
10
  0.12130000
20
 -0.05240000
30
  0.00000000
11
  0.12190000
21
 -0.05290000
31
  0.00000000
0
LINE
8
DC
6
CONTINUOUS
62
7
10
  0.12190000
20
 -0.05290000
30
  0.00000000
11
  0.12170000
21
 -0.05370000
31
  0.00000000
0
LINE
8
DC
6
CONTINUOUS
62
7
10
  0.12170000
20
 -0.05370000
30
  0.00000000
11
  0.12050000
21
 -0.05400000
31
  0.00000000
0
LINE
8
DC
6
CONTINUOUS
62
7
10
  0.12050000
20
 -0.05400000
30
  0.00000000
11
  0.12030000
21
 -0.05290000
31
  0.00000000
0
LINE
8
DC
6
CONTINUOUS
62
7
10
  0.12030000
20
 -0.05290000
30
  0.00000000
11
  0.12130000
21
 -0.05240000
31
  0.00000000
0
LINE
8
DC
6
CONTINUOUS
62
7
10
  0.12610000
20
 -0.04820000
30
  0.00000000
11
  0.12610000
21
 -0.04820000
31
  0.00000000
0
LINE
8
DC
6
CONTINUOUS
62
7
10
  0.12593417
20
 -0.04815000
30
  0.00000000
11
  0.12626583
21
 -0.04815000
31
  0.00000000
0
LINE
8
DC
6
CONTINUOUS
62
7
10
  0.12587639
20
 -0.04810000
30
  0.00000000
11
  0.12632361
21
 -0.04810000
31
  0.00000000
0
LINE
8
DC
6
CONTINUOUS
62
7
10
  0.12584019
20
 -0.04805000
30
  0.00000000
11
  0.12635981
21
 -0.04805000
31
  0.00000000
0
LINE
8
DC
6
CONTINUOUS
62
7
10
  0.12581716
20
 -0.04800000
30
  0.00000000
11
  0.12638284
21
 -0.04800000
31
  0.00000000
0
LINE
8
DC
6
CONTINUOUS
62
7
10
  0.12580420
20
 -0.04795000
30
  0.00000000
11
  0.12639580
21
 -0.04795000
31
  0.00000000
0
LINE
8
DC
6
CONTINUOUS
62
7
10
  0.12580000
20
 -0.04790000
30
  0.00000000
11
  0.12640000
21
 -0.04790000
31
  0.00000000
0
LINE
8
DC
6
CONTINUOUS
62
7
10
  0.12580420
20
 -0.04785000
30
  0.00000000
11
  0.12639580
21
 -0.04785000
31
  0.00000000
0
LINE
8
DC
6
CONTINUOUS
62
7
10
  0.12581716
20
 -0.04780000
30
  0.00000000
11
  0.12638284
21
 -0.04780000
31
  0.00000000
0
LINE
8
DC
6
CONTINUOUS
62
7
10
  0.12584019
20
 -0.04775000
30
  0.00000000
11
  0.12635981
21
 -0.04775000
31
  0.00000000
0
LINE
8
DC
6
CONTINUOUS
62
7
10
  0.12587639
20
 -0.04770000
30
  0.00000000
11
  0.12632361
21
 -0.04770000
31
  0.00000000
0
LINE
8
DC
6
CONTINUOUS
62
7
10
  0.12593417
20
 -0.04765000
30
  0.00000000
11
  0.12626583
21
 -0.04765000
31
  0.00000000
0
CIRCLE
8
DC
6
CONTINUOUS
62
7
10
  0.12610000
20
 -0.04790000
30
  0.00000000
40
  0.00030000
0
LINE
8
DC
6
CONTINUOUS
62
7
10
  0.12810000
20
 -0.04950000
30
  0.00000000
11
  0.12810000
21
 -0.04950000
31
  0.00000000
0
LINE
8
DC
6
CONTINUOUS
62
7
10
  0.12796771
20
 -0.04945000
30
  0.00000000
11
  0.12823229
21
 -0.04945000
31
  0.00000000
0
LINE
8
DC
6
CONTINUOUS
62
7
10
  0.12792679
20
 -0.04940000
30
  0.00000000
11
  0.12827321
21
 -0.04940000
31
  0.00000000
0
LINE
8
DC
6
CONTINUOUS
62
7
10
  0.12790635
20
 -0.04935000
30
  0.00000000
11
  0.12829365
21
 -0.04935000
31
  0.00000000
0
LINE
8
DC
6
CONTINUOUS
62
7
10
  0.12790000
20
 -0.04930000
30
  0.00000000
11
  0.12830000
21
 -0.04930000
31
  0.00000000
0
LINE
8
DC
6
CONTINUOUS
62
7
10
  0.12790635
20
 -0.04925000
30
  0.00000000
11
  0.12829365
21
 -0.04925000
31
  0.00000000
0
LINE
8
DC
6
CONTINUOUS
62
7
10
  0.12792679
20
 -0.04920000
30
  0.00000000
11
  0.12827321
21
 -0.04920000
31
  0.00000000
0
LINE
8
DC
6
CONTINUOUS
62
7
10
  0.12796771
20
 -0.04915000
30
  0.00000000
11
  0.12823229
21
 -0.04915000
31
  0.00000000
0
CIRCLE
8
DC
6
CONTINUOUS
62
7
10
  0.12810000
20
 -0.04930000
30
  0.00000000
40
  0.00020000
0
LINE
8
DC
6
CONTINUOUS
62
7
10
  0.12610000
20
 -0.04930000
30
  0.00000000
11
  0.12620000
21
 -0.04930000
31
  0.00000000
0
LINE
8
DC
6
CONTINUOUS
62
7
10
  0.12810000
20
 -0.04790000
30
  0.00000000
11
  0.12820000
21
 -0.04790000
31
  0.00000000
0
TEXT
8
DC
62
7
10
  0.12710000
20
 -0.05050000
30
  0.00000000
40
  0.00325000
41
  0.60000000
1
A
50
  0.00000000
72
1
73
3
11
  0.12710000
21
 -0.05050000
31
  0.00000000
0
LINE
8
DC
6
CONTINUOUS
62
7
10
  0.11960000
20
 -0.04700000
30
  0.00000000
11
  0.13460000
21
 -0.04700000
31
  0.00000000
0
LINE
8
DC
6
CONTINUOUS
62
7
10
  0.13460000
20
 -0.04700000
30
  0.00000000
11
  0.13560000
21
 -0.05170000
31
  0.00000000
0
LINE
8
DC
6
CONTINUOUS
62
7
10
  0.13560000
20
 -0.05170000
30
  0.00000000
11
  0.17660000
21
 -0.05170000
31
  0.00000000
0
LINE
8
DC
6
CONTINUOUS
62
7
10
  0.11960000
20
 -0.05500000
30
  0.00000000
11
  0.11860000
21
 -0.05500000
31
  0.00000000
0
LINE
8
DC
6
CONTINUOUS
62
7
10
  0.10920000
20
 -0.05500000
30
  0.00000000
11
  0.11860000
21
 -0.05500000
31
  0.00000000
0
TEXT
8
DC
62
7
10
  0.11860000
20
 -0.05450000
30
  0.00000000
40
  0.00250000
41
  0.60000000
1
    0.50m
50
  0.00000000
72
2
73
0
11
  0.11860000
21
 -0.05450000
31
  0.00000000
0
TEXT
8
DC
62
7
10
  0.13660000
20
 -0.05530000
30
  0.00000000
40
  0.00216667
41
  0.60000000
1
Auffüllung, Schottertragschicht,
50
  0.00000000
72
0
73
1
11
  0.13660000
21
 -0.05530000
31
  0.00000000
0
TEXT
8
DC
62
7
10
  0.13660000
20
 -0.05840000
30
  0.00000000
40
  0.00216667
41
  0.60000000
1
Fein- bis Mittelkies, stark 
50
  0.00000000
72
0
73
1
11
  0.13660000
21
 -0.05840000
31
  0.00000000
0
TEXT
8
DC
62
7
10
  0.13660000
20
 -0.06150000
30
  0.00000000
40
  0.00216667
41
  0.60000000
1
sandig
50
  0.00000000
72
0
73
1
11
  0.13660000
21
 -0.06150000
31
  0.00000000
0
TEXT
8
DC
62
7
10
  0.13660000
20
 -0.06460000
30
  0.00000000
40
  0.00216667
41
  0.60000000
1
mitteldicht
50
  0.00000000
72
0
73
1
11
  0.13660000
21
 -0.06460000
31
  0.00000000
0
TEXT
8
DC
62
7
10
  0.13660000
20
 -0.06770000
30
  0.00000000
40
  0.00216667
41
  0.60000000
1
erdfeucht
50
  0.00000000
72
0
73
1
11
  0.13660000
21
 -0.06770000
31
  0.00000000
0
TEXT
8
DC
62
7
10
  0.13660000
20
 -0.07080000
30
  0.00000000
40
  0.00216667
41
  0.60000000
1
weißgrau
50
  0.00000000
72
0
73
1
11
  0.13660000
21
 -0.07080000
31
  0.00000000
0
CIRCLE
8
DC
6
CONTINUOUS
62
7
10
  0.18290000
20
 -0.06120000
30
  0.00000000
40
  0.00530000
0
TEXT
8
DC
62
7
10
  0.17930000
20
 -0.06320000
30
  0.00000000
40
  0.00250000
41
  0.60000000
1
[GW]
50
  0.00000000
72
0
73
1
11
  0.17930000
21
 -0.06320000
31
  0.00000000
0
LINE
8
DC
6
CONTINUOUS
62
7
10
  0.17040000
20
 -0.05810000
30
  0.00000000
11
  0.17660000
21
 -0.05810000
31
  0.00000000
0
LINE
8
DC
6
CONTINUOUS
62
7
10
  0.17660000
20
 -0.05810000
30
  0.00000000
11
  0.17660000
21
 -0.06430000
31
  0.00000000
0
LINE
8
DC
6
CONTINUOUS
62
7
10
  0.17660000
20
 -0.06430000
30
  0.00000000
11
  0.17040000
21
 -0.06430000
31
  0.00000000
0
LINE
8
DC
6
CONTINUOUS
62
7
10
  0.17040000
20
 -0.06430000
30
  0.00000000
11
  0.17040000
21
 -0.05810000
31
  0.00000000
0
TEXT
8
DC
62
7
10
  0.17350000
20
 -0.06320000
30
  0.00000000
40
  0.00250000
41
  0.60000000
1
3
50
  0.00000000
72
1
73
1
11
  0.17350000
21
 -0.06320000
31
  0.00000000
0
LINE
8
DC
6
CONTINUOUS
62
7
10
  0.13120000
20
 -0.05500000
30
  0.00000000
11
  0.13120000
21
 -0.05530000
31
  0.00000000
0
LINE
8
DC
6
CONTINUOUS
62
7
10
  0.13120000
20
 -0.05530000
30
  0.00000000
11
  0.13150000
21
 -0.05560000
31
  0.00000000
0
LINE
8
DC
6
CONTINUOUS
62
7
10
  0.13150000
20
 -0.05560000
30
  0.00000000
11
  0.13180000
21
 -0.05590000
31
  0.00000000
0
LINE
8
DC
6
CONTINUOUS
62
7
10
  0.13180000
20
 -0.05590000
30
  0.00000000
11
  0.13190000
21
 -0.05620000
31
  0.00000000
0
LINE
8
DC
6
CONTINUOUS
62
7
10
  0.13190000
20
 -0.05620000
30
  0.00000000
11
  0.13180000
21
 -0.05650000
31
  0.00000000
0
LINE
8
DC
6
CONTINUOUS
62
7
10
  0.13180000
20
 -0.05650000
30
  0.00000000
11
  0.13150000
21
 -0.05680000
31
  0.00000000
0
LINE
8
DC
6
CONTINUOUS
62
7
10
  0.13150000
20
 -0.05680000
30
  0.00000000
11
  0.13120000
21
 -0.05710000
31
  0.00000000
0
LINE
8
DC
6
CONTINUOUS
62
7
10
  0.13120000
20
 -0.05710000
30
  0.00000000
11
  0.13090000
21
 -0.05740000
31
  0.00000000
0
LINE
8
DC
6
CONTINUOUS
62
7
10
  0.13090000
20
 -0.05740000
30
  0.00000000
11
  0.13060000
21
 -0.05770000
31
  0.00000000
0
LINE
8
DC
6
CONTINUOUS
62
7
10
  0.13060000
20
 -0.05770000
30
  0.00000000
11
  0.13050000
21
 -0.05800000
31
  0.00000000
0
LINE
8
DC
6
CONTINUOUS
62
7
10
  0.13050000
20
 -0.05800000
30
  0.00000000
11
  0.13060000
21
 -0.05830000
31
  0.00000000
0
LINE
8
DC
6
CONTINUOUS
62
7
10
  0.13060000
20
 -0.05830000
30
  0.00000000
11
  0.13090000
21
 -0.05860000
31
  0.00000000
0
LINE
8
DC
6
CONTINUOUS
62
7
10
  0.13090000
20
 -0.05860000
30
  0.00000000
11
  0.13120000
21
 -0.05890000
31
  0.00000000
0
LINE
8
DC
6
CONTINUOUS
62
7
10
  0.13120000
20
 -0.05890000
30
  0.00000000
11
  0.13150000
21
 -0.05920000
31
  0.00000000
0
LINE
8
DC
6
CONTINUOUS
62
7
10
  0.13150000
20
 -0.05920000
30
  0.00000000
11
  0.13180000
21
 -0.05950000
31
  0.00000000
0
LINE
8
DC
6
CONTINUOUS
62
7
10
  0.13180000
20
 -0.05950000
30
  0.00000000
11
  0.13190000
21
 -0.05980000
31
  0.00000000
0
LINE
8
DC
6
CONTINUOUS
62
7
10
  0.13190000
20
 -0.05980000
30
  0.00000000
11
  0.13180000
21
 -0.06010000
31
  0.00000000
0
LINE
8
DC
6
CONTINUOUS
62
7
10
  0.13180000
20
 -0.06010000
30
  0.00000000
11
  0.13150000
21
 -0.06040000
31
  0.00000000
0
LINE
8
DC
6
CONTINUOUS
62
7
10
  0.13150000
20
 -0.06040000
30
  0.00000000
11
  0.13120000
21
 -0.06070000
31
  0.00000000
0
LINE
8
DC
6
CONTINUOUS
62
7
10
  0.13120000
20
 -0.06070000
30
  0.00000000
11
  0.13090000
21
 -0.06100000
31
  0.00000000
0
LINE
8
DC
6
CONTINUOUS
62
7
10
  0.13090000
20
 -0.06100000
30
  0.00000000
11
  0.13060000
21
 -0.06130000
31
  0.00000000
0
LINE
8
DC
6
CONTINUOUS
62
7
10
  0.13060000
20
 -0.06130000
30
  0.00000000
11
  0.13050000
21
 -0.06160000
31
  0.00000000
0
LINE
8
DC
6
CONTINUOUS
62
7
10
  0.13050000
20
 -0.06160000
30
  0.00000000
11
  0.13060000
21
 -0.06190000
31
  0.00000000
0
LINE
8
DC
6
CONTINUOUS
62
7
10
  0.13060000
20
 -0.06190000
30
  0.00000000
11
  0.13090000
21
 -0.06220000
31
  0.00000000
0
LINE
8
DC
6
CONTINUOUS
62
7
10
  0.13090000
20
 -0.06220000
30
  0.00000000
11
  0.13120000
21
 -0.06250000
31
  0.00000000
0
LINE
8
DC
6
CONTINUOUS
62
7
10
  0.13120000
20
 -0.06250000
30
  0.00000000
11
  0.13150000
21
 -0.06280000
31
  0.00000000
0
LINE
8
DC
6
CONTINUOUS
62
7
10
  0.13150000
20
 -0.06280000
30
  0.00000000
11
  0.13180000
21
 -0.06310000
31
  0.00000000
0
LINE
8
DC
6
CONTINUOUS
62
7
10
  0.13180000
20
 -0.06310000
30
  0.00000000
11
  0.13190000
21
 -0.06340000
31
  0.00000000
0
LINE
8
DC
6
CONTINUOUS
62
7
10
  0.13190000
20
 -0.06340000
30
  0.00000000
11
  0.13180000
21
 -0.06370000
31
  0.00000000
0
LINE
8
DC
6
CONTINUOUS
62
7
10
  0.13180000
20
 -0.06370000
30
  0.00000000
11
  0.13150000
21
 -0.06400000
31
  0.00000000
0
LINE
8
DC
6
CONTINUOUS
62
7
10
  0.13150000
20
 -0.06400000
30
  0.00000000
11
  0.13120000
21
 -0.06430000
31
  0.00000000
0
LINE
8
DC
6
CONTINUOUS
62
7
10
  0.13120000
20
 -0.06430000
30
  0.00000000
11
  0.13090000
21
 -0.06460000
31
  0.00000000
0
LINE
8
DC
6
CONTINUOUS
62
7
10
  0.13090000
20
 -0.06460000
30
  0.00000000
11
  0.13060000
21
 -0.06490000
31
  0.00000000
0
LINE
8
DC
6
CONTINUOUS
62
7
10
  0.13060000
20
 -0.06490000
30
  0.00000000
11
  0.13050000
21
 -0.06500000
31
  0.00000000
0
LINE
8
DC
6
GESTRICHELT
62
7
10
  0.13280000
20
 -0.05500000
30
  0.00000000
11
  0.13280000
21
 -0.06500000
31
  0.00000000
0
SOLID
8
DC
62
255
10
  0.11960000
20
 -0.05500000
30
  0.00000000
11
  0.12470000
21
 -0.05500000
31
  0.00000000
12
  0.11960000
22
 -0.06510000
32
  0.00000000
13
  0.12470000
23
 -0.06510000
33
  0.00000000
0
LINE
8
DC
6
CONTINUOUS
62
7
10
  0.11960000
20
 -0.05500000
30
  0.00000000
11
  0.12470000
21
 -0.05500000
31
  0.00000000
0
LINE
8
DC
6
CONTINUOUS
62
7
10
  0.12470000
20
 -0.05500000
30
  0.00000000
11
  0.12470000
21
 -0.06510000
31
  0.00000000
0
LINE
8
DC
6
CONTINUOUS
62
7
10
  0.12470000
20
 -0.06510000
30
  0.00000000
11
  0.11960000
21
 -0.06510000
31
  0.00000000
0
LINE
8
DC
6
CONTINUOUS
62
7
10
  0.11960000
20
 -0.06510000
30
  0.00000000
11
  0.11960000
21
 -0.05500000
31
  0.00000000
0
SOLID
8
DC
62
200
10
  0.12470000
20
 -0.05500000
30
  0.00000000
11
  0.12970000
21
 -0.05500000
31
  0.00000000
12
  0.12470000
22
 -0.06510000
32
  0.00000000
13
  0.12970000
23
 -0.06510000
33
  0.00000000
0
LINE
8
DC
6
CONTINUOUS
62
7
10
  0.12470000
20
 -0.05500000
30
  0.00000000
11
  0.12970000
21
 -0.05500000
31
  0.00000000
0
LINE
8
DC
6
CONTINUOUS
62
7
10
  0.12970000
20
 -0.05500000
30
  0.00000000
11
  0.12970000
21
 -0.06510000
31
  0.00000000
0
LINE
8
DC
6
CONTINUOUS
62
7
10
  0.12970000
20
 -0.06510000
30
  0.00000000
11
  0.12470000
21
 -0.06510000
31
  0.00000000
0
LINE
8
DC
6
CONTINUOUS
62
7
10
  0.12470000
20
 -0.06510000
30
  0.00000000
11
  0.12470000
21
 -0.05500000
31
  0.00000000
0
TEXT
8
DC
62
7
10
  0.12210000
20
 -0.05520000
30
  0.00000000
40
  0.00325000
41
  0.60000000
1
A
50
  0.00000000
72
1
73
3
11
  0.12210000
21
 -0.05520000
31
  0.00000000
0
LINE
8
DC
6
CONTINUOUS
62
7
10
  0.12010000
20
 -0.06080000
30
  0.00000000
11
  0.12310000
21
 -0.06080000
31
  0.00000000
0
LINE
8
DC
6
CONTINUOUS
62
7
10
  0.12110000
20
 -0.06240000
30
  0.00000000
11
  0.12410000
21
 -0.06240000
31
  0.00000000
0
LINE
8
DC
6
CONTINUOUS
62
7
10
  0.12620000
20
 -0.05710000
30
  0.00000000
11
  0.12620000
21
 -0.05710000
31
  0.00000000
0
LINE
8
DC
6
CONTINUOUS
62
7
10
  0.12598206
20
 -0.05705000
30
  0.00000000
11
  0.12641794
21
 -0.05705000
31
  0.00000000
0
LINE
8
DC
6
CONTINUOUS
62
7
10
  0.12590000
20
 -0.05700000
30
  0.00000000
11
  0.12650000
21
 -0.05700000
31
  0.00000000
0
LINE
8
DC
6
CONTINUOUS
62
7
10
  0.12584293
20
 -0.05695000
30
  0.00000000
11
  0.12655707
21
 -0.05695000
31
  0.00000000
0
LINE
8
DC
6
CONTINUOUS
62
7
10
  0.12580000
20
 -0.05690000
30
  0.00000000
11
  0.12660000
21
 -0.05690000
31
  0.00000000
0
LINE
8
DC
6
CONTINUOUS
62
7
10
  0.12576699
20
 -0.05685000
30
  0.00000000
11
  0.12663301
21
 -0.05685000
31
  0.00000000
0
LINE
8
DC
6
CONTINUOUS
62
7
10
  0.12574174
20
 -0.05680000
30
  0.00000000
11
  0.12665826
21
 -0.05680000
31
  0.00000000
0
LINE
8
DC
6
CONTINUOUS
62
7
10
  0.12572303
20
 -0.05675000
30
  0.00000000
11
  0.12667697
21
 -0.05675000
31
  0.00000000
0
LINE
8
DC
6
CONTINUOUS
62
7
10
  0.12571010
20
 -0.05670000
30
  0.00000000
11
  0.12668990
21
 -0.05670000
31
  0.00000000
0
LINE
8
DC
6
CONTINUOUS
62
7
10
  0.12570251
20
 -0.05665000
30
  0.00000000
11
  0.12669749
21
 -0.05665000
31
  0.00000000
0
LINE
8
DC
6
CONTINUOUS
62
7
10
  0.12570000
20
 -0.05660000
30
  0.00000000
11
  0.12670000
21
 -0.05660000
31
  0.00000000
0
LINE
8
DC
6
CONTINUOUS
62
7
10
  0.12570251
20
 -0.05655000
30
  0.00000000
11
  0.12669749
21
 -0.05655000
31
  0.00000000
0
LINE
8
DC
6
CONTINUOUS
62
7
10
  0.12571010
20
 -0.05650000
30
  0.00000000
11
  0.12668990
21
 -0.05650000
31
  0.00000000
0
LINE
8
DC
6
CONTINUOUS
62
7
10
  0.12572303
20
 -0.05645000
30
  0.00000000
11
  0.12667697
21
 -0.05645000
31
  0.00000000
0
LINE
8
DC
6
CONTINUOUS
62
7
10
  0.12574174
20
 -0.05640000
30
  0.00000000
11
  0.12665826
21
 -0.05640000
31
  0.00000000
0
LINE
8
DC
6
CONTINUOUS
62
7
10
  0.12576699
20
 -0.05635000
30
  0.00000000
11
  0.12663301
21
 -0.05635000
31
  0.00000000
0
LINE
8
DC
6
CONTINUOUS
62
7
10
  0.12580000
20
 -0.05630000
30
  0.00000000
11
  0.12660000
21
 -0.05630000
31
  0.00000000
0
LINE
8
DC
6
CONTINUOUS
62
7
10
  0.12584293
20
 -0.05625000
30
  0.00000000
11
  0.12655707
21
 -0.05625000
31
  0.00000000
0
LINE
8
DC
6
CONTINUOUS
62
7
10
  0.12590000
20
 -0.05620000
30
  0.00000000
11
  0.12650000
21
 -0.05620000
31
  0.00000000
0
LINE
8
DC
6
CONTINUOUS
62
7
10
  0.12598206
20
 -0.05615000
30
  0.00000000
11
  0.12641794
21
 -0.05615000
31
  0.00000000
0
CIRCLE
8
DC
6
CONTINUOUS
62
7
10
  0.12620000
20
 -0.05660000
30
  0.00000000
40
  0.00050000
0
LINE
8
DC
6
CONTINUOUS
62
7
10
  0.12780000
20
 -0.05710000
30
  0.00000000
11
  0.12780000
21
 -0.05710000
31
  0.00000000
0
LINE
8
DC
6
CONTINUOUS
62
7
10
  0.12758206
20
 -0.05705000
30
  0.00000000
11
  0.12801794
21
 -0.05705000
31
  0.00000000
0
LINE
8
DC
6
CONTINUOUS
62
7
10
  0.12750000
20
 -0.05700000
30
  0.00000000
11
  0.12810000
21
 -0.05700000
31
  0.00000000
0
LINE
8
DC
6
CONTINUOUS
62
7
10
  0.12744293
20
 -0.05695000
30
  0.00000000
11
  0.12815707
21
 -0.05695000
31
  0.00000000
0
LINE
8
DC
6
CONTINUOUS
62
7
10
  0.12740000
20
 -0.05690000
30
  0.00000000
11
  0.12820000
21
 -0.05690000
31
  0.00000000
0
LINE
8
DC
6
CONTINUOUS
62
7
10
  0.12736699
20
 -0.05685000
30
  0.00000000
11
  0.12823301
21
 -0.05685000
31
  0.00000000
0
LINE
8
DC
6
CONTINUOUS
62
7
10
  0.12734174
20
 -0.05680000
30
  0.00000000
11
  0.12825826
21
 -0.05680000
31
  0.00000000
0
LINE
8
DC
6
CONTINUOUS
62
7
10
  0.12732303
20
 -0.05675000
30
  0.00000000
11
  0.12827697
21
 -0.05675000
31
  0.00000000
0
LINE
8
DC
6
CONTINUOUS
62
7
10
  0.12731010
20
 -0.05670000
30
  0.00000000
11
  0.12828990
21
 -0.05670000
31
  0.00000000
0
LINE
8
DC
6
CONTINUOUS
62
7
10
  0.12730251
20
 -0.05665000
30
  0.00000000
11
  0.12829749
21
 -0.05665000
31
  0.00000000
0
LINE
8
DC
6
CONTINUOUS
62
7
10
  0.12730000
20
 -0.05660000
30
  0.00000000
11
  0.12830000
21
 -0.05660000
31
  0.00000000
0
LINE
8
DC
6
CONTINUOUS
62
7
10
  0.12730251
20
 -0.05655000
30
  0.00000000
11
  0.12829749
21
 -0.05655000
31
  0.00000000
0
LINE
8
DC
6
CONTINUOUS
62
7
10
  0.12731010
20
 -0.05650000
30
  0.00000000
11
  0.12828990
21
 -0.05650000
31
  0.00000000
0
LINE
8
DC
6
CONTINUOUS
62
7
10
  0.12732303
20
 -0.05645000
30
  0.00000000
11
  0.12827697
21
 -0.05645000
31
  0.00000000
0
LINE
8
DC
6
CONTINUOUS
62
7
10
  0.12734174
20
 -0.05640000
30
  0.00000000
11
  0.12825826
21
 -0.05640000
31
  0.00000000
0
LINE
8
DC
6
CONTINUOUS
62
7
10
  0.12736699
20
 -0.05635000
30
  0.00000000
11
  0.12823301
21
 -0.05635000
31
  0.00000000
0
LINE
8
DC
6
CONTINUOUS
62
7
10
  0.12740000
20
 -0.05630000
30
  0.00000000
11
  0.12820000
21
 -0.05630000
31
  0.00000000
0
LINE
8
DC
6
CONTINUOUS
62
7
10
  0.12744293
20
 -0.05625000
30
  0.00000000
11
  0.12815707
21
 -0.05625000
31
  0.00000000
0
LINE
8
DC
6
CONTINUOUS
62
7
10
  0.12750000
20
 -0.05620000
30
  0.00000000
11
  0.12810000
21
 -0.05620000
31
  0.00000000
0
LINE
8
DC
6
CONTINUOUS
62
7
10
  0.12758206
20
 -0.05615000
30
  0.00000000
11
  0.12801794
21
 -0.05615000
31
  0.00000000
0
CIRCLE
8
DC
6
CONTINUOUS
62
7
10
  0.12780000
20
 -0.05660000
30
  0.00000000
40
  0.00050000
0
LINE
8
DC
6
CONTINUOUS
62
7
10
  0.12560000
20
 -0.05710000
30
  0.00000000
11
  0.12860000
21
 -0.05710000
31
  0.00000000
0
LINE
8
DC
6
CONTINUOUS
62
7
10
  0.12610000
20
 -0.05950000
30
  0.00000000
11
  0.12610000
21
 -0.05950000
31
  0.00000000
0
LINE
8
DC
6
CONTINUOUS
62
7
10
  0.12593417
20
 -0.05945000
30
  0.00000000
11
  0.12626583
21
 -0.05945000
31
  0.00000000
0
LINE
8
DC
6
CONTINUOUS
62
7
10
  0.12587639
20
 -0.05940000
30
  0.00000000
11
  0.12632361
21
 -0.05940000
31
  0.00000000
0
LINE
8
DC
6
CONTINUOUS
62
7
10
  0.12584019
20
 -0.05935000
30
  0.00000000
11
  0.12635981
21
 -0.05935000
31
  0.00000000
0
LINE
8
DC
6
CONTINUOUS
62
7
10
  0.12581716
20
 -0.05930000
30
  0.00000000
11
  0.12638284
21
 -0.05930000
31
  0.00000000
0
LINE
8
DC
6
CONTINUOUS
62
7
10
  0.12580420
20
 -0.05925000
30
  0.00000000
11
  0.12639580
21
 -0.05925000
31
  0.00000000
0
LINE
8
DC
6
CONTINUOUS
62
7
10
  0.12580000
20
 -0.05920000
30
  0.00000000
11
  0.12640000
21
 -0.05920000
31
  0.00000000
0
LINE
8
DC
6
CONTINUOUS
62
7
10
  0.12580420
20
 -0.05915000
30
  0.00000000
11
  0.12639580
21
 -0.05915000
31
  0.00000000
0
LINE
8
DC
6
CONTINUOUS
62
7
10
  0.12581716
20
 -0.05910000
30
  0.00000000
11
  0.12638284
21
 -0.05910000
31
  0.00000000
0
LINE
8
DC
6
CONTINUOUS
62
7
10
  0.12584019
20
 -0.05905000
30
  0.00000000
11
  0.12635981
21
 -0.05905000
31
  0.00000000
0
LINE
8
DC
6
CONTINUOUS
62
7
10
  0.12587639
20
 -0.05900000
30
  0.00000000
11
  0.12632361
21
 -0.05900000
31
  0.00000000
0
LINE
8
DC
6
CONTINUOUS
62
7
10
  0.12593417
20
 -0.05895000
30
  0.00000000
11
  0.12626583
21
 -0.05895000
31
  0.00000000
0
CIRCLE
8
DC
6
CONTINUOUS
62
7
10
  0.12610000
20
 -0.05920000
30
  0.00000000
40
  0.00030000
0
LINE
8
DC
6
CONTINUOUS
62
7
10
  0.12810000
20
 -0.06080000
30
  0.00000000
11
  0.12810000
21
 -0.06080000
31
  0.00000000
0
LINE
8
DC
6
CONTINUOUS
62
7
10
  0.12796771
20
 -0.06075000
30
  0.00000000
11
  0.12823229
21
 -0.06075000
31
  0.00000000
0
LINE
8
DC
6
CONTINUOUS
62
7
10
  0.12792679
20
 -0.06070000
30
  0.00000000
11
  0.12827321
21
 -0.06070000
31
  0.00000000
0
LINE
8
DC
6
CONTINUOUS
62
7
10
  0.12790635
20
 -0.06065000
30
  0.00000000
11
  0.12829365
21
 -0.06065000
31
  0.00000000
0
LINE
8
DC
6
CONTINUOUS
62
7
10
  0.12790000
20
 -0.06060000
30
  0.00000000
11
  0.12830000
21
 -0.06060000
31
  0.00000000
0
LINE
8
DC
6
CONTINUOUS
62
7
10
  0.12790635
20
 -0.06055000
30
  0.00000000
11
  0.12829365
21
 -0.06055000
31
  0.00000000
0
LINE
8
DC
6
CONTINUOUS
62
7
10
  0.12792679
20
 -0.06050000
30
  0.00000000
11
  0.12827321
21
 -0.06050000
31
  0.00000000
0
LINE
8
DC
6
CONTINUOUS
62
7
10
  0.12796771
20
 -0.06045000
30
  0.00000000
11
  0.12823229
21
 -0.06045000
31
  0.00000000
0
CIRCLE
8
DC
6
CONTINUOUS
62
7
10
  0.12810000
20
 -0.06060000
30
  0.00000000
40
  0.00020000
0
LINE
8
DC
6
CONTINUOUS
62
7
10
  0.12610000
20
 -0.06060000
30
  0.00000000
11
  0.12620000
21
 -0.06060000
31
  0.00000000
0
LINE
8
DC
6
CONTINUOUS
62
7
10
  0.12810000
20
 -0.05920000
30
  0.00000000
11
  0.12820000
21
 -0.05920000
31
  0.00000000
0
TEXT
8
DC
62
7
10
  0.12710000
20
 -0.06120000
30
  0.00000000
40
  0.00275000
41
  0.60000000
1
A
50
  0.00000000
72
1
73
3
11
  0.12710000
21
 -0.06120000
31
  0.00000000
0
LINE
8
DC
6
CONTINUOUS
62
7
10
  0.11960000
20
 -0.05500000
30
  0.00000000
11
  0.13460000
21
 -0.05500000
31
  0.00000000
0
LINE
8
DC
6
CONTINUOUS
62
7
10
  0.13460000
20
 -0.05500000
30
  0.00000000
11
  0.13560000
21
 -0.07080000
31
  0.00000000
0
LINE
8
DC
6
CONTINUOUS
62
7
10
  0.13560000
20
 -0.07080000
30
  0.00000000
11
  0.17660000
21
 -0.07080000
31
  0.00000000
0
LINE
8
DC
6
CONTINUOUS
62
7
10
  0.11960000
20
 -0.06500000
30
  0.00000000
11
  0.11860000
21
 -0.06500000
31
  0.00000000
0
LINE
8
DC
6
CONTINUOUS
62
7
10
  0.10920000
20
 -0.06500000
30
  0.00000000
11
  0.11860000
21
 -0.06500000
31
  0.00000000
0
TEXT
8
DC
62
7
10
  0.11860000
20
 -0.06450000
30
  0.00000000
40
  0.00250000
41
  0.60000000
1
    1.00m
50
  0.00000000
72
2
73
0
11
  0.11860000
21
 -0.06450000
31
  0.00000000
0
TEXT
8
DC
62
7
10
  0.13660000
20
 -0.07440000
30
  0.00000000
40
  0.00216667
41
  0.60000000
1
Auffüllung, Ton, schluffig, stark
50
  0.00000000
72
0
73
1
11
  0.13660000
21
 -0.07440000
31
  0.00000000
0
TEXT
8
DC
62
7
10
  0.13660000
20
 -0.07750000
30
  0.00000000
40
  0.00216667
41
  0.60000000
1
sandig, kiesig, Ziegelsplitter
50
  0.00000000
72
0
73
1
11
  0.13660000
21
 -0.07750000
31
  0.00000000
0
TEXT
8
DC
62
7
10
  0.13660000
20
 -0.08060000
30
  0.00000000
40
  0.00216667
41
  0.60000000
1
weich bis steif
50
  0.00000000
72
0
73
1
11
  0.13660000
21
 -0.08060000
31
  0.00000000
0
TEXT
8
DC
62
7
10
  0.13660000
20
 -0.08370000
30
  0.00000000
40
  0.00216667
41
  0.60000000
1
erdfeucht
50
  0.00000000
72
0
73
1
11
  0.13660000
21
 -0.08370000
31
  0.00000000
0
TEXT
8
DC
62
7
10
  0.13660000
20
 -0.08680000
30
  0.00000000
40
  0.00216667
41
  0.60000000
1
grüngrau
50
  0.00000000
72
0
73
1
11
  0.13660000
21
 -0.08680000
31
  0.00000000
0
CIRCLE
8
DC
6
CONTINUOUS
62
7
10
  0.18290000
20
 -0.07880000
30
  0.00000000
40
  0.00530000
0
TEXT
8
DC
62
7
10
  0.17990000
20
 -0.08080000
30
  0.00000000
40
  0.00250000
41
  0.60000000
1
[TL]
50
  0.00000000
72
0
73
1
11
  0.17990000
21
 -0.08080000
31
  0.00000000
0
LINE
8
DC
6
CONTINUOUS
62
7
10
  0.17040000
20
 -0.07570000
30
  0.00000000
11
  0.17660000
21
 -0.07570000
31
  0.00000000
0
LINE
8
DC
6
CONTINUOUS
62
7
10
  0.17660000
20
 -0.07570000
30
  0.00000000
11
  0.17660000
21
 -0.08190000
31
  0.00000000
0
LINE
8
DC
6
CONTINUOUS
62
7
10
  0.17660000
20
 -0.08190000
30
  0.00000000
11
  0.17040000
21
 -0.08190000
31
  0.00000000
0
LINE
8
DC
6
CONTINUOUS
62
7
10
  0.17040000
20
 -0.08190000
30
  0.00000000
11
  0.17040000
21
 -0.07570000
31
  0.00000000
0
TEXT
8
DC
62
7
10
  0.17350000
20
 -0.08080000
30
  0.00000000
40
  0.00250000
41
  0.60000000
1
4
50
  0.00000000
72
1
73
1
11
  0.17350000
21
 -0.08080000
31
  0.00000000
0
LINE
8
DC
6
CONTINUOUS
62
7
10
  0.13120000
20
 -0.06500000
30
  0.00000000
11
  0.13120000
21
 -0.06530000
31
  0.00000000
0
LINE
8
DC
6
CONTINUOUS
62
7
10
  0.13120000
20
 -0.06530000
30
  0.00000000
11
  0.13150000
21
 -0.06560000
31
  0.00000000
0
LINE
8
DC
6
CONTINUOUS
62
7
10
  0.13150000
20
 -0.06560000
30
  0.00000000
11
  0.13180000
21
 -0.06590000
31
  0.00000000
0
LINE
8
DC
6
CONTINUOUS
62
7
10
  0.13180000
20
 -0.06590000
30
  0.00000000
11
  0.13190000
21
 -0.06620000
31
  0.00000000
0
LINE
8
DC
6
CONTINUOUS
62
7
10
  0.13190000
20
 -0.06620000
30
  0.00000000
11
  0.13180000
21
 -0.06650000
31
  0.00000000
0
LINE
8
DC
6
CONTINUOUS
62
7
10
  0.13180000
20
 -0.06650000
30
  0.00000000
11
  0.13150000
21
 -0.06680000
31
  0.00000000
0
LINE
8
DC
6
CONTINUOUS
62
7
10
  0.13150000
20
 -0.06680000
30
  0.00000000
11
  0.13120000
21
 -0.06710000
31
  0.00000000
0
LINE
8
DC
6
CONTINUOUS
62
7
10
  0.13120000
20
 -0.06710000
30
  0.00000000
11
  0.13090000
21
 -0.06740000
31
  0.00000000
0
LINE
8
DC
6
CONTINUOUS
62
7
10
  0.13090000
20
 -0.06740000
30
  0.00000000
11
  0.13060000
21
 -0.06770000
31
  0.00000000
0
LINE
8
DC
6
CONTINUOUS
62
7
10
  0.13060000
20
 -0.06770000
30
  0.00000000
11
  0.13050000
21
 -0.06800000
31
  0.00000000
0
LINE
8
DC
6
CONTINUOUS
62
7
10
  0.13050000
20
 -0.06800000
30
  0.00000000
11
  0.13060000
21
 -0.06830000
31
  0.00000000
0
LINE
8
DC
6
CONTINUOUS
62
7
10
  0.13060000
20
 -0.06830000
30
  0.00000000
11
  0.13090000
21
 -0.06860000
31
  0.00000000
0
LINE
8
DC
6
CONTINUOUS
62
7
10
  0.13090000
20
 -0.06860000
30
  0.00000000
11
  0.13120000
21
 -0.06890000
31
  0.00000000
0
LINE
8
DC
6
CONTINUOUS
62
7
10
  0.13120000
20
 -0.06890000
30
  0.00000000
11
  0.13150000
21
 -0.06920000
31
  0.00000000
0
LINE
8
DC
6
CONTINUOUS
62
7
10
  0.13150000
20
 -0.06920000
30
  0.00000000
11
  0.13180000
21
 -0.06950000
31
  0.00000000
0
LINE
8
DC
6
CONTINUOUS
62
7
10
  0.13180000
20
 -0.06950000
30
  0.00000000
11
  0.13190000
21
 -0.06980000
31
  0.00000000
0
LINE
8
DC
6
CONTINUOUS
62
7
10
  0.13190000
20
 -0.06980000
30
  0.00000000
11
  0.13180000
21
 -0.07010000
31
  0.00000000
0
LINE
8
DC
6
CONTINUOUS
62
7
10
  0.13180000
20
 -0.07010000
30
  0.00000000
11
  0.13150000
21
 -0.07040000
31
  0.00000000
0
LINE
8
DC
6
CONTINUOUS
62
7
10
  0.13150000
20
 -0.07040000
30
  0.00000000
11
  0.13120000
21
 -0.07070000
31
  0.00000000
0
LINE
8
DC
6
CONTINUOUS
62
7
10
  0.13120000
20
 -0.07070000
30
  0.00000000
11
  0.13090000
21
 -0.07100000
31
  0.00000000
0
LINE
8
DC
6
CONTINUOUS
62
7
10
  0.13090000
20
 -0.07100000
30
  0.00000000
11
  0.13060000
21
 -0.07130000
31
  0.00000000
0
LINE
8
DC
6
CONTINUOUS
62
7
10
  0.13060000
20
 -0.07130000
30
  0.00000000
11
  0.13050000
21
 -0.07160000
31
  0.00000000
0
LINE
8
DC
6
CONTINUOUS
62
7
10
  0.13050000
20
 -0.07160000
30
  0.00000000
11
  0.13060000
21
 -0.07190000
31
  0.00000000
0
LINE
8
DC
6
CONTINUOUS
62
7
10
  0.13060000
20
 -0.07190000
30
  0.00000000
11
  0.13090000
21
 -0.07220000
31
  0.00000000
0
LINE
8
DC
6
CONTINUOUS
62
7
10
  0.13090000
20
 -0.07220000
30
  0.00000000
11
  0.13120000
21
 -0.07250000
31
  0.00000000
0
LINE
8
DC
6
CONTINUOUS
62
7
10
  0.13120000
20
 -0.07250000
30
  0.00000000
11
  0.13150000
21
 -0.07280000
31
  0.00000000
0
LINE
8
DC
6
CONTINUOUS
62
7
10
  0.13150000
20
 -0.07280000
30
  0.00000000
11
  0.13180000
21
 -0.07310000
31
  0.00000000
0
LINE
8
DC
6
CONTINUOUS
62
7
10
  0.13180000
20
 -0.07310000
30
  0.00000000
11
  0.13190000
21
 -0.07340000
31
  0.00000000
0
LINE
8
DC
6
CONTINUOUS
62
7
10
  0.13190000
20
 -0.07340000
30
  0.00000000
11
  0.13180000
21
 -0.07370000
31
  0.00000000
0
LINE
8
DC
6
CONTINUOUS
62
7
10
  0.13180000
20
 -0.07370000
30
  0.00000000
11
  0.13150000
21
 -0.07400000
31
  0.00000000
0
LINE
8
DC
6
CONTINUOUS
62
7
10
  0.13150000
20
 -0.07400000
30
  0.00000000
11
  0.13120000
21
 -0.07430000
31
  0.00000000
0
LINE
8
DC
6
CONTINUOUS
62
7
10
  0.13120000
20
 -0.07430000
30
  0.00000000
11
  0.13090000
21
 -0.07460000
31
  0.00000000
0
LINE
8
DC
6
CONTINUOUS
62
7
10
  0.13090000
20
 -0.07460000
30
  0.00000000
11
  0.13060000
21
 -0.07490000
31
  0.00000000
0
LINE
8
DC
6
CONTINUOUS
62
7
10
  0.13060000
20
 -0.07490000
30
  0.00000000
11
  0.13050000
21
 -0.07520000
31
  0.00000000
0
LINE
8
DC
6
CONTINUOUS
62
7
10
  0.13050000
20
 -0.07520000
30
  0.00000000
11
  0.13060000
21
 -0.07550000
31
  0.00000000
0
LINE
8
DC
6
CONTINUOUS
62
7
10
  0.13060000
20
 -0.07550000
30
  0.00000000
11
  0.13090000
21
 -0.07580000
31
  0.00000000
0
LINE
8
DC
6
CONTINUOUS
62
7
10
  0.13090000
20
 -0.07580000
30
  0.00000000
11
  0.13120000
21
 -0.07610000
31
  0.00000000
0
LINE
8
DC
6
CONTINUOUS
62
7
10
  0.13120000
20
 -0.07610000
30
  0.00000000
11
  0.13150000
21
 -0.07640000
31
  0.00000000
0
LINE
8
DC
6
CONTINUOUS
62
7
10
  0.13150000
20
 -0.07640000
30
  0.00000000
11
  0.13180000
21
 -0.07670000
31
  0.00000000
0
LINE
8
DC
6
CONTINUOUS
62
7
10
  0.13180000
20
 -0.07670000
30
  0.00000000
11
  0.13190000
21
 -0.07700000
31
  0.00000000
0
LINE
8
DC
6
GESTRICHELT
62
7
10
  0.13280000
20
 -0.06500000
30
  0.00000000
11
  0.13280000
21
 -0.07700000
31
  0.00000000
0
SOLID
8
DC
62
255
10
  0.11960000
20
 -0.06500000
30
  0.00000000
11
  0.12470000
21
 -0.06500000
31
  0.00000000
12
  0.11960000
22
 -0.07710000
32
  0.00000000
13
  0.12470000
23
 -0.07710000
33
  0.00000000
0
LINE
8
DC
6
CONTINUOUS
62
7
10
  0.11960000
20
 -0.06500000
30
  0.00000000
11
  0.12470000
21
 -0.06500000
31
  0.00000000
0
LINE
8
DC
6
CONTINUOUS
62
7
10
  0.12470000
20
 -0.06500000
30
  0.00000000
11
  0.12470000
21
 -0.07710000
31
  0.00000000
0
LINE
8
DC
6
CONTINUOUS
62
7
10
  0.12470000
20
 -0.07710000
30
  0.00000000
11
  0.11960000
21
 -0.07710000
31
  0.00000000
0
LINE
8
DC
6
CONTINUOUS
62
7
10
  0.11960000
20
 -0.07710000
30
  0.00000000
11
  0.11960000
21
 -0.06500000
31
  0.00000000
0
SOLID
8
DC
62
200
10
  0.12470000
20
 -0.06500000
30
  0.00000000
11
  0.12970000
21
 -0.06500000
31
  0.00000000
12
  0.12470000
22
 -0.07710000
32
  0.00000000
13
  0.12970000
23
 -0.07710000
33
  0.00000000
0
LINE
8
DC
6
CONTINUOUS
62
7
10
  0.12470000
20
 -0.06500000
30
  0.00000000
11
  0.12970000
21
 -0.06500000
31
  0.00000000
0
LINE
8
DC
6
CONTINUOUS
62
7
10
  0.12970000
20
 -0.06500000
30
  0.00000000
11
  0.12970000
21
 -0.07710000
31
  0.00000000
0
LINE
8
DC
6
CONTINUOUS
62
7
10
  0.12970000
20
 -0.07710000
30
  0.00000000
11
  0.12470000
21
 -0.07710000
31
  0.00000000
0
LINE
8
DC
6
CONTINUOUS
62
7
10
  0.12470000
20
 -0.07710000
30
  0.00000000
11
  0.12470000
21
 -0.06500000
31
  0.00000000
0
TEXT
8
DC
62
7
10
  0.12210000
20
 -0.06520000
30
  0.00000000
40
  0.00325000
41
  0.60000000
1
A
50
  0.00000000
72
1
73
3
11
  0.12210000
21
 -0.06520000
31
  0.00000000
0
LINE
8
DC
6
CONTINUOUS
62
7
10
  0.12010000
20
 -0.07080000
30
  0.00000000
11
  0.12310000
21
 -0.07080000
31
  0.00000000
0
LINE
8
DC
6
CONTINUOUS
62
7
10
  0.12110000
20
 -0.07240000
30
  0.00000000
11
  0.12410000
21
 -0.07240000
31
  0.00000000
0
TEXT
8
DC
62
7
10
  0.12210000
20
 -0.07300000
30
  0.00000000
40
  0.00300000
41
  0.60000000
1
A
50
  0.00000000
72
1
73
3
11
  0.12210000
21
 -0.07300000
31
  0.00000000
0
LINE
8
DC
6
CONTINUOUS
62
7
10
  0.12620000
20
 -0.06710000
30
  0.00000000
11
  0.12620000
21
 -0.06710000
31
  0.00000000
0
LINE
8
DC
6
CONTINUOUS
62
7
10
  0.12598206
20
 -0.06705000
30
  0.00000000
11
  0.12641794
21
 -0.06705000
31
  0.00000000
0
LINE
8
DC
6
CONTINUOUS
62
7
10
  0.12590000
20
 -0.06700000
30
  0.00000000
11
  0.12650000
21
 -0.06700000
31
  0.00000000
0
LINE
8
DC
6
CONTINUOUS
62
7
10
  0.12584293
20
 -0.06695000
30
  0.00000000
11
  0.12655707
21
 -0.06695000
31
  0.00000000
0
LINE
8
DC
6
CONTINUOUS
62
7
10
  0.12580000
20
 -0.06690000
30
  0.00000000
11
  0.12660000
21
 -0.06690000
31
  0.00000000
0
LINE
8
DC
6
CONTINUOUS
62
7
10
  0.12576699
20
 -0.06685000
30
  0.00000000
11
  0.12663301
21
 -0.06685000
31
  0.00000000
0
LINE
8
DC
6
CONTINUOUS
62
7
10
  0.12574174
20
 -0.06680000
30
  0.00000000
11
  0.12665826
21
 -0.06680000
31
  0.00000000
0
LINE
8
DC
6
CONTINUOUS
62
7
10
  0.12572303
20
 -0.06675000
30
  0.00000000
11
  0.12667697
21
 -0.06675000
31
  0.00000000
0
LINE
8
DC
6
CONTINUOUS
62
7
10
  0.12571010
20
 -0.06670000
30
  0.00000000
11
  0.12668990
21
 -0.06670000
31
  0.00000000
0
LINE
8
DC
6
CONTINUOUS
62
7
10
  0.12570251
20
 -0.06665000
30
  0.00000000
11
  0.12669749
21
 -0.06665000
31
  0.00000000
0
LINE
8
DC
6
CONTINUOUS
62
7
10
  0.12570000
20
 -0.06660000
30
  0.00000000
11
  0.12670000
21
 -0.06660000
31
  0.00000000
0
LINE
8
DC
6
CONTINUOUS
62
7
10
  0.12570251
20
 -0.06655000
30
  0.00000000
11
  0.12669749
21
 -0.06655000
31
  0.00000000
0
LINE
8
DC
6
CONTINUOUS
62
7
10
  0.12571010
20
 -0.06650000
30
  0.00000000
11
  0.12668990
21
 -0.06650000
31
  0.00000000
0
LINE
8
DC
6
CONTINUOUS
62
7
10
  0.12572303
20
 -0.06645000
30
  0.00000000
11
  0.12667697
21
 -0.06645000
31
  0.00000000
0
LINE
8
DC
6
CONTINUOUS
62
7
10
  0.12574174
20
 -0.06640000
30
  0.00000000
11
  0.12665826
21
 -0.06640000
31
  0.00000000
0
LINE
8
DC
6
CONTINUOUS
62
7
10
  0.12576699
20
 -0.06635000
30
  0.00000000
11
  0.12663301
21
 -0.06635000
31
  0.00000000
0
LINE
8
DC
6
CONTINUOUS
62
7
10
  0.12580000
20
 -0.06630000
30
  0.00000000
11
  0.12660000
21
 -0.06630000
31
  0.00000000
0
LINE
8
DC
6
CONTINUOUS
62
7
10
  0.12584293
20
 -0.06625000
30
  0.00000000
11
  0.12655707
21
 -0.06625000
31
  0.00000000
0
LINE
8
DC
6
CONTINUOUS
62
7
10
  0.12590000
20
 -0.06620000
30
  0.00000000
11
  0.12650000
21
 -0.06620000
31
  0.00000000
0
LINE
8
DC
6
CONTINUOUS
62
7
10
  0.12598206
20
 -0.06615000
30
  0.00000000
11
  0.12641794
21
 -0.06615000
31
  0.00000000
0
CIRCLE
8
DC
6
CONTINUOUS
62
7
10
  0.12620000
20
 -0.06660000
30
  0.00000000
40
  0.00050000
0
LINE
8
DC
6
CONTINUOUS
62
7
10
  0.12780000
20
 -0.06710000
30
  0.00000000
11
  0.12780000
21
 -0.06710000
31
  0.00000000
0
LINE
8
DC
6
CONTINUOUS
62
7
10
  0.12758206
20
 -0.06705000
30
  0.00000000
11
  0.12801794
21
 -0.06705000
31
  0.00000000
0
LINE
8
DC
6
CONTINUOUS
62
7
10
  0.12750000
20
 -0.06700000
30
  0.00000000
11
  0.12810000
21
 -0.06700000
31
  0.00000000
0
LINE
8
DC
6
CONTINUOUS
62
7
10
  0.12744293
20
 -0.06695000
30
  0.00000000
11
  0.12815707
21
 -0.06695000
31
  0.00000000
0
LINE
8
DC
6
CONTINUOUS
62
7
10
  0.12740000
20
 -0.06690000
30
  0.00000000
11
  0.12820000
21
 -0.06690000
31
  0.00000000
0
LINE
8
DC
6
CONTINUOUS
62
7
10
  0.12736699
20
 -0.06685000
30
  0.00000000
11
  0.12823301
21
 -0.06685000
31
  0.00000000
0
LINE
8
DC
6
CONTINUOUS
62
7
10
  0.12734174
20
 -0.06680000
30
  0.00000000
11
  0.12825826
21
 -0.06680000
31
  0.00000000
0
LINE
8
DC
6
CONTINUOUS
62
7
10
  0.12732303
20
 -0.06675000
30
  0.00000000
11
  0.12827697
21
 -0.06675000
31
  0.00000000
0
LINE
8
DC
6
CONTINUOUS
62
7
10
  0.12731010
20
 -0.06670000
30
  0.00000000
11
  0.12828990
21
 -0.06670000
31
  0.00000000
0
LINE
8
DC
6
CONTINUOUS
62
7
10
  0.12730251
20
 -0.06665000
30
  0.00000000
11
  0.12829749
21
 -0.06665000
31
  0.00000000
0
LINE
8
DC
6
CONTINUOUS
62
7
10
  0.12730000
20
 -0.06660000
30
  0.00000000
11
  0.12830000
21
 -0.06660000
31
  0.00000000
0
LINE
8
DC
6
CONTINUOUS
62
7
10
  0.12730251
20
 -0.06655000
30
  0.00000000
11
  0.12829749
21
 -0.06655000
31
  0.00000000
0
LINE
8
DC
6
CONTINUOUS
62
7
10
  0.12731010
20
 -0.06650000
30
  0.00000000
11
  0.12828990
21
 -0.06650000
31
  0.00000000
0
LINE
8
DC
6
CONTINUOUS
62
7
10
  0.12732303
20
 -0.06645000
30
  0.00000000
11
  0.12827697
21
 -0.06645000
31
  0.00000000
0
LINE
8
DC
6
CONTINUOUS
62
7
10
  0.12734174
20
 -0.06640000
30
  0.00000000
11
  0.12825826
21
 -0.06640000
31
  0.00000000
0
LINE
8
DC
6
CONTINUOUS
62
7
10
  0.12736699
20
 -0.06635000
30
  0.00000000
11
  0.12823301
21
 -0.06635000
31
  0.00000000
0
LINE
8
DC
6
CONTINUOUS
62
7
10
  0.12740000
20
 -0.06630000
30
  0.00000000
11
  0.12820000
21
 -0.06630000
31
  0.00000000
0
LINE
8
DC
6
CONTINUOUS
62
7
10
  0.12744293
20
 -0.06625000
30
  0.00000000
11
  0.12815707
21
 -0.06625000
31
  0.00000000
0
LINE
8
DC
6
CONTINUOUS
62
7
10
  0.12750000
20
 -0.06620000
30
  0.00000000
11
  0.12810000
21
 -0.06620000
31
  0.00000000
0
LINE
8
DC
6
CONTINUOUS
62
7
10
  0.12758206
20
 -0.06615000
30
  0.00000000
11
  0.12801794
21
 -0.06615000
31
  0.00000000
0
CIRCLE
8
DC
6
CONTINUOUS
62
7
10
  0.12780000
20
 -0.06660000
30
  0.00000000
40
  0.00050000
0
LINE
8
DC
6
CONTINUOUS
62
7
10
  0.12560000
20
 -0.06710000
30
  0.00000000
11
  0.12860000
21
 -0.06710000
31
  0.00000000
0
LINE
8
DC
6
CONTINUOUS
62
7
10
  0.12610000
20
 -0.06950000
30
  0.00000000
11
  0.12610000
21
 -0.06950000
31
  0.00000000
0
LINE
8
DC
6
CONTINUOUS
62
7
10
  0.12593417
20
 -0.06945000
30
  0.00000000
11
  0.12626583
21
 -0.06945000
31
  0.00000000
0
LINE
8
DC
6
CONTINUOUS
62
7
10
  0.12587639
20
 -0.06940000
30
  0.00000000
11
  0.12632361
21
 -0.06940000
31
  0.00000000
0
LINE
8
DC
6
CONTINUOUS
62
7
10
  0.12584019
20
 -0.06935000
30
  0.00000000
11
  0.12635981
21
 -0.06935000
31
  0.00000000
0
LINE
8
DC
6
CONTINUOUS
62
7
10
  0.12581716
20
 -0.06930000
30
  0.00000000
11
  0.12638284
21
 -0.06930000
31
  0.00000000
0
LINE
8
DC
6
CONTINUOUS
62
7
10
  0.12580420
20
 -0.06925000
30
  0.00000000
11
  0.12639580
21
 -0.06925000
31
  0.00000000
0
LINE
8
DC
6
CONTINUOUS
62
7
10
  0.12580000
20
 -0.06920000
30
  0.00000000
11
  0.12640000
21
 -0.06920000
31
  0.00000000
0
LINE
8
DC
6
CONTINUOUS
62
7
10
  0.12580420
20
 -0.06915000
30
  0.00000000
11
  0.12639580
21
 -0.06915000
31
  0.00000000
0
LINE
8
DC
6
CONTINUOUS
62
7
10
  0.12581716
20
 -0.06910000
30
  0.00000000
11
  0.12638284
21
 -0.06910000
31
  0.00000000
0
LINE
8
DC
6
CONTINUOUS
62
7
10
  0.12584019
20
 -0.06905000
30
  0.00000000
11
  0.12635981
21
 -0.06905000
31
  0.00000000
0
LINE
8
DC
6
CONTINUOUS
62
7
10
  0.12587639
20
 -0.06900000
30
  0.00000000
11
  0.12632361
21
 -0.06900000
31
  0.00000000
0
LINE
8
DC
6
CONTINUOUS
62
7
10
  0.12593417
20
 -0.06895000
30
  0.00000000
11
  0.12626583
21
 -0.06895000
31
  0.00000000
0
CIRCLE
8
DC
6
CONTINUOUS
62
7
10
  0.12610000
20
 -0.06920000
30
  0.00000000
40
  0.00030000
0
LINE
8
DC
6
CONTINUOUS
62
7
10
  0.12810000
20
 -0.07080000
30
  0.00000000
11
  0.12810000
21
 -0.07080000
31
  0.00000000
0
LINE
8
DC
6
CONTINUOUS
62
7
10
  0.12796771
20
 -0.07075000
30
  0.00000000
11
  0.12823229
21
 -0.07075000
31
  0.00000000
0
LINE
8
DC
6
CONTINUOUS
62
7
10
  0.12792679
20
 -0.07070000
30
  0.00000000
11
  0.12827321
21
 -0.07070000
31
  0.00000000
0
LINE
8
DC
6
CONTINUOUS
62
7
10
  0.12790635
20
 -0.07065000
30
  0.00000000
11
  0.12829365
21
 -0.07065000
31
  0.00000000
0
LINE
8
DC
6
CONTINUOUS
62
7
10
  0.12790000
20
 -0.07060000
30
  0.00000000
11
  0.12830000
21
 -0.07060000
31
  0.00000000
0
LINE
8
DC
6
CONTINUOUS
62
7
10
  0.12790635
20
 -0.07055000
30
  0.00000000
11
  0.12829365
21
 -0.07055000
31
  0.00000000
0
LINE
8
DC
6
CONTINUOUS
62
7
10
  0.12792679
20
 -0.07050000
30
  0.00000000
11
  0.12827321
21
 -0.07050000
31
  0.00000000
0
LINE
8
DC
6
CONTINUOUS
62
7
10
  0.12796771
20
 -0.07045000
30
  0.00000000
11
  0.12823229
21
 -0.07045000
31
  0.00000000
0
CIRCLE
8
DC
6
CONTINUOUS
62
7
10
  0.12810000
20
 -0.07060000
30
  0.00000000
40
  0.00020000
0
LINE
8
DC
6
CONTINUOUS
62
7
10
  0.12610000
20
 -0.07060000
30
  0.00000000
11
  0.12620000
21
 -0.07060000
31
  0.00000000
0
LINE
8
DC
6
CONTINUOUS
62
7
10
  0.12810000
20
 -0.06920000
30
  0.00000000
11
  0.12820000
21
 -0.06920000
31
  0.00000000
0
TEXT
8
DC
62
7
10
  0.12710000
20
 -0.07180000
30
  0.00000000
40
  0.00325000
41
  0.60000000
1
A
50
  0.00000000
72
1
73
3
11
  0.12710000
21
 -0.07180000
31
  0.00000000
0
LINE
8
DC
6
CONTINUOUS
62
7
10
  0.11960000
20
 -0.06500000
30
  0.00000000
11
  0.13460000
21
 -0.06500000
31
  0.00000000
0
LINE
8
DC
6
CONTINUOUS
62
7
10
  0.13460000
20
 -0.06500000
30
  0.00000000
11
  0.13560000
21
 -0.08680000
31
  0.00000000
0
LINE
8
DC
6
CONTINUOUS
62
7
10
  0.13560000
20
 -0.08680000
30
  0.00000000
11
  0.17660000
21
 -0.08680000
31
  0.00000000
0
LINE
8
DC
6
CONTINUOUS
62
7
10
  0.11960000
20
 -0.07700000
30
  0.00000000
11
  0.11860000
21
 -0.07700000
31
  0.00000000
0
LINE
8
DC
6
CONTINUOUS
62
7
10
  0.10920000
20
 -0.07700000
30
  0.00000000
11
  0.11860000
21
 -0.07700000
31
  0.00000000
0
TEXT
8
DC
62
7
10
  0.11860000
20
 -0.07650000
30
  0.00000000
40
  0.00250000
41
  0.60000000
1
    1.60m
50
  0.00000000
72
2
73
0
11
  0.11860000
21
 -0.07650000
31
  0.00000000
0
TEXT
8
DC
62
7
10
  0.13660000
20
 -0.09040000
30
  0.00000000
40
  0.00216667
41
  0.60000000
1
Auffüllung, Ton, schluffig, 
50
  0.00000000
72
0
73
1
11
  0.13660000
21
 -0.09040000
31
  0.00000000
0
TEXT
8
DC
62
7
10
  0.13660000
20
 -0.09350000
30
  0.00000000
40
  0.00216667
41
  0.60000000
1
sandig, Ziegelsplitter
50
  0.00000000
72
0
73
1
11
  0.13660000
21
 -0.09350000
31
  0.00000000
0
TEXT
8
DC
62
7
10
  0.13660000
20
 -0.09660000
30
  0.00000000
40
  0.00216667
41
  0.60000000
1
weich bis steif
50
  0.00000000
72
0
73
1
11
  0.13660000
21
 -0.09660000
31
  0.00000000
0
TEXT
8
DC
62
7
10
  0.13660000
20
 -0.09970000
30
  0.00000000
40
  0.00216667
41
  0.60000000
1
erdfeucht
50
  0.00000000
72
0
73
1
11
  0.13660000
21
 -0.09970000
31
  0.00000000
0
TEXT
8
DC
62
7
10
  0.13660000
20
 -0.10280000
30
  0.00000000
40
  0.00216667
41
  0.60000000
1
dunkelbraun
50
  0.00000000
72
0
73
1
11
  0.13660000
21
 -0.10280000
31
  0.00000000
0
CIRCLE
8
DC
6
CONTINUOUS
62
7
10
  0.18290000
20
 -0.09480000
30
  0.00000000
40
  0.00530000
0
TEXT
8
DC
62
7
10
  0.17990000
20
 -0.09680000
30
  0.00000000
40
  0.00250000
41
  0.60000000
1
[TL]
50
  0.00000000
72
0
73
1
11
  0.17990000
21
 -0.09680000
31
  0.00000000
0
LINE
8
DC
6
CONTINUOUS
62
7
10
  0.17040000
20
 -0.09170000
30
  0.00000000
11
  0.17660000
21
 -0.09170000
31
  0.00000000
0
LINE
8
DC
6
CONTINUOUS
62
7
10
  0.17660000
20
 -0.09170000
30
  0.00000000
11
  0.17660000
21
 -0.09790000
31
  0.00000000
0
LINE
8
DC
6
CONTINUOUS
62
7
10
  0.17660000
20
 -0.09790000
30
  0.00000000
11
  0.17040000
21
 -0.09790000
31
  0.00000000
0
LINE
8
DC
6
CONTINUOUS
62
7
10
  0.17040000
20
 -0.09790000
30
  0.00000000
11
  0.17040000
21
 -0.09170000
31
  0.00000000
0
TEXT
8
DC
62
7
10
  0.17350000
20
 -0.09680000
30
  0.00000000
40
  0.00250000
41
  0.60000000
1
4
50
  0.00000000
72
1
73
1
11
  0.17350000
21
 -0.09680000
31
  0.00000000
0
LINE
8
DC
6
CONTINUOUS
62
7
10
  0.13120000
20
 -0.07700000
30
  0.00000000
11
  0.13120000
21
 -0.07730000
31
  0.00000000
0
LINE
8
DC
6
CONTINUOUS
62
7
10
  0.13120000
20
 -0.07730000
30
  0.00000000
11
  0.13150000
21
 -0.07760000
31
  0.00000000
0
LINE
8
DC
6
CONTINUOUS
62
7
10
  0.13150000
20
 -0.07760000
30
  0.00000000
11
  0.13180000
21
 -0.07790000
31
  0.00000000
0
LINE
8
DC
6
CONTINUOUS
62
7
10
  0.13180000
20
 -0.07790000
30
  0.00000000
11
  0.13190000
21
 -0.07820000
31
  0.00000000
0
LINE
8
DC
6
CONTINUOUS
62
7
10
  0.13190000
20
 -0.07820000
30
  0.00000000
11
  0.13180000
21
 -0.07850000
31
  0.00000000
0
LINE
8
DC
6
CONTINUOUS
62
7
10
  0.13180000
20
 -0.07850000
30
  0.00000000
11
  0.13150000
21
 -0.07880000
31
  0.00000000
0
LINE
8
DC
6
CONTINUOUS
62
7
10
  0.13150000
20
 -0.07880000
30
  0.00000000
11
  0.13120000
21
 -0.07910000
31
  0.00000000
0
LINE
8
DC
6
CONTINUOUS
62
7
10
  0.13120000
20
 -0.07910000
30
  0.00000000
11
  0.13090000
21
 -0.07940000
31
  0.00000000
0
LINE
8
DC
6
CONTINUOUS
62
7
10
  0.13090000
20
 -0.07940000
30
  0.00000000
11
  0.13060000
21
 -0.07970000
31
  0.00000000
0
LINE
8
DC
6
CONTINUOUS
62
7
10
  0.13060000
20
 -0.07970000
30
  0.00000000
11
  0.13050000
21
 -0.08000000
31
  0.00000000
0
LINE
8
DC
6
CONTINUOUS
62
7
10
  0.13050000
20
 -0.08000000
30
  0.00000000
11
  0.13060000
21
 -0.08030000
31
  0.00000000
0
LINE
8
DC
6
CONTINUOUS
62
7
10
  0.13060000
20
 -0.08030000
30
  0.00000000
11
  0.13090000
21
 -0.08060000
31
  0.00000000
0
LINE
8
DC
6
CONTINUOUS
62
7
10
  0.13090000
20
 -0.08060000
30
  0.00000000
11
  0.13120000
21
 -0.08090000
31
  0.00000000
0
LINE
8
DC
6
CONTINUOUS
62
7
10
  0.13120000
20
 -0.08090000
30
  0.00000000
11
  0.13150000
21
 -0.08120000
31
  0.00000000
0
LINE
8
DC
6
CONTINUOUS
62
7
10
  0.13150000
20
 -0.08120000
30
  0.00000000
11
  0.13180000
21
 -0.08150000
31
  0.00000000
0
LINE
8
DC
6
CONTINUOUS
62
7
10
  0.13180000
20
 -0.08150000
30
  0.00000000
11
  0.13190000
21
 -0.08180000
31
  0.00000000
0
LINE
8
DC
6
CONTINUOUS
62
7
10
  0.13190000
20
 -0.08180000
30
  0.00000000
11
  0.13180000
21
 -0.08210000
31
  0.00000000
0
LINE
8
DC
6
CONTINUOUS
62
7
10
  0.13180000
20
 -0.08210000
30
  0.00000000
11
  0.13150000
21
 -0.08240000
31
  0.00000000
0
LINE
8
DC
6
CONTINUOUS
62
7
10
  0.13150000
20
 -0.08240000
30
  0.00000000
11
  0.13120000
21
 -0.08270000
31
  0.00000000
0
LINE
8
DC
6
CONTINUOUS
62
7
10
  0.13120000
20
 -0.08270000
30
  0.00000000
11
  0.13090000
21
 -0.08300000
31
  0.00000000
0
LINE
8
DC
6
CONTINUOUS
62
7
10
  0.13090000
20
 -0.08300000
30
  0.00000000
11
  0.13060000
21
 -0.08330000
31
  0.00000000
0
LINE
8
DC
6
CONTINUOUS
62
7
10
  0.13060000
20
 -0.08330000
30
  0.00000000
11
  0.13050000
21
 -0.08360000
31
  0.00000000
0
LINE
8
DC
6
CONTINUOUS
62
7
10
  0.13050000
20
 -0.08360000
30
  0.00000000
11
  0.13060000
21
 -0.08390000
31
  0.00000000
0
LINE
8
DC
6
CONTINUOUS
62
7
10
  0.13060000
20
 -0.08390000
30
  0.00000000
11
  0.13090000
21
 -0.08420000
31
  0.00000000
0
LINE
8
DC
6
CONTINUOUS
62
7
10
  0.13090000
20
 -0.08420000
30
  0.00000000
11
  0.13120000
21
 -0.08450000
31
  0.00000000
0
LINE
8
DC
6
CONTINUOUS
62
7
10
  0.13120000
20
 -0.08450000
30
  0.00000000
11
  0.13150000
21
 -0.08480000
31
  0.00000000
0
LINE
8
DC
6
CONTINUOUS
62
7
10
  0.13150000
20
 -0.08480000
30
  0.00000000
11
  0.13180000
21
 -0.08510000
31
  0.00000000
0
LINE
8
DC
6
CONTINUOUS
62
7
10
  0.13180000
20
 -0.08510000
30
  0.00000000
11
  0.13190000
21
 -0.08540000
31
  0.00000000
0
LINE
8
DC
6
CONTINUOUS
62
7
10
  0.13190000
20
 -0.08540000
30
  0.00000000
11
  0.13180000
21
 -0.08570000
31
  0.00000000
0
LINE
8
DC
6
CONTINUOUS
62
7
10
  0.13180000
20
 -0.08570000
30
  0.00000000
11
  0.13150000
21
 -0.08600000
31
  0.00000000
0
LINE
8
DC
6
CONTINUOUS
62
7
10
  0.13150000
20
 -0.08600000
30
  0.00000000
11
  0.13120000
21
 -0.08630000
31
  0.00000000
0
LINE
8
DC
6
CONTINUOUS
62
7
10
  0.13120000
20
 -0.08630000
30
  0.00000000
11
  0.13090000
21
 -0.08660000
31
  0.00000000
0
LINE
8
DC
6
CONTINUOUS
62
7
10
  0.13090000
20
 -0.08660000
30
  0.00000000
11
  0.13060000
21
 -0.08690000
31
  0.00000000
0
LINE
8
DC
6
CONTINUOUS
62
7
10
  0.13060000
20
 -0.08690000
30
  0.00000000
11
  0.13050000
21
 -0.08720000
31
  0.00000000
0
LINE
8
DC
6
CONTINUOUS
62
7
10
  0.13050000
20
 -0.08720000
30
  0.00000000
11
  0.13060000
21
 -0.08750000
31
  0.00000000
0
LINE
8
DC
6
CONTINUOUS
62
7
10
  0.13060000
20
 -0.08750000
30
  0.00000000
11
  0.13090000
21
 -0.08780000
31
  0.00000000
0
LINE
8
DC
6
CONTINUOUS
62
7
10
  0.13090000
20
 -0.08780000
30
  0.00000000
11
  0.13120000
21
 -0.08810000
31
  0.00000000
0
LINE
8
DC
6
CONTINUOUS
62
7
10
  0.13120000
20
 -0.08810000
30
  0.00000000
11
  0.13150000
21
 -0.08840000
31
  0.00000000
0
LINE
8
DC
6
CONTINUOUS
62
7
10
  0.13150000
20
 -0.08840000
30
  0.00000000
11
  0.13180000
21
 -0.08870000
31
  0.00000000
0
LINE
8
DC
6
CONTINUOUS
62
7
10
  0.13180000
20
 -0.08870000
30
  0.00000000
11
  0.13190000
21
 -0.08900000
31
  0.00000000
0
LINE
8
DC
6
CONTINUOUS
62
7
10
  0.13190000
20
 -0.08900000
30
  0.00000000
11
  0.13180000
21
 -0.08930000
31
  0.00000000
0
LINE
8
DC
6
CONTINUOUS
62
7
10
  0.13180000
20
 -0.08930000
30
  0.00000000
11
  0.13150000
21
 -0.08960000
31
  0.00000000
0
LINE
8
DC
6
CONTINUOUS
62
7
10
  0.13150000
20
 -0.08960000
30
  0.00000000
11
  0.13120000
21
 -0.08990000
31
  0.00000000
0
LINE
8
DC
6
CONTINUOUS
62
7
10
  0.13120000
20
 -0.08990000
30
  0.00000000
11
  0.13090000
21
 -0.09020000
31
  0.00000000
0
LINE
8
DC
6
CONTINUOUS
62
7
10
  0.13090000
20
 -0.09020000
30
  0.00000000
11
  0.13060000
21
 -0.09050000
31
  0.00000000
0
LINE
8
DC
6
CONTINUOUS
62
7
10
  0.13060000
20
 -0.09050000
30
  0.00000000
11
  0.13050000
21
 -0.09080000
31
  0.00000000
0
LINE
8
DC
6
CONTINUOUS
62
7
10
  0.13050000
20
 -0.09080000
30
  0.00000000
11
  0.13060000
21
 -0.09110000
31
  0.00000000
0
LINE
8
DC
6
CONTINUOUS
62
7
10
  0.13060000
20
 -0.09110000
30
  0.00000000
11
  0.13090000
21
 -0.09140000
31
  0.00000000
0
LINE
8
DC
6
CONTINUOUS
62
7
10
  0.13090000
20
 -0.09140000
30
  0.00000000
11
  0.13120000
21
 -0.09170000
31
  0.00000000
0
LINE
8
DC
6
CONTINUOUS
62
7
10
  0.13120000
20
 -0.09170000
30
  0.00000000
11
  0.13150000
21
 -0.09200000
31
  0.00000000
0
LINE
8
DC
6
CONTINUOUS
62
7
10
  0.13150000
20
 -0.09200000
30
  0.00000000
11
  0.13180000
21
 -0.09230000
31
  0.00000000
0
LINE
8
DC
6
CONTINUOUS
62
7
10
  0.13180000
20
 -0.09230000
30
  0.00000000
11
  0.13190000
21
 -0.09260000
31
  0.00000000
0
LINE
8
DC
6
CONTINUOUS
62
7
10
  0.13190000
20
 -0.09260000
30
  0.00000000
11
  0.13180000
21
 -0.09290000
31
  0.00000000
0
LINE
8
DC
6
CONTINUOUS
62
7
10
  0.13180000
20
 -0.09290000
30
  0.00000000
11
  0.13150000
21
 -0.09320000
31
  0.00000000
0
LINE
8
DC
6
CONTINUOUS
62
7
10
  0.13150000
20
 -0.09320000
30
  0.00000000
11
  0.13120000
21
 -0.09350000
31
  0.00000000
0
LINE
8
DC
6
CONTINUOUS
62
7
10
  0.13120000
20
 -0.09350000
30
  0.00000000
11
  0.13090000
21
 -0.09380000
31
  0.00000000
0
LINE
8
DC
6
CONTINUOUS
62
7
10
  0.13090000
20
 -0.09380000
30
  0.00000000
11
  0.13060000
21
 -0.09410000
31
  0.00000000
0
LINE
8
DC
6
CONTINUOUS
62
7
10
  0.13060000
20
 -0.09410000
30
  0.00000000
11
  0.13050000
21
 -0.09440000
31
  0.00000000
0
LINE
8
DC
6
CONTINUOUS
62
7
10
  0.13050000
20
 -0.09440000
30
  0.00000000
11
  0.13060000
21
 -0.09470000
31
  0.00000000
0
LINE
8
DC
6
CONTINUOUS
62
7
10
  0.13060000
20
 -0.09470000
30
  0.00000000
11
  0.13090000
21
 -0.09500000
31
  0.00000000
0
LINE
8
DC
6
CONTINUOUS
62
7
10
  0.13090000
20
 -0.09500000
30
  0.00000000
11
  0.13120000
21
 -0.09530000
31
  0.00000000
0
LINE
8
DC
6
CONTINUOUS
62
7
10
  0.13120000
20
 -0.09530000
30
  0.00000000
11
  0.13150000
21
 -0.09560000
31
  0.00000000
0
LINE
8
DC
6
CONTINUOUS
62
7
10
  0.13150000
20
 -0.09560000
30
  0.00000000
11
  0.13180000
21
 -0.09590000
31
  0.00000000
0
LINE
8
DC
6
CONTINUOUS
62
7
10
  0.13180000
20
 -0.09590000
30
  0.00000000
11
  0.13190000
21
 -0.09620000
31
  0.00000000
0
LINE
8
DC
6
CONTINUOUS
62
7
10
  0.13190000
20
 -0.09620000
30
  0.00000000
11
  0.13180000
21
 -0.09650000
31
  0.00000000
0
LINE
8
DC
6
CONTINUOUS
62
7
10
  0.13180000
20
 -0.09650000
30
  0.00000000
11
  0.13150000
21
 -0.09680000
31
  0.00000000
0
LINE
8
DC
6
CONTINUOUS
62
7
10
  0.13150000
20
 -0.09680000
30
  0.00000000
11
  0.13120000
21
 -0.09710000
31
  0.00000000
0
LINE
8
DC
6
CONTINUOUS
62
7
10
  0.13120000
20
 -0.09710000
30
  0.00000000
11
  0.13090000
21
 -0.09740000
31
  0.00000000
0
LINE
8
DC
6
CONTINUOUS
62
7
10
  0.13090000
20
 -0.09740000
30
  0.00000000
11
  0.13060000
21
 -0.09770000
31
  0.00000000
0
LINE
8
DC
6
CONTINUOUS
62
7
10
  0.13060000
20
 -0.09770000
30
  0.00000000
11
  0.13050000
21
 -0.09800000
31
  0.00000000
0
LINE
8
DC
6
CONTINUOUS
62
7
10
  0.13050000
20
 -0.09800000
30
  0.00000000
11
  0.13060000
21
 -0.09830000
31
  0.00000000
0
LINE
8
DC
6
CONTINUOUS
62
7
10
  0.13060000
20
 -0.09830000
30
  0.00000000
11
  0.13090000
21
 -0.09860000
31
  0.00000000
0
LINE
8
DC
6
CONTINUOUS
62
7
10
  0.13090000
20
 -0.09860000
30
  0.00000000
11
  0.13120000
21
 -0.09890000
31
  0.00000000
0
LINE
8
DC
6
CONTINUOUS
62
7
10
  0.13120000
20
 -0.09890000
30
  0.00000000
11
  0.13150000
21
 -0.09920000
31
  0.00000000
0
LINE
8
DC
6
CONTINUOUS
62
7
10
  0.13150000
20
 -0.09920000
30
  0.00000000
11
  0.13180000
21
 -0.09950000
31
  0.00000000
0
LINE
8
DC
6
CONTINUOUS
62
7
10
  0.13180000
20
 -0.09950000
30
  0.00000000
11
  0.13190000
21
 -0.09980000
31
  0.00000000
0
LINE
8
DC
6
CONTINUOUS
62
7
10
  0.13190000
20
 -0.09980000
30
  0.00000000
11
  0.13180000
21
 -0.10010000
31
  0.00000000
0
LINE
8
DC
6
CONTINUOUS
62
7
10
  0.13180000
20
 -0.10010000
30
  0.00000000
11
  0.13150000
21
 -0.10040000
31
  0.00000000
0
LINE
8
DC
6
CONTINUOUS
62
7
10
  0.13150000
20
 -0.10040000
30
  0.00000000
11
  0.13120000
21
 -0.10070000
31
  0.00000000
0
LINE
8
DC
6
CONTINUOUS
62
7
10
  0.13120000
20
 -0.10070000
30
  0.00000000
11
  0.13090000
21
 -0.10100000
31
  0.00000000
0
LINE
8
DC
6
CONTINUOUS
62
7
10
  0.13090000
20
 -0.10100000
30
  0.00000000
11
  0.13060000
21
 -0.10130000
31
  0.00000000
0
LINE
8
DC
6
CONTINUOUS
62
7
10
  0.13060000
20
 -0.10130000
30
  0.00000000
11
  0.13050000
21
 -0.10160000
31
  0.00000000
0
LINE
8
DC
6
CONTINUOUS
62
7
10
  0.13050000
20
 -0.10160000
30
  0.00000000
11
  0.13060000
21
 -0.10190000
31
  0.00000000
0
LINE
8
DC
6
CONTINUOUS
62
7
10
  0.13060000
20
 -0.10190000
30
  0.00000000
11
  0.13090000
21
 -0.10220000
31
  0.00000000
0
LINE
8
DC
6
CONTINUOUS
62
7
10
  0.13090000
20
 -0.10220000
30
  0.00000000
11
  0.13120000
21
 -0.10250000
31
  0.00000000
0
LINE
8
DC
6
CONTINUOUS
62
7
10
  0.13120000
20
 -0.10250000
30
  0.00000000
11
  0.13150000
21
 -0.10280000
31
  0.00000000
0
LINE
8
DC
6
CONTINUOUS
62
7
10
  0.13150000
20
 -0.10280000
30
  0.00000000
11
  0.13180000
21
 -0.10310000
31
  0.00000000
0
LINE
8
DC
6
CONTINUOUS
62
7
10
  0.13180000
20
 -0.10310000
30
  0.00000000
11
  0.13190000
21
 -0.10340000
31
  0.00000000
0
LINE
8
DC
6
CONTINUOUS
62
7
10
  0.13190000
20
 -0.10340000
30
  0.00000000
11
  0.13180000
21
 -0.10370000
31
  0.00000000
0
LINE
8
DC
6
CONTINUOUS
62
7
10
  0.13180000
20
 -0.10370000
30
  0.00000000
11
  0.13150000
21
 -0.10400000
31
  0.00000000
0
LINE
8
DC
6
CONTINUOUS
62
7
10
  0.13150000
20
 -0.10400000
30
  0.00000000
11
  0.13120000
21
 -0.10430000
31
  0.00000000
0
LINE
8
DC
6
CONTINUOUS
62
7
10
  0.13120000
20
 -0.10430000
30
  0.00000000
11
  0.13090000
21
 -0.10460000
31
  0.00000000
0
LINE
8
DC
6
CONTINUOUS
62
7
10
  0.13090000
20
 -0.10460000
30
  0.00000000
11
  0.13060000
21
 -0.10490000
31
  0.00000000
0
LINE
8
DC
6
CONTINUOUS
62
7
10
  0.13060000
20
 -0.10490000
30
  0.00000000
11
  0.13050000
21
 -0.10520000
31
  0.00000000
0
LINE
8
DC
6
CONTINUOUS
62
7
10
  0.13050000
20
 -0.10520000
30
  0.00000000
11
  0.13060000
21
 -0.10550000
31
  0.00000000
0
LINE
8
DC
6
CONTINUOUS
62
7
10
  0.13060000
20
 -0.10550000
30
  0.00000000
11
  0.13090000
21
 -0.10580000
31
  0.00000000
0
LINE
8
DC
6
CONTINUOUS
62
7
10
  0.13090000
20
 -0.10580000
30
  0.00000000
11
  0.13120000
21
 -0.10610000
31
  0.00000000
0
LINE
8
DC
6
CONTINUOUS
62
7
10
  0.13120000
20
 -0.10610000
30
  0.00000000
11
  0.13150000
21
 -0.10640000
31
  0.00000000
0
LINE
8
DC
6
CONTINUOUS
62
7
10
  0.13150000
20
 -0.10640000
30
  0.00000000
11
  0.13180000
21
 -0.10670000
31
  0.00000000
0
LINE
8
DC
6
CONTINUOUS
62
7
10
  0.13180000
20
 -0.10670000
30
  0.00000000
11
  0.13190000
21
 -0.10700000
31
  0.00000000
0
LINE
8
DC
6
CONTINUOUS
62
7
10
  0.13190000
20
 -0.10700000
30
  0.00000000
11
  0.13180000
21
 -0.10730000
31
  0.00000000
0
LINE
8
DC
6
CONTINUOUS
62
7
10
  0.13180000
20
 -0.10730000
30
  0.00000000
11
  0.13150000
21
 -0.10760000
31
  0.00000000
0
LINE
8
DC
6
CONTINUOUS
62
7
10
  0.13150000
20
 -0.10760000
30
  0.00000000
11
  0.13120000
21
 -0.10790000
31
  0.00000000
0
LINE
8
DC
6
CONTINUOUS
62
7
10
  0.13120000
20
 -0.10790000
30
  0.00000000
11
  0.13090000
21
 -0.10820000
31
  0.00000000
0
LINE
8
DC
6
CONTINUOUS
62
7
10
  0.13090000
20
 -0.10820000
30
  0.00000000
11
  0.13060000
21
 -0.10850000
31
  0.00000000
0
LINE
8
DC
6
CONTINUOUS
62
7
10
  0.13060000
20
 -0.10850000
30
  0.00000000
11
  0.13050000
21
 -0.10880000
31
  0.00000000
0
LINE
8
DC
6
CONTINUOUS
62
7
10
  0.13050000
20
 -0.10880000
30
  0.00000000
11
  0.13060000
21
 -0.10910000
31
  0.00000000
0
LINE
8
DC
6
CONTINUOUS
62
7
10
  0.13060000
20
 -0.10910000
30
  0.00000000
11
  0.13090000
21
 -0.10940000
31
  0.00000000
0
LINE
8
DC
6
CONTINUOUS
62
7
10
  0.13090000
20
 -0.10940000
30
  0.00000000
11
  0.13120000
21
 -0.10970000
31
  0.00000000
0
LINE
8
DC
6
CONTINUOUS
62
7
10
  0.13120000
20
 -0.10970000
30
  0.00000000
11
  0.13150000
21
 -0.11000000
31
  0.00000000
0
LINE
8
DC
6
CONTINUOUS
62
7
10
  0.13150000
20
 -0.11000000
30
  0.00000000
11
  0.13180000
21
 -0.11030000
31
  0.00000000
0
LINE
8
DC
6
CONTINUOUS
62
7
10
  0.13180000
20
 -0.11030000
30
  0.00000000
11
  0.13190000
21
 -0.11060000
31
  0.00000000
0
LINE
8
DC
6
CONTINUOUS
62
7
10
  0.13190000
20
 -0.11060000
30
  0.00000000
11
  0.13180000
21
 -0.11090000
31
  0.00000000
0
LINE
8
DC
6
CONTINUOUS
62
7
10
  0.13180000
20
 -0.11090000
30
  0.00000000
11
  0.13150000
21
 -0.11120000
31
  0.00000000
0
LINE
8
DC
6
CONTINUOUS
62
7
10
  0.13150000
20
 -0.11120000
30
  0.00000000
11
  0.13120000
21
 -0.11150000
31
  0.00000000
0
LINE
8
DC
6
CONTINUOUS
62
7
10
  0.13120000
20
 -0.11150000
30
  0.00000000
11
  0.13090000
21
 -0.11180000
31
  0.00000000
0
LINE
8
DC
6
CONTINUOUS
62
7
10
  0.13090000
20
 -0.11180000
30
  0.00000000
11
  0.13060000
21
 -0.11210000
31
  0.00000000
0
LINE
8
DC
6
CONTINUOUS
62
7
10
  0.13060000
20
 -0.11210000
30
  0.00000000
11
  0.13050000
21
 -0.11240000
31
  0.00000000
0
LINE
8
DC
6
CONTINUOUS
62
7
10
  0.13050000
20
 -0.11240000
30
  0.00000000
11
  0.13060000
21
 -0.11270000
31
  0.00000000
0
LINE
8
DC
6
CONTINUOUS
62
7
10
  0.13060000
20
 -0.11270000
30
  0.00000000
11
  0.13090000
21
 -0.11300000
31
  0.00000000
0
LINE
8
DC
6
CONTINUOUS
62
7
10
  0.13090000
20
 -0.11300000
30
  0.00000000
11
  0.13120000
21
 -0.11330000
31
  0.00000000
0
LINE
8
DC
6
CONTINUOUS
62
7
10
  0.13120000
20
 -0.11330000
30
  0.00000000
11
  0.13150000
21
 -0.11360000
31
  0.00000000
0
LINE
8
DC
6
CONTINUOUS
62
7
10
  0.13150000
20
 -0.11360000
30
  0.00000000
11
  0.13180000
21
 -0.11390000
31
  0.00000000
0
LINE
8
DC
6
CONTINUOUS
62
7
10
  0.13180000
20
 -0.11390000
30
  0.00000000
11
  0.13190000
21
 -0.11420000
31
  0.00000000
0
LINE
8
DC
6
CONTINUOUS
62
7
10
  0.13190000
20
 -0.11420000
30
  0.00000000
11
  0.13180000
21
 -0.11450000
31
  0.00000000
0
LINE
8
DC
6
CONTINUOUS
62
7
10
  0.13180000
20
 -0.11450000
30
  0.00000000
11
  0.13150000
21
 -0.11480000
31
  0.00000000
0
LINE
8
DC
6
CONTINUOUS
62
7
10
  0.13150000
20
 -0.11480000
30
  0.00000000
11
  0.13120000
21
 -0.11510000
31
  0.00000000
0
LINE
8
DC
6
CONTINUOUS
62
7
10
  0.13120000
20
 -0.11510000
30
  0.00000000
11
  0.13090000
21
 -0.11540000
31
  0.00000000
0
LINE
8
DC
6
CONTINUOUS
62
7
10
  0.13090000
20
 -0.11540000
30
  0.00000000
11
  0.13060000
21
 -0.11570000
31
  0.00000000
0
LINE
8
DC
6
CONTINUOUS
62
7
10
  0.13060000
20
 -0.11570000
30
  0.00000000
11
  0.13050000
21
 -0.11600000
31
  0.00000000
0
LINE
8
DC
6
CONTINUOUS
62
7
10
  0.13050000
20
 -0.11600000
30
  0.00000000
11
  0.13060000
21
 -0.11630000
31
  0.00000000
0
LINE
8
DC
6
CONTINUOUS
62
7
10
  0.13060000
20
 -0.11630000
30
  0.00000000
11
  0.13090000
21
 -0.11660000
31
  0.00000000
0
LINE
8
DC
6
CONTINUOUS
62
7
10
  0.13090000
20
 -0.11660000
30
  0.00000000
11
  0.13120000
21
 -0.11690000
31
  0.00000000
0
LINE
8
DC
6
CONTINUOUS
62
7
10
  0.13120000
20
 -0.11690000
30
  0.00000000
11
  0.13150000
21
 -0.11720000
31
  0.00000000
0
LINE
8
DC
6
CONTINUOUS
62
7
10
  0.13150000
20
 -0.11720000
30
  0.00000000
11
  0.13180000
21
 -0.11750000
31
  0.00000000
0
LINE
8
DC
6
CONTINUOUS
62
7
10
  0.13180000
20
 -0.11750000
30
  0.00000000
11
  0.13190000
21
 -0.11780000
31
  0.00000000
0
LINE
8
DC
6
CONTINUOUS
62
7
10
  0.13190000
20
 -0.11780000
30
  0.00000000
11
  0.13180000
21
 -0.11810000
31
  0.00000000
0
LINE
8
DC
6
CONTINUOUS
62
7
10
  0.13180000
20
 -0.11810000
30
  0.00000000
11
  0.13150000
21
 -0.11840000
31
  0.00000000
0
LINE
8
DC
6
CONTINUOUS
62
7
10
  0.13150000
20
 -0.11840000
30
  0.00000000
11
  0.13120000
21
 -0.11870000
31
  0.00000000
0
LINE
8
DC
6
CONTINUOUS
62
7
10
  0.13120000
20
 -0.11870000
30
  0.00000000
11
  0.13090000
21
 -0.11900000
31
  0.00000000
0
LINE
8
DC
6
CONTINUOUS
62
7
10
  0.13090000
20
 -0.11900000
30
  0.00000000
11
  0.13060000
21
 -0.11930000
31
  0.00000000
0
LINE
8
DC
6
CONTINUOUS
62
7
10
  0.13060000
20
 -0.11930000
30
  0.00000000
11
  0.13050000
21
 -0.11960000
31
  0.00000000
0
LINE
8
DC
6
CONTINUOUS
62
7
10
  0.13050000
20
 -0.11960000
30
  0.00000000
11
  0.13060000
21
 -0.11990000
31
  0.00000000
0
LINE
8
DC
6
CONTINUOUS
62
7
10
  0.13060000
20
 -0.11990000
30
  0.00000000
11
  0.13090000
21
 -0.12020000
31
  0.00000000
0
LINE
8
DC
6
CONTINUOUS
62
7
10
  0.13090000
20
 -0.12020000
30
  0.00000000
11
  0.13120000
21
 -0.12050000
31
  0.00000000
0
LINE
8
DC
6
CONTINUOUS
62
7
10
  0.13120000
20
 -0.12050000
30
  0.00000000
11
  0.13150000
21
 -0.12080000
31
  0.00000000
0
LINE
8
DC
6
CONTINUOUS
62
7
10
  0.13150000
20
 -0.12080000
30
  0.00000000
11
  0.13180000
21
 -0.12110000
31
  0.00000000
0
LINE
8
DC
6
CONTINUOUS
62
7
10
  0.13180000
20
 -0.12110000
30
  0.00000000
11
  0.13190000
21
 -0.12140000
31
  0.00000000
0
LINE
8
DC
6
CONTINUOUS
62
7
10
  0.13190000
20
 -0.12140000
30
  0.00000000
11
  0.13180000
21
 -0.12170000
31
  0.00000000
0
LINE
8
DC
6
CONTINUOUS
62
7
10
  0.13180000
20
 -0.12170000
30
  0.00000000
11
  0.13150000
21
 -0.12200000
31
  0.00000000
0
LINE
8
DC
6
CONTINUOUS
62
7
10
  0.13150000
20
 -0.12200000
30
  0.00000000
11
  0.13120000
21
 -0.12230000
31
  0.00000000
0
LINE
8
DC
6
CONTINUOUS
62
7
10
  0.13120000
20
 -0.12230000
30
  0.00000000
11
  0.13090000
21
 -0.12260000
31
  0.00000000
0
LINE
8
DC
6
CONTINUOUS
62
7
10
  0.13090000
20
 -0.12260000
30
  0.00000000
11
  0.13060000
21
 -0.12290000
31
  0.00000000
0
LINE
8
DC
6
CONTINUOUS
62
7
10
  0.13060000
20
 -0.12290000
30
  0.00000000
11
  0.13050000
21
 -0.12320000
31
  0.00000000
0
LINE
8
DC
6
CONTINUOUS
62
7
10
  0.13050000
20
 -0.12320000
30
  0.00000000
11
  0.13060000
21
 -0.12350000
31
  0.00000000
0
LINE
8
DC
6
CONTINUOUS
62
7
10
  0.13060000
20
 -0.12350000
30
  0.00000000
11
  0.13090000
21
 -0.12380000
31
  0.00000000
0
LINE
8
DC
6
CONTINUOUS
62
7
10
  0.13090000
20
 -0.12380000
30
  0.00000000
11
  0.13120000
21
 -0.12410000
31
  0.00000000
0
LINE
8
DC
6
CONTINUOUS
62
7
10
  0.13120000
20
 -0.12410000
30
  0.00000000
11
  0.13150000
21
 -0.12440000
31
  0.00000000
0
LINE
8
DC
6
CONTINUOUS
62
7
10
  0.13150000
20
 -0.12440000
30
  0.00000000
11
  0.13180000
21
 -0.12470000
31
  0.00000000
0
LINE
8
DC
6
CONTINUOUS
62
7
10
  0.13180000
20
 -0.12470000
30
  0.00000000
11
  0.13190000
21
 -0.12500000
31
  0.00000000
0
LINE
8
DC
6
CONTINUOUS
62
7
10
  0.13190000
20
 -0.12500000
30
  0.00000000
11
  0.13180000
21
 -0.12530000
31
  0.00000000
0
LINE
8
DC
6
CONTINUOUS
62
7
10
  0.13180000
20
 -0.12530000
30
  0.00000000
11
  0.13150000
21
 -0.12560000
31
  0.00000000
0
LINE
8
DC
6
CONTINUOUS
62
7
10
  0.13150000
20
 -0.12560000
30
  0.00000000
11
  0.13120000
21
 -0.12590000
31
  0.00000000
0
LINE
8
DC
6
CONTINUOUS
62
7
10
  0.13120000
20
 -0.12590000
30
  0.00000000
11
  0.13090000
21
 -0.12620000
31
  0.00000000
0
LINE
8
DC
6
CONTINUOUS
62
7
10
  0.13090000
20
 -0.12620000
30
  0.00000000
11
  0.13060000
21
 -0.12650000
31
  0.00000000
0
LINE
8
DC
6
CONTINUOUS
62
7
10
  0.13060000
20
 -0.12650000
30
  0.00000000
11
  0.13050000
21
 -0.12680000
31
  0.00000000
0
LINE
8
DC
6
CONTINUOUS
62
7
10
  0.13050000
20
 -0.12680000
30
  0.00000000
11
  0.13060000
21
 -0.12710000
31
  0.00000000
0
LINE
8
DC
6
CONTINUOUS
62
7
10
  0.13060000
20
 -0.12710000
30
  0.00000000
11
  0.13090000
21
 -0.12740000
31
  0.00000000
0
LINE
8
DC
6
CONTINUOUS
62
7
10
  0.13090000
20
 -0.12740000
30
  0.00000000
11
  0.13120000
21
 -0.12770000
31
  0.00000000
0
LINE
8
DC
6
CONTINUOUS
62
7
10
  0.13120000
20
 -0.12770000
30
  0.00000000
11
  0.13150000
21
 -0.12800000
31
  0.00000000
0
LINE
8
DC
6
CONTINUOUS
62
7
10
  0.13150000
20
 -0.12800000
30
  0.00000000
11
  0.13180000
21
 -0.12830000
31
  0.00000000
0
LINE
8
DC
6
CONTINUOUS
62
7
10
  0.13180000
20
 -0.12830000
30
  0.00000000
11
  0.13190000
21
 -0.12860000
31
  0.00000000
0
LINE
8
DC
6
CONTINUOUS
62
7
10
  0.13190000
20
 -0.12860000
30
  0.00000000
11
  0.13180000
21
 -0.12890000
31
  0.00000000
0
LINE
8
DC
6
CONTINUOUS
62
7
10
  0.13180000
20
 -0.12890000
30
  0.00000000
11
  0.13150000
21
 -0.12920000
31
  0.00000000
0
LINE
8
DC
6
CONTINUOUS
62
7
10
  0.13150000
20
 -0.12920000
30
  0.00000000
11
  0.13120000
21
 -0.12950000
31
  0.00000000
0
LINE
8
DC
6
CONTINUOUS
62
7
10
  0.13120000
20
 -0.12950000
30
  0.00000000
11
  0.13090000
21
 -0.12980000
31
  0.00000000
0
LINE
8
DC
6
CONTINUOUS
62
7
10
  0.13090000
20
 -0.12980000
30
  0.00000000
11
  0.13060000
21
 -0.13010000
31
  0.00000000
0
LINE
8
DC
6
CONTINUOUS
62
7
10
  0.13060000
20
 -0.13010000
30
  0.00000000
11
  0.13050000
21
 -0.13040000
31
  0.00000000
0
LINE
8
DC
6
CONTINUOUS
62
7
10
  0.13050000
20
 -0.13040000
30
  0.00000000
11
  0.13060000
21
 -0.13070000
31
  0.00000000
0
LINE
8
DC
6
CONTINUOUS
62
7
10
  0.13060000
20
 -0.13070000
30
  0.00000000
11
  0.13090000
21
 -0.13100000
31
  0.00000000
0
LINE
8
DC
6
CONTINUOUS
62
7
10
  0.13090000
20
 -0.13100000
30
  0.00000000
11
  0.13120000
21
 -0.13130000
31
  0.00000000
0
LINE
8
DC
6
CONTINUOUS
62
7
10
  0.13120000
20
 -0.13130000
30
  0.00000000
11
  0.13150000
21
 -0.13160000
31
  0.00000000
0
LINE
8
DC
6
CONTINUOUS
62
7
10
  0.13150000
20
 -0.13160000
30
  0.00000000
11
  0.13180000
21
 -0.13190000
31
  0.00000000
0
LINE
8
DC
6
CONTINUOUS
62
7
10
  0.13180000
20
 -0.13190000
30
  0.00000000
11
  0.13190000
21
 -0.13220000
31
  0.00000000
0
LINE
8
DC
6
CONTINUOUS
62
7
10
  0.13190000
20
 -0.13220000
30
  0.00000000
11
  0.13180000
21
 -0.13250000
31
  0.00000000
0
LINE
8
DC
6
CONTINUOUS
62
7
10
  0.13180000
20
 -0.13250000
30
  0.00000000
11
  0.13150000
21
 -0.13280000
31
  0.00000000
0
LINE
8
DC
6
CONTINUOUS
62
7
10
  0.13150000
20
 -0.13280000
30
  0.00000000
11
  0.13120000
21
 -0.13310000
31
  0.00000000
0
LINE
8
DC
6
CONTINUOUS
62
7
10
  0.13120000
20
 -0.13310000
30
  0.00000000
11
  0.13090000
21
 -0.13340000
31
  0.00000000
0
LINE
8
DC
6
CONTINUOUS
62
7
10
  0.13090000
20
 -0.13340000
30
  0.00000000
11
  0.13060000
21
 -0.13370000
31
  0.00000000
0
LINE
8
DC
6
CONTINUOUS
62
7
10
  0.13060000
20
 -0.13370000
30
  0.00000000
11
  0.13050000
21
 -0.13400000
31
  0.00000000
0
LINE
8
DC
6
CONTINUOUS
62
7
10
  0.13050000
20
 -0.13400000
30
  0.00000000
11
  0.13060000
21
 -0.13430000
31
  0.00000000
0
LINE
8
DC
6
CONTINUOUS
62
7
10
  0.13060000
20
 -0.13430000
30
  0.00000000
11
  0.13090000
21
 -0.13460000
31
  0.00000000
0
LINE
8
DC
6
CONTINUOUS
62
7
10
  0.13090000
20
 -0.13460000
30
  0.00000000
11
  0.13120000
21
 -0.13490000
31
  0.00000000
0
LINE
8
DC
6
CONTINUOUS
62
7
10
  0.13120000
20
 -0.13490000
30
  0.00000000
11
  0.13150000
21
 -0.13520000
31
  0.00000000
0
LINE
8
DC
6
CONTINUOUS
62
7
10
  0.13150000
20
 -0.13520000
30
  0.00000000
11
  0.13180000
21
 -0.13550000
31
  0.00000000
0
LINE
8
DC
6
CONTINUOUS
62
7
10
  0.13180000
20
 -0.13550000
30
  0.00000000
11
  0.13190000
21
 -0.13580000
31
  0.00000000
0
LINE
8
DC
6
CONTINUOUS
62
7
10
  0.13190000
20
 -0.13580000
30
  0.00000000
11
  0.13180000
21
 -0.13610000
31
  0.00000000
0
LINE
8
DC
6
CONTINUOUS
62
7
10
  0.13180000
20
 -0.13610000
30
  0.00000000
11
  0.13150000
21
 -0.13640000
31
  0.00000000
0
LINE
8
DC
6
CONTINUOUS
62
7
10
  0.13150000
20
 -0.13640000
30
  0.00000000
11
  0.13120000
21
 -0.13670000
31
  0.00000000
0
LINE
8
DC
6
CONTINUOUS
62
7
10
  0.13120000
20
 -0.13670000
30
  0.00000000
11
  0.13090000
21
 -0.13700000
31
  0.00000000
0
SOLID
8
DC
62
200
10
  0.11960000
20
 -0.07700000
30
  0.00000000
11
  0.12970000
21
 -0.07700000
31
  0.00000000
12
  0.11960000
22
 -0.13710000
32
  0.00000000
13
  0.12970000
23
 -0.13710000
33
  0.00000000
0
LINE
8
DC
6
CONTINUOUS
62
7
10
  0.11960000
20
 -0.07700000
30
  0.00000000
11
  0.12970000
21
 -0.07700000
31
  0.00000000
0
LINE
8
DC
6
CONTINUOUS
62
7
10
  0.12970000
20
 -0.07700000
30
  0.00000000
11
  0.12970000
21
 -0.13710000
31
  0.00000000
0
LINE
8
DC
6
CONTINUOUS
62
7
10
  0.12970000
20
 -0.13710000
30
  0.00000000
11
  0.11960000
21
 -0.13710000
31
  0.00000000
0
LINE
8
DC
6
CONTINUOUS
62
7
10
  0.11960000
20
 -0.13710000
30
  0.00000000
11
  0.11960000
21
 -0.07700000
31
  0.00000000
0
LINE
8
DC
6
CONTINUOUS
62
7
10
  0.12010000
20
 -0.07780000
30
  0.00000000
11
  0.12310000
21
 -0.07780000
31
  0.00000000
0
LINE
8
DC
6
CONTINUOUS
62
7
10
  0.12110000
20
 -0.07940000
30
  0.00000000
11
  0.12410000
21
 -0.07940000
31
  0.00000000
0
LINE
8
DC
6
CONTINUOUS
62
7
10
  0.12010000
20
 -0.08110000
30
  0.00000000
11
  0.12310000
21
 -0.08110000
31
  0.00000000
0
LINE
8
DC
6
CONTINUOUS
62
7
10
  0.12110000
20
 -0.08270000
30
  0.00000000
11
  0.12410000
21
 -0.08270000
31
  0.00000000
0
LINE
8
DC
6
CONTINUOUS
62
7
10
  0.12010000
20
 -0.08440000
30
  0.00000000
11
  0.12310000
21
 -0.08440000
31
  0.00000000
0
LINE
8
DC
6
CONTINUOUS
62
7
10
  0.12110000
20
 -0.08600000
30
  0.00000000
11
  0.12410000
21
 -0.08600000
31
  0.00000000
0
LINE
8
DC
6
CONTINUOUS
62
7
10
  0.12010000
20
 -0.08770000
30
  0.00000000
11
  0.12310000
21
 -0.08770000
31
  0.00000000
0
LINE
8
DC
6
CONTINUOUS
62
7
10
  0.12110000
20
 -0.08930000
30
  0.00000000
11
  0.12410000
21
 -0.08930000
31
  0.00000000
0
LINE
8
DC
6
CONTINUOUS
62
7
10
  0.12010000
20
 -0.09100000
30
  0.00000000
11
  0.12310000
21
 -0.09100000
31
  0.00000000
0
LINE
8
DC
6
CONTINUOUS
62
7
10
  0.12110000
20
 -0.09260000
30
  0.00000000
11
  0.12410000
21
 -0.09260000
31
  0.00000000
0
LINE
8
DC
6
CONTINUOUS
62
7
10
  0.12010000
20
 -0.09430000
30
  0.00000000
11
  0.12310000
21
 -0.09430000
31
  0.00000000
0
LINE
8
DC
6
CONTINUOUS
62
7
10
  0.12110000
20
 -0.09590000
30
  0.00000000
11
  0.12410000
21
 -0.09590000
31
  0.00000000
0
LINE
8
DC
6
CONTINUOUS
62
7
10
  0.12010000
20
 -0.09760000
30
  0.00000000
11
  0.12310000
21
 -0.09760000
31
  0.00000000
0
LINE
8
DC
6
CONTINUOUS
62
7
10
  0.12110000
20
 -0.09920000
30
  0.00000000
11
  0.12410000
21
 -0.09920000
31
  0.00000000
0
LINE
8
DC
6
CONTINUOUS
62
7
10
  0.12010000
20
 -0.10090000
30
  0.00000000
11
  0.12310000
21
 -0.10090000
31
  0.00000000
0
LINE
8
DC
6
CONTINUOUS
62
7
10
  0.12110000
20
 -0.10250000
30
  0.00000000
11
  0.12410000
21
 -0.10250000
31
  0.00000000
0
LINE
8
DC
6
CONTINUOUS
62
7
10
  0.12010000
20
 -0.10420000
30
  0.00000000
11
  0.12310000
21
 -0.10420000
31
  0.00000000
0
LINE
8
DC
6
CONTINUOUS
62
7
10
  0.12110000
20
 -0.10580000
30
  0.00000000
11
  0.12410000
21
 -0.10580000
31
  0.00000000
0
LINE
8
DC
6
CONTINUOUS
62
7
10
  0.12010000
20
 -0.10750000
30
  0.00000000
11
  0.12310000
21
 -0.10750000
31
  0.00000000
0
LINE
8
DC
6
CONTINUOUS
62
7
10
  0.12110000
20
 -0.10910000
30
  0.00000000
11
  0.12410000
21
 -0.10910000
31
  0.00000000
0
LINE
8
DC
6
CONTINUOUS
62
7
10
  0.12010000
20
 -0.11080000
30
  0.00000000
11
  0.12310000
21
 -0.11080000
31
  0.00000000
0
LINE
8
DC
6
CONTINUOUS
62
7
10
  0.12110000
20
 -0.11240000
30
  0.00000000
11
  0.12410000
21
 -0.11240000
31
  0.00000000
0
LINE
8
DC
6
CONTINUOUS
62
7
10
  0.12010000
20
 -0.11410000
30
  0.00000000
11
  0.12310000
21
 -0.11410000
31
  0.00000000
0
LINE
8
DC
6
CONTINUOUS
62
7
10
  0.12110000
20
 -0.11570000
30
  0.00000000
11
  0.12410000
21
 -0.11570000
31
  0.00000000
0
LINE
8
DC
6
CONTINUOUS
62
7
10
  0.12010000
20
 -0.11740000
30
  0.00000000
11
  0.12310000
21
 -0.11740000
31
  0.00000000
0
LINE
8
DC
6
CONTINUOUS
62
7
10
  0.12110000
20
 -0.11900000
30
  0.00000000
11
  0.12410000
21
 -0.11900000
31
  0.00000000
0
LINE
8
DC
6
CONTINUOUS
62
7
10
  0.12010000
20
 -0.12070000
30
  0.00000000
11
  0.12310000
21
 -0.12070000
31
  0.00000000
0
LINE
8
DC
6
CONTINUOUS
62
7
10
  0.12110000
20
 -0.12230000
30
  0.00000000
11
  0.12410000
21
 -0.12230000
31
  0.00000000
0
LINE
8
DC
6
CONTINUOUS
62
7
10
  0.12010000
20
 -0.12400000
30
  0.00000000
11
  0.12310000
21
 -0.12400000
31
  0.00000000
0
LINE
8
DC
6
CONTINUOUS
62
7
10
  0.12110000
20
 -0.12560000
30
  0.00000000
11
  0.12410000
21
 -0.12560000
31
  0.00000000
0
LINE
8
DC
6
CONTINUOUS
62
7
10
  0.12010000
20
 -0.12730000
30
  0.00000000
11
  0.12310000
21
 -0.12730000
31
  0.00000000
0
LINE
8
DC
6
CONTINUOUS
62
7
10
  0.12110000
20
 -0.12890000
30
  0.00000000
11
  0.12410000
21
 -0.12890000
31
  0.00000000
0
LINE
8
DC
6
CONTINUOUS
62
7
10
  0.12010000
20
 -0.13060000
30
  0.00000000
11
  0.12310000
21
 -0.13060000
31
  0.00000000
0
LINE
8
DC
6
CONTINUOUS
62
7
10
  0.12110000
20
 -0.13220000
30
  0.00000000
11
  0.12410000
21
 -0.13220000
31
  0.00000000
0
LINE
8
DC
6
CONTINUOUS
62
7
10
  0.12010000
20
 -0.13390000
30
  0.00000000
11
  0.12310000
21
 -0.13390000
31
  0.00000000
0
LINE
8
DC
6
CONTINUOUS
62
7
10
  0.12110000
20
 -0.13550000
30
  0.00000000
11
  0.12410000
21
 -0.13550000
31
  0.00000000
0
LINE
8
DC
6
CONTINUOUS
62
7
10
  0.12620000
20
 -0.07910000
30
  0.00000000
11
  0.12620000
21
 -0.07910000
31
  0.00000000
0
LINE
8
DC
6
CONTINUOUS
62
7
10
  0.12598206
20
 -0.07905000
30
  0.00000000
11
  0.12641794
21
 -0.07905000
31
  0.00000000
0
LINE
8
DC
6
CONTINUOUS
62
7
10
  0.12590000
20
 -0.07900000
30
  0.00000000
11
  0.12650000
21
 -0.07900000
31
  0.00000000
0
LINE
8
DC
6
CONTINUOUS
62
7
10
  0.12584293
20
 -0.07895000
30
  0.00000000
11
  0.12655707
21
 -0.07895000
31
  0.00000000
0
LINE
8
DC
6
CONTINUOUS
62
7
10
  0.12580000
20
 -0.07890000
30
  0.00000000
11
  0.12660000
21
 -0.07890000
31
  0.00000000
0
LINE
8
DC
6
CONTINUOUS
62
7
10
  0.12576699
20
 -0.07885000
30
  0.00000000
11
  0.12663301
21
 -0.07885000
31
  0.00000000
0
LINE
8
DC
6
CONTINUOUS
62
7
10
  0.12574174
20
 -0.07880000
30
  0.00000000
11
  0.12665826
21
 -0.07880000
31
  0.00000000
0
LINE
8
DC
6
CONTINUOUS
62
7
10
  0.12572303
20
 -0.07875000
30
  0.00000000
11
  0.12667697
21
 -0.07875000
31
  0.00000000
0
LINE
8
DC
6
CONTINUOUS
62
7
10
  0.12571010
20
 -0.07870000
30
  0.00000000
11
  0.12668990
21
 -0.07870000
31
  0.00000000
0
LINE
8
DC
6
CONTINUOUS
62
7
10
  0.12570251
20
 -0.07865000
30
  0.00000000
11
  0.12669749
21
 -0.07865000
31
  0.00000000
0
LINE
8
DC
6
CONTINUOUS
62
7
10
  0.12570000
20
 -0.07860000
30
  0.00000000
11
  0.12670000
21
 -0.07860000
31
  0.00000000
0
LINE
8
DC
6
CONTINUOUS
62
7
10
  0.12570251
20
 -0.07855000
30
  0.00000000
11
  0.12669749
21
 -0.07855000
31
  0.00000000
0
LINE
8
DC
6
CONTINUOUS
62
7
10
  0.12571010
20
 -0.07850000
30
  0.00000000
11
  0.12668990
21
 -0.07850000
31
  0.00000000
0
LINE
8
DC
6
CONTINUOUS
62
7
10
  0.12572303
20
 -0.07845000
30
  0.00000000
11
  0.12667697
21
 -0.07845000
31
  0.00000000
0
LINE
8
DC
6
CONTINUOUS
62
7
10
  0.12574174
20
 -0.07840000
30
  0.00000000
11
  0.12665826
21
 -0.07840000
31
  0.00000000
0
LINE
8
DC
6
CONTINUOUS
62
7
10
  0.12576699
20
 -0.07835000
30
  0.00000000
11
  0.12663301
21
 -0.07835000
31
  0.00000000
0
LINE
8
DC
6
CONTINUOUS
62
7
10
  0.12580000
20
 -0.07830000
30
  0.00000000
11
  0.12660000
21
 -0.07830000
31
  0.00000000
0
LINE
8
DC
6
CONTINUOUS
62
7
10
  0.12584293
20
 -0.07825000
30
  0.00000000
11
  0.12655707
21
 -0.07825000
31
  0.00000000
0
LINE
8
DC
6
CONTINUOUS
62
7
10
  0.12590000
20
 -0.07820000
30
  0.00000000
11
  0.12650000
21
 -0.07820000
31
  0.00000000
0
LINE
8
DC
6
CONTINUOUS
62
7
10
  0.12598206
20
 -0.07815000
30
  0.00000000
11
  0.12641794
21
 -0.07815000
31
  0.00000000
0
CIRCLE
8
DC
6
CONTINUOUS
62
7
10
  0.12620000
20
 -0.07860000
30
  0.00000000
40
  0.00050000
0
LINE
8
DC
6
CONTINUOUS
62
7
10
  0.12780000
20
 -0.07910000
30
  0.00000000
11
  0.12780000
21
 -0.07910000
31
  0.00000000
0
LINE
8
DC
6
CONTINUOUS
62
7
10
  0.12758206
20
 -0.07905000
30
  0.00000000
11
  0.12801794
21
 -0.07905000
31
  0.00000000
0
LINE
8
DC
6
CONTINUOUS
62
7
10
  0.12750000
20
 -0.07900000
30
  0.00000000
11
  0.12810000
21
 -0.07900000
31
  0.00000000
0
LINE
8
DC
6
CONTINUOUS
62
7
10
  0.12744293
20
 -0.07895000
30
  0.00000000
11
  0.12815707
21
 -0.07895000
31
  0.00000000
0
LINE
8
DC
6
CONTINUOUS
62
7
10
  0.12740000
20
 -0.07890000
30
  0.00000000
11
  0.12820000
21
 -0.07890000
31
  0.00000000
0
LINE
8
DC
6
CONTINUOUS
62
7
10
  0.12736699
20
 -0.07885000
30
  0.00000000
11
  0.12823301
21
 -0.07885000
31
  0.00000000
0
LINE
8
DC
6
CONTINUOUS
62
7
10
  0.12734174
20
 -0.07880000
30
  0.00000000
11
  0.12825826
21
 -0.07880000
31
  0.00000000
0
LINE
8
DC
6
CONTINUOUS
62
7
10
  0.12732303
20
 -0.07875000
30
  0.00000000
11
  0.12827697
21
 -0.07875000
31
  0.00000000
0
LINE
8
DC
6
CONTINUOUS
62
7
10
  0.12731010
20
 -0.07870000
30
  0.00000000
11
  0.12828990
21
 -0.07870000
31
  0.00000000
0
LINE
8
DC
6
CONTINUOUS
62
7
10
  0.12730251
20
 -0.07865000
30
  0.00000000
11
  0.12829749
21
 -0.07865000
31
  0.00000000
0
LINE
8
DC
6
CONTINUOUS
62
7
10
  0.12730000
20
 -0.07860000
30
  0.00000000
11
  0.12830000
21
 -0.07860000
31
  0.00000000
0
LINE
8
DC
6
CONTINUOUS
62
7
10
  0.12730251
20
 -0.07855000
30
  0.00000000
11
  0.12829749
21
 -0.07855000
31
  0.00000000
0
LINE
8
DC
6
CONTINUOUS
62
7
10
  0.12731010
20
 -0.07850000
30
  0.00000000
11
  0.12828990
21
 -0.07850000
31
  0.00000000
0
LINE
8
DC
6
CONTINUOUS
62
7
10
  0.12732303
20
 -0.07845000
30
  0.00000000
11
  0.12827697
21
 -0.07845000
31
  0.00000000
0
LINE
8
DC
6
CONTINUOUS
62
7
10
  0.12734174
20
 -0.07840000
30
  0.00000000
11
  0.12825826
21
 -0.07840000
31
  0.00000000
0
LINE
8
DC
6
CONTINUOUS
62
7
10
  0.12736699
20
 -0.07835000
30
  0.00000000
11
  0.12823301
21
 -0.07835000
31
  0.00000000
0
LINE
8
DC
6
CONTINUOUS
62
7
10
  0.12740000
20
 -0.07830000
30
  0.00000000
11
  0.12820000
21
 -0.07830000
31
  0.00000000
0
LINE
8
DC
6
CONTINUOUS
62
7
10
  0.12744293
20
 -0.07825000
30
  0.00000000
11
  0.12815707
21
 -0.07825000
31
  0.00000000
0
LINE
8
DC
6
CONTINUOUS
62
7
10
  0.12750000
20
 -0.07820000
30
  0.00000000
11
  0.12810000
21
 -0.07820000
31
  0.00000000
0
LINE
8
DC
6
CONTINUOUS
62
7
10
  0.12758206
20
 -0.07815000
30
  0.00000000
11
  0.12801794
21
 -0.07815000
31
  0.00000000
0
CIRCLE
8
DC
6
CONTINUOUS
62
7
10
  0.12780000
20
 -0.07860000
30
  0.00000000
40
  0.00050000
0
LINE
8
DC
6
CONTINUOUS
62
7
10
  0.12560000
20
 -0.07910000
30
  0.00000000
11
  0.12860000
21
 -0.07910000
31
  0.00000000
0
LINE
8
DC
6
CONTINUOUS
62
7
10
  0.12480000
20
 -0.08100000
30
  0.00000000
11
  0.12480000
21
 -0.08100000
31
  0.00000000
0
LINE
8
DC
6
CONTINUOUS
62
7
10
  0.12466771
20
 -0.08095000
30
  0.00000000
11
  0.12493229
21
 -0.08095000
31
  0.00000000
0
LINE
8
DC
6
CONTINUOUS
62
7
10
  0.12462679
20
 -0.08090000
30
  0.00000000
11
  0.12497321
21
 -0.08090000
31
  0.00000000
0
LINE
8
DC
6
CONTINUOUS
62
7
10
  0.12460635
20
 -0.08085000
30
  0.00000000
11
  0.12499365
21
 -0.08085000
31
  0.00000000
0
LINE
8
DC
6
CONTINUOUS
62
7
10
  0.12460000
20
 -0.08080000
30
  0.00000000
11
  0.12500000
21
 -0.08080000
31
  0.00000000
0
LINE
8
DC
6
CONTINUOUS
62
7
10
  0.12460635
20
 -0.08075000
30
  0.00000000
11
  0.12499365
21
 -0.08075000
31
  0.00000000
0
LINE
8
DC
6
CONTINUOUS
62
7
10
  0.12462679
20
 -0.08070000
30
  0.00000000
11
  0.12497321
21
 -0.08070000
31
  0.00000000
0
LINE
8
DC
6
CONTINUOUS
62
7
10
  0.12466771
20
 -0.08065000
30
  0.00000000
11
  0.12493229
21
 -0.08065000
31
  0.00000000
0
CIRCLE
8
DC
6
CONTINUOUS
62
7
10
  0.12480000
20
 -0.08080000
30
  0.00000000
40
  0.00020000
0
LINE
8
DC
6
CONTINUOUS
62
7
10
  0.12580000
20
 -0.08100000
30
  0.00000000
11
  0.12580000
21
 -0.08100000
31
  0.00000000
0
LINE
8
DC
6
CONTINUOUS
62
7
10
  0.12566771
20
 -0.08095000
30
  0.00000000
11
  0.12593229
21
 -0.08095000
31
  0.00000000
0
LINE
8
DC
6
CONTINUOUS
62
7
10
  0.12562679
20
 -0.08090000
30
  0.00000000
11
  0.12597321
21
 -0.08090000
31
  0.00000000
0
LINE
8
DC
6
CONTINUOUS
62
7
10
  0.12560635
20
 -0.08085000
30
  0.00000000
11
  0.12599365
21
 -0.08085000
31
  0.00000000
0
LINE
8
DC
6
CONTINUOUS
62
7
10
  0.12560000
20
 -0.08080000
30
  0.00000000
11
  0.12600000
21
 -0.08080000
31
  0.00000000
0
LINE
8
DC
6
CONTINUOUS
62
7
10
  0.12560635
20
 -0.08075000
30
  0.00000000
11
  0.12599365
21
 -0.08075000
31
  0.00000000
0
LINE
8
DC
6
CONTINUOUS
62
7
10
  0.12562679
20
 -0.08070000
30
  0.00000000
11
  0.12597321
21
 -0.08070000
31
  0.00000000
0
LINE
8
DC
6
CONTINUOUS
62
7
10
  0.12566771
20
 -0.08065000
30
  0.00000000
11
  0.12593229
21
 -0.08065000
31
  0.00000000
0
CIRCLE
8
DC
6
CONTINUOUS
62
7
10
  0.12580000
20
 -0.08080000
30
  0.00000000
40
  0.00020000
0
LINE
8
DC
6
CONTINUOUS
62
7
10
  0.12680000
20
 -0.08100000
30
  0.00000000
11
  0.12680000
21
 -0.08100000
31
  0.00000000
0
LINE
8
DC
6
CONTINUOUS
62
7
10
  0.12666771
20
 -0.08095000
30
  0.00000000
11
  0.12693229
21
 -0.08095000
31
  0.00000000
0
LINE
8
DC
6
CONTINUOUS
62
7
10
  0.12662679
20
 -0.08090000
30
  0.00000000
11
  0.12697321
21
 -0.08090000
31
  0.00000000
0
LINE
8
DC
6
CONTINUOUS
62
7
10
  0.12660635
20
 -0.08085000
30
  0.00000000
11
  0.12699365
21
 -0.08085000
31
  0.00000000
0
LINE
8
DC
6
CONTINUOUS
62
7
10
  0.12660000
20
 -0.08080000
30
  0.00000000
11
  0.12700000
21
 -0.08080000
31
  0.00000000
0
LINE
8
DC
6
CONTINUOUS
62
7
10
  0.12660635
20
 -0.08075000
30
  0.00000000
11
  0.12699365
21
 -0.08075000
31
  0.00000000
0
LINE
8
DC
6
CONTINUOUS
62
7
10
  0.12662679
20
 -0.08070000
30
  0.00000000
11
  0.12697321
21
 -0.08070000
31
  0.00000000
0
LINE
8
DC
6
CONTINUOUS
62
7
10
  0.12666771
20
 -0.08065000
30
  0.00000000
11
  0.12693229
21
 -0.08065000
31
  0.00000000
0
CIRCLE
8
DC
6
CONTINUOUS
62
7
10
  0.12680000
20
 -0.08080000
30
  0.00000000
40
  0.00020000
0
LINE
8
DC
6
CONTINUOUS
62
7
10
  0.12780000
20
 -0.08100000
30
  0.00000000
11
  0.12780000
21
 -0.08100000
31
  0.00000000
0
LINE
8
DC
6
CONTINUOUS
62
7
10
  0.12766771
20
 -0.08095000
30
  0.00000000
11
  0.12793229
21
 -0.08095000
31
  0.00000000
0
LINE
8
DC
6
CONTINUOUS
62
7
10
  0.12762679
20
 -0.08090000
30
  0.00000000
11
  0.12797321
21
 -0.08090000
31
  0.00000000
0
LINE
8
DC
6
CONTINUOUS
62
7
10
  0.12760635
20
 -0.08085000
30
  0.00000000
11
  0.12799365
21
 -0.08085000
31
  0.00000000
0
LINE
8
DC
6
CONTINUOUS
62
7
10
  0.12760000
20
 -0.08080000
30
  0.00000000
11
  0.12800000
21
 -0.08080000
31
  0.00000000
0
LINE
8
DC
6
CONTINUOUS
62
7
10
  0.12760635
20
 -0.08075000
30
  0.00000000
11
  0.12799365
21
 -0.08075000
31
  0.00000000
0
LINE
8
DC
6
CONTINUOUS
62
7
10
  0.12762679
20
 -0.08070000
30
  0.00000000
11
  0.12797321
21
 -0.08070000
31
  0.00000000
0
LINE
8
DC
6
CONTINUOUS
62
7
10
  0.12766771
20
 -0.08065000
30
  0.00000000
11
  0.12793229
21
 -0.08065000
31
  0.00000000
0
CIRCLE
8
DC
6
CONTINUOUS
62
7
10
  0.12780000
20
 -0.08080000
30
  0.00000000
40
  0.00020000
0
LINE
8
DC
6
CONTINUOUS
62
7
10
  0.12880000
20
 -0.08100000
30
  0.00000000
11
  0.12880000
21
 -0.08100000
31
  0.00000000
0
LINE
8
DC
6
CONTINUOUS
62
7
10
  0.12866771
20
 -0.08095000
30
  0.00000000
11
  0.12893229
21
 -0.08095000
31
  0.00000000
0
LINE
8
DC
6
CONTINUOUS
62
7
10
  0.12862679
20
 -0.08090000
30
  0.00000000
11
  0.12897321
21
 -0.08090000
31
  0.00000000
0
LINE
8
DC
6
CONTINUOUS
62
7
10
  0.12860635
20
 -0.08085000
30
  0.00000000
11
  0.12899365
21
 -0.08085000
31
  0.00000000
0
LINE
8
DC
6
CONTINUOUS
62
7
10
  0.12860000
20
 -0.08080000
30
  0.00000000
11
  0.12900000
21
 -0.08080000
31
  0.00000000
0
LINE
8
DC
6
CONTINUOUS
62
7
10
  0.12860635
20
 -0.08075000
30
  0.00000000
11
  0.12899365
21
 -0.08075000
31
  0.00000000
0
LINE
8
DC
6
CONTINUOUS
62
7
10
  0.12862679
20
 -0.08070000
30
  0.00000000
11
  0.12897321
21
 -0.08070000
31
  0.00000000
0
LINE
8
DC
6
CONTINUOUS
62
7
10
  0.12866771
20
 -0.08065000
30
  0.00000000
11
  0.12893229
21
 -0.08065000
31
  0.00000000
0
CIRCLE
8
DC
6
CONTINUOUS
62
7
10
  0.12880000
20
 -0.08080000
30
  0.00000000
40
  0.00020000
0
LINE
8
DC
6
CONTINUOUS
62
7
10
  0.12480000
20
 -0.08320000
30
  0.00000000
11
  0.12480000
21
 -0.08320000
31
  0.00000000
0
LINE
8
DC
6
CONTINUOUS
62
7
10
  0.12466771
20
 -0.08315000
30
  0.00000000
11
  0.12493229
21
 -0.08315000
31
  0.00000000
0
LINE
8
DC
6
CONTINUOUS
62
7
10
  0.12462679
20
 -0.08310000
30
  0.00000000
11
  0.12497321
21
 -0.08310000
31
  0.00000000
0
LINE
8
DC
6
CONTINUOUS
62
7
10
  0.12460635
20
 -0.08305000
30
  0.00000000
11
  0.12499365
21
 -0.08305000
31
  0.00000000
0
LINE
8
DC
6
CONTINUOUS
62
7
10
  0.12460000
20
 -0.08300000
30
  0.00000000
11
  0.12500000
21
 -0.08300000
31
  0.00000000
0
LINE
8
DC
6
CONTINUOUS
62
7
10
  0.12460635
20
 -0.08295000
30
  0.00000000
11
  0.12499365
21
 -0.08295000
31
  0.00000000
0
LINE
8
DC
6
CONTINUOUS
62
7
10
  0.12462679
20
 -0.08290000
30
  0.00000000
11
  0.12497321
21
 -0.08290000
31
  0.00000000
0
LINE
8
DC
6
CONTINUOUS
62
7
10
  0.12466771
20
 -0.08285000
30
  0.00000000
11
  0.12493229
21
 -0.08285000
31
  0.00000000
0
CIRCLE
8
DC
6
CONTINUOUS
62
7
10
  0.12480000
20
 -0.08300000
30
  0.00000000
40
  0.00020000
0
LINE
8
DC
6
CONTINUOUS
62
7
10
  0.12580000
20
 -0.08320000
30
  0.00000000
11
  0.12580000
21
 -0.08320000
31
  0.00000000
0
LINE
8
DC
6
CONTINUOUS
62
7
10
  0.12566771
20
 -0.08315000
30
  0.00000000
11
  0.12593229
21
 -0.08315000
31
  0.00000000
0
LINE
8
DC
6
CONTINUOUS
62
7
10
  0.12562679
20
 -0.08310000
30
  0.00000000
11
  0.12597321
21
 -0.08310000
31
  0.00000000
0
LINE
8
DC
6
CONTINUOUS
62
7
10
  0.12560635
20
 -0.08305000
30
  0.00000000
11
  0.12599365
21
 -0.08305000
31
  0.00000000
0
LINE
8
DC
6
CONTINUOUS
62
7
10
  0.12560000
20
 -0.08300000
30
  0.00000000
11
  0.12600000
21
 -0.08300000
31
  0.00000000
0
LINE
8
DC
6
CONTINUOUS
62
7
10
  0.12560635
20
 -0.08295000
30
  0.00000000
11
  0.12599365
21
 -0.08295000
31
  0.00000000
0
LINE
8
DC
6
CONTINUOUS
62
7
10
  0.12562679
20
 -0.08290000
30
  0.00000000
11
  0.12597321
21
 -0.08290000
31
  0.00000000
0
LINE
8
DC
6
CONTINUOUS
62
7
10
  0.12566771
20
 -0.08285000
30
  0.00000000
11
  0.12593229
21
 -0.08285000
31
  0.00000000
0
CIRCLE
8
DC
6
CONTINUOUS
62
7
10
  0.12580000
20
 -0.08300000
30
  0.00000000
40
  0.00020000
0
LINE
8
DC
6
CONTINUOUS
62
7
10
  0.12680000
20
 -0.08320000
30
  0.00000000
11
  0.12680000
21
 -0.08320000
31
  0.00000000
0
LINE
8
DC
6
CONTINUOUS
62
7
10
  0.12666771
20
 -0.08315000
30
  0.00000000
11
  0.12693229
21
 -0.08315000
31
  0.00000000
0
LINE
8
DC
6
CONTINUOUS
62
7
10
  0.12662679
20
 -0.08310000
30
  0.00000000
11
  0.12697321
21
 -0.08310000
31
  0.00000000
0
LINE
8
DC
6
CONTINUOUS
62
7
10
  0.12660635
20
 -0.08305000
30
  0.00000000
11
  0.12699365
21
 -0.08305000
31
  0.00000000
0
LINE
8
DC
6
CONTINUOUS
62
7
10
  0.12660000
20
 -0.08300000
30
  0.00000000
11
  0.12700000
21
 -0.08300000
31
  0.00000000
0
LINE
8
DC
6
CONTINUOUS
62
7
10
  0.12660635
20
 -0.08295000
30
  0.00000000
11
  0.12699365
21
 -0.08295000
31
  0.00000000
0
LINE
8
DC
6
CONTINUOUS
62
7
10
  0.12662679
20
 -0.08290000
30
  0.00000000
11
  0.12697321
21
 -0.08290000
31
  0.00000000
0
LINE
8
DC
6
CONTINUOUS
62
7
10
  0.12666771
20
 -0.08285000
30
  0.00000000
11
  0.12693229
21
 -0.08285000
31
  0.00000000
0
CIRCLE
8
DC
6
CONTINUOUS
62
7
10
  0.12680000
20
 -0.08300000
30
  0.00000000
40
  0.00020000
0
LINE
8
DC
6
CONTINUOUS
62
7
10
  0.12780000
20
 -0.08320000
30
  0.00000000
11
  0.12780000
21
 -0.08320000
31
  0.00000000
0
LINE
8
DC
6
CONTINUOUS
62
7
10
  0.12766771
20
 -0.08315000
30
  0.00000000
11
  0.12793229
21
 -0.08315000
31
  0.00000000
0
LINE
8
DC
6
CONTINUOUS
62
7
10
  0.12762679
20
 -0.08310000
30
  0.00000000
11
  0.12797321
21
 -0.08310000
31
  0.00000000
0
LINE
8
DC
6
CONTINUOUS
62
7
10
  0.12760635
20
 -0.08305000
30
  0.00000000
11
  0.12799365
21
 -0.08305000
31
  0.00000000
0
LINE
8
DC
6
CONTINUOUS
62
7
10
  0.12760000
20
 -0.08300000
30
  0.00000000
11
  0.12800000
21
 -0.08300000
31
  0.00000000
0
LINE
8
DC
6
CONTINUOUS
62
7
10
  0.12760635
20
 -0.08295000
30
  0.00000000
11
  0.12799365
21
 -0.08295000
31
  0.00000000
0
LINE
8
DC
6
CONTINUOUS
62
7
10
  0.12762679
20
 -0.08290000
30
  0.00000000
11
  0.12797321
21
 -0.08290000
31
  0.00000000
0
LINE
8
DC
6
CONTINUOUS
62
7
10
  0.12766771
20
 -0.08285000
30
  0.00000000
11
  0.12793229
21
 -0.08285000
31
  0.00000000
0
CIRCLE
8
DC
6
CONTINUOUS
62
7
10
  0.12780000
20
 -0.08300000
30
  0.00000000
40
  0.00020000
0
LINE
8
DC
6
CONTINUOUS
62
7
10
  0.12880000
20
 -0.08320000
30
  0.00000000
11
  0.12880000
21
 -0.08320000
31
  0.00000000
0
LINE
8
DC
6
CONTINUOUS
62
7
10
  0.12866771
20
 -0.08315000
30
  0.00000000
11
  0.12893229
21
 -0.08315000
31
  0.00000000
0
LINE
8
DC
6
CONTINUOUS
62
7
10
  0.12862679
20
 -0.08310000
30
  0.00000000
11
  0.12897321
21
 -0.08310000
31
  0.00000000
0
LINE
8
DC
6
CONTINUOUS
62
7
10
  0.12860635
20
 -0.08305000
30
  0.00000000
11
  0.12899365
21
 -0.08305000
31
  0.00000000
0
LINE
8
DC
6
CONTINUOUS
62
7
10
  0.12860000
20
 -0.08300000
30
  0.00000000
11
  0.12900000
21
 -0.08300000
31
  0.00000000
0
LINE
8
DC
6
CONTINUOUS
62
7
10
  0.12860635
20
 -0.08295000
30
  0.00000000
11
  0.12899365
21
 -0.08295000
31
  0.00000000
0
LINE
8
DC
6
CONTINUOUS
62
7
10
  0.12862679
20
 -0.08290000
30
  0.00000000
11
  0.12897321
21
 -0.08290000
31
  0.00000000
0
LINE
8
DC
6
CONTINUOUS
62
7
10
  0.12866771
20
 -0.08285000
30
  0.00000000
11
  0.12893229
21
 -0.08285000
31
  0.00000000
0
CIRCLE
8
DC
6
CONTINUOUS
62
7
10
  0.12880000
20
 -0.08300000
30
  0.00000000
40
  0.00020000
0
LINE
8
DC
6
CONTINUOUS
62
7
10
  0.12530000
20
 -0.08210000
30
  0.00000000
11
  0.12530000
21
 -0.08210000
31
  0.00000000
0
LINE
8
DC
6
CONTINUOUS
62
7
10
  0.12516771
20
 -0.08205000
30
  0.00000000
11
  0.12543229
21
 -0.08205000
31
  0.00000000
0
LINE
8
DC
6
CONTINUOUS
62
7
10
  0.12512679
20
 -0.08200000
30
  0.00000000
11
  0.12547321
21
 -0.08200000
31
  0.00000000
0
LINE
8
DC
6
CONTINUOUS
62
7
10
  0.12510635
20
 -0.08195000
30
  0.00000000
11
  0.12549365
21
 -0.08195000
31
  0.00000000
0
LINE
8
DC
6
CONTINUOUS
62
7
10
  0.12510000
20
 -0.08190000
30
  0.00000000
11
  0.12550000
21
 -0.08190000
31
  0.00000000
0
LINE
8
DC
6
CONTINUOUS
62
7
10
  0.12510635
20
 -0.08185000
30
  0.00000000
11
  0.12549365
21
 -0.08185000
31
  0.00000000
0
LINE
8
DC
6
CONTINUOUS
62
7
10
  0.12512679
20
 -0.08180000
30
  0.00000000
11
  0.12547321
21
 -0.08180000
31
  0.00000000
0
LINE
8
DC
6
CONTINUOUS
62
7
10
  0.12516771
20
 -0.08175000
30
  0.00000000
11
  0.12543229
21
 -0.08175000
31
  0.00000000
0
CIRCLE
8
DC
6
CONTINUOUS
62
7
10
  0.12530000
20
 -0.08190000
30
  0.00000000
40
  0.00020000
0
LINE
8
DC
6
CONTINUOUS
62
7
10
  0.12630000
20
 -0.08210000
30
  0.00000000
11
  0.12630000
21
 -0.08210000
31
  0.00000000
0
LINE
8
DC
6
CONTINUOUS
62
7
10
  0.12616771
20
 -0.08205000
30
  0.00000000
11
  0.12643229
21
 -0.08205000
31
  0.00000000
0
LINE
8
DC
6
CONTINUOUS
62
7
10
  0.12612679
20
 -0.08200000
30
  0.00000000
11
  0.12647321
21
 -0.08200000
31
  0.00000000
0
LINE
8
DC
6
CONTINUOUS
62
7
10
  0.12610635
20
 -0.08195000
30
  0.00000000
11
  0.12649365
21
 -0.08195000
31
  0.00000000
0
LINE
8
DC
6
CONTINUOUS
62
7
10
  0.12610000
20
 -0.08190000
30
  0.00000000
11
  0.12650000
21
 -0.08190000
31
  0.00000000
0
LINE
8
DC
6
CONTINUOUS
62
7
10
  0.12610635
20
 -0.08185000
30
  0.00000000
11
  0.12649365
21
 -0.08185000
31
  0.00000000
0
LINE
8
DC
6
CONTINUOUS
62
7
10
  0.12612679
20
 -0.08180000
30
  0.00000000
11
  0.12647321
21
 -0.08180000
31
  0.00000000
0
LINE
8
DC
6
CONTINUOUS
62
7
10
  0.12616771
20
 -0.08175000
30
  0.00000000
11
  0.12643229
21
 -0.08175000
31
  0.00000000
0
CIRCLE
8
DC
6
CONTINUOUS
62
7
10
  0.12630000
20
 -0.08190000
30
  0.00000000
40
  0.00020000
0
LINE
8
DC
6
CONTINUOUS
62
7
10
  0.12730000
20
 -0.08210000
30
  0.00000000
11
  0.12730000
21
 -0.08210000
31
  0.00000000
0
LINE
8
DC
6
CONTINUOUS
62
7
10
  0.12716771
20
 -0.08205000
30
  0.00000000
11
  0.12743229
21
 -0.08205000
31
  0.00000000
0
LINE
8
DC
6
CONTINUOUS
62
7
10
  0.12712679
20
 -0.08200000
30
  0.00000000
11
  0.12747321
21
 -0.08200000
31
  0.00000000
0
LINE
8
DC
6
CONTINUOUS
62
7
10
  0.12710635
20
 -0.08195000
30
  0.00000000
11
  0.12749365
21
 -0.08195000
31
  0.00000000
0
LINE
8
DC
6
CONTINUOUS
62
7
10
  0.12710000
20
 -0.08190000
30
  0.00000000
11
  0.12750000
21
 -0.08190000
31
  0.00000000
0
LINE
8
DC
6
CONTINUOUS
62
7
10
  0.12710635
20
 -0.08185000
30
  0.00000000
11
  0.12749365
21
 -0.08185000
31
  0.00000000
0
LINE
8
DC
6
CONTINUOUS
62
7
10
  0.12712679
20
 -0.08180000
30
  0.00000000
11
  0.12747321
21
 -0.08180000
31
  0.00000000
0
LINE
8
DC
6
CONTINUOUS
62
7
10
  0.12716771
20
 -0.08175000
30
  0.00000000
11
  0.12743229
21
 -0.08175000
31
  0.00000000
0
CIRCLE
8
DC
6
CONTINUOUS
62
7
10
  0.12730000
20
 -0.08190000
30
  0.00000000
40
  0.00020000
0
LINE
8
DC
6
CONTINUOUS
62
7
10
  0.12830000
20
 -0.08210000
30
  0.00000000
11
  0.12830000
21
 -0.08210000
31
  0.00000000
0
LINE
8
DC
6
CONTINUOUS
62
7
10
  0.12816771
20
 -0.08205000
30
  0.00000000
11
  0.12843229
21
 -0.08205000
31
  0.00000000
0
LINE
8
DC
6
CONTINUOUS
62
7
10
  0.12812679
20
 -0.08200000
30
  0.00000000
11
  0.12847321
21
 -0.08200000
31
  0.00000000
0
LINE
8
DC
6
CONTINUOUS
62
7
10
  0.12810635
20
 -0.08195000
30
  0.00000000
11
  0.12849365
21
 -0.08195000
31
  0.00000000
0
LINE
8
DC
6
CONTINUOUS
62
7
10
  0.12810000
20
 -0.08190000
30
  0.00000000
11
  0.12850000
21
 -0.08190000
31
  0.00000000
0
LINE
8
DC
6
CONTINUOUS
62
7
10
  0.12810635
20
 -0.08185000
30
  0.00000000
11
  0.12849365
21
 -0.08185000
31
  0.00000000
0
LINE
8
DC
6
CONTINUOUS
62
7
10
  0.12812679
20
 -0.08180000
30
  0.00000000
11
  0.12847321
21
 -0.08180000
31
  0.00000000
0
LINE
8
DC
6
CONTINUOUS
62
7
10
  0.12816771
20
 -0.08175000
30
  0.00000000
11
  0.12843229
21
 -0.08175000
31
  0.00000000
0
CIRCLE
8
DC
6
CONTINUOUS
62
7
10
  0.12830000
20
 -0.08190000
30
  0.00000000
40
  0.00020000
0
LINE
8
DC
6
CONTINUOUS
62
7
10
  0.12930000
20
 -0.08210000
30
  0.00000000
11
  0.12930000
21
 -0.08210000
31
  0.00000000
0
LINE
8
DC
6
CONTINUOUS
62
7
10
  0.12916771
20
 -0.08205000
30
  0.00000000
11
  0.12943229
21
 -0.08205000
31
  0.00000000
0
LINE
8
DC
6
CONTINUOUS
62
7
10
  0.12912679
20
 -0.08200000
30
  0.00000000
11
  0.12947321
21
 -0.08200000
31
  0.00000000
0
LINE
8
DC
6
CONTINUOUS
62
7
10
  0.12910635
20
 -0.08195000
30
  0.00000000
11
  0.12949365
21
 -0.08195000
31
  0.00000000
0
LINE
8
DC
6
CONTINUOUS
62
7
10
  0.12910000
20
 -0.08190000
30
  0.00000000
11
  0.12950000
21
 -0.08190000
31
  0.00000000
0
LINE
8
DC
6
CONTINUOUS
62
7
10
  0.12910635
20
 -0.08185000
30
  0.00000000
11
  0.12949365
21
 -0.08185000
31
  0.00000000
0
LINE
8
DC
6
CONTINUOUS
62
7
10
  0.12912679
20
 -0.08180000
30
  0.00000000
11
  0.12947321
21
 -0.08180000
31
  0.00000000
0
LINE
8
DC
6
CONTINUOUS
62
7
10
  0.12916771
20
 -0.08175000
30
  0.00000000
11
  0.12943229
21
 -0.08175000
31
  0.00000000
0
CIRCLE
8
DC
6
CONTINUOUS
62
7
10
  0.12930000
20
 -0.08190000
30
  0.00000000
40
  0.00020000
0
LINE
8
DC
6
CONTINUOUS
62
7
10
  0.12510000
20
 -0.08440000
30
  0.00000000
11
  0.12810000
21
 -0.08440000
31
  0.00000000
0
LINE
8
DC
6
CONTINUOUS
62
7
10
  0.12610000
20
 -0.08600000
30
  0.00000000
11
  0.12910000
21
 -0.08600000
31
  0.00000000
0
LINE
8
DC
6
CONTINUOUS
62
7
10
  0.12510000
20
 -0.08770000
30
  0.00000000
11
  0.12810000
21
 -0.08770000
31
  0.00000000
0
LINE
8
DC
6
CONTINUOUS
62
7
10
  0.12610000
20
 -0.08930000
30
  0.00000000
11
  0.12910000
21
 -0.08930000
31
  0.00000000
0
LINE
8
DC
6
CONTINUOUS
62
7
10
  0.12620000
20
 -0.09230000
30
  0.00000000
11
  0.12620000
21
 -0.09230000
31
  0.00000000
0
LINE
8
DC
6
CONTINUOUS
62
7
10
  0.12598206
20
 -0.09225000
30
  0.00000000
11
  0.12641794
21
 -0.09225000
31
  0.00000000
0
LINE
8
DC
6
CONTINUOUS
62
7
10
  0.12590000
20
 -0.09220000
30
  0.00000000
11
  0.12650000
21
 -0.09220000
31
  0.00000000
0
LINE
8
DC
6
CONTINUOUS
62
7
10
  0.12584293
20
 -0.09215000
30
  0.00000000
11
  0.12655707
21
 -0.09215000
31
  0.00000000
0
LINE
8
DC
6
CONTINUOUS
62
7
10
  0.12580000
20
 -0.09210000
30
  0.00000000
11
  0.12660000
21
 -0.09210000
31
  0.00000000
0
LINE
8
DC
6
CONTINUOUS
62
7
10
  0.12576699
20
 -0.09205000
30
  0.00000000
11
  0.12663301
21
 -0.09205000
31
  0.00000000
0
LINE
8
DC
6
CONTINUOUS
62
7
10
  0.12574174
20
 -0.09200000
30
  0.00000000
11
  0.12665826
21
 -0.09200000
31
  0.00000000
0
LINE
8
DC
6
CONTINUOUS
62
7
10
  0.12572303
20
 -0.09195000
30
  0.00000000
11
  0.12667697
21
 -0.09195000
31
  0.00000000
0
LINE
8
DC
6
CONTINUOUS
62
7
10
  0.12571010
20
 -0.09190000
30
  0.00000000
11
  0.12668990
21
 -0.09190000
31
  0.00000000
0
LINE
8
DC
6
CONTINUOUS
62
7
10
  0.12570251
20
 -0.09185000
30
  0.00000000
11
  0.12669749
21
 -0.09185000
31
  0.00000000
0
LINE
8
DC
6
CONTINUOUS
62
7
10
  0.12570000
20
 -0.09180000
30
  0.00000000
11
  0.12670000
21
 -0.09180000
31
  0.00000000
0
LINE
8
DC
6
CONTINUOUS
62
7
10
  0.12570251
20
 -0.09175000
30
  0.00000000
11
  0.12669749
21
 -0.09175000
31
  0.00000000
0
LINE
8
DC
6
CONTINUOUS
62
7
10
  0.12571010
20
 -0.09170000
30
  0.00000000
11
  0.12668990
21
 -0.09170000
31
  0.00000000
0
LINE
8
DC
6
CONTINUOUS
62
7
10
  0.12572303
20
 -0.09165000
30
  0.00000000
11
  0.12667697
21
 -0.09165000
31
  0.00000000
0
LINE
8
DC
6
CONTINUOUS
62
7
10
  0.12574174
20
 -0.09160000
30
  0.00000000
11
  0.12665826
21
 -0.09160000
31
  0.00000000
0
LINE
8
DC
6
CONTINUOUS
62
7
10
  0.12576699
20
 -0.09155000
30
  0.00000000
11
  0.12663301
21
 -0.09155000
31
  0.00000000
0
LINE
8
DC
6
CONTINUOUS
62
7
10
  0.12580000
20
 -0.09150000
30
  0.00000000
11
  0.12660000
21
 -0.09150000
31
  0.00000000
0
LINE
8
DC
6
CONTINUOUS
62
7
10
  0.12584293
20
 -0.09145000
30
  0.00000000
11
  0.12655707
21
 -0.09145000
31
  0.00000000
0
LINE
8
DC
6
CONTINUOUS
62
7
10
  0.12590000
20
 -0.09140000
30
  0.00000000
11
  0.12650000
21
 -0.09140000
31
  0.00000000
0
LINE
8
DC
6
CONTINUOUS
62
7
10
  0.12598206
20
 -0.09135000
30
  0.00000000
11
  0.12641794
21
 -0.09135000
31
  0.00000000
0
CIRCLE
8
DC
6
CONTINUOUS
62
7
10
  0.12620000
20
 -0.09180000
30
  0.00000000
40
  0.00050000
0
LINE
8
DC
6
CONTINUOUS
62
7
10
  0.12780000
20
 -0.09230000
30
  0.00000000
11
  0.12780000
21
 -0.09230000
31
  0.00000000
0
LINE
8
DC
6
CONTINUOUS
62
7
10
  0.12758206
20
 -0.09225000
30
  0.00000000
11
  0.12801794
21
 -0.09225000
31
  0.00000000
0
LINE
8
DC
6
CONTINUOUS
62
7
10
  0.12750000
20
 -0.09220000
30
  0.00000000
11
  0.12810000
21
 -0.09220000
31
  0.00000000
0
LINE
8
DC
6
CONTINUOUS
62
7
10
  0.12744293
20
 -0.09215000
30
  0.00000000
11
  0.12815707
21
 -0.09215000
31
  0.00000000
0
LINE
8
DC
6
CONTINUOUS
62
7
10
  0.12740000
20
 -0.09210000
30
  0.00000000
11
  0.12820000
21
 -0.09210000
31
  0.00000000
0
LINE
8
DC
6
CONTINUOUS
62
7
10
  0.12736699
20
 -0.09205000
30
  0.00000000
11
  0.12823301
21
 -0.09205000
31
  0.00000000
0
LINE
8
DC
6
CONTINUOUS
62
7
10
  0.12734174
20
 -0.09200000
30
  0.00000000
11
  0.12825826
21
 -0.09200000
31
  0.00000000
0
LINE
8
DC
6
CONTINUOUS
62
7
10
  0.12732303
20
 -0.09195000
30
  0.00000000
11
  0.12827697
21
 -0.09195000
31
  0.00000000
0
LINE
8
DC
6
CONTINUOUS
62
7
10
  0.12731010
20
 -0.09190000
30
  0.00000000
11
  0.12828990
21
 -0.09190000
31
  0.00000000
0
LINE
8
DC
6
CONTINUOUS
62
7
10
  0.12730251
20
 -0.09185000
30
  0.00000000
11
  0.12829749
21
 -0.09185000
31
  0.00000000
0
LINE
8
DC
6
CONTINUOUS
62
7
10
  0.12730000
20
 -0.09180000
30
  0.00000000
11
  0.12830000
21
 -0.09180000
31
  0.00000000
0
LINE
8
DC
6
CONTINUOUS
62
7
10
  0.12730251
20
 -0.09175000
30
  0.00000000
11
  0.12829749
21
 -0.09175000
31
  0.00000000
0
LINE
8
DC
6
CONTINUOUS
62
7
10
  0.12731010
20
 -0.09170000
30
  0.00000000
11
  0.12828990
21
 -0.09170000
31
  0.00000000
0
LINE
8
DC
6
CONTINUOUS
62
7
10
  0.12732303
20
 -0.09165000
30
  0.00000000
11
  0.12827697
21
 -0.09165000
31
  0.00000000
0
LINE
8
DC
6
CONTINUOUS
62
7
10
  0.12734174
20
 -0.09160000
30
  0.00000000
11
  0.12825826
21
 -0.09160000
31
  0.00000000
0
LINE
8
DC
6
CONTINUOUS
62
7
10
  0.12736699
20
 -0.09155000
30
  0.00000000
11
  0.12823301
21
 -0.09155000
31
  0.00000000
0
LINE
8
DC
6
CONTINUOUS
62
7
10
  0.12740000
20
 -0.09150000
30
  0.00000000
11
  0.12820000
21
 -0.09150000
31
  0.00000000
0
LINE
8
DC
6
CONTINUOUS
62
7
10
  0.12744293
20
 -0.09145000
30
  0.00000000
11
  0.12815707
21
 -0.09145000
31
  0.00000000
0
LINE
8
DC
6
CONTINUOUS
62
7
10
  0.12750000
20
 -0.09140000
30
  0.00000000
11
  0.12810000
21
 -0.09140000
31
  0.00000000
0
LINE
8
DC
6
CONTINUOUS
62
7
10
  0.12758206
20
 -0.09135000
30
  0.00000000
11
  0.12801794
21
 -0.09135000
31
  0.00000000
0
CIRCLE
8
DC
6
CONTINUOUS
62
7
10
  0.12780000
20
 -0.09180000
30
  0.00000000
40
  0.00050000
0
LINE
8
DC
6
CONTINUOUS
62
7
10
  0.12560000
20
 -0.09230000
30
  0.00000000
11
  0.12860000
21
 -0.09230000
31
  0.00000000
0
LINE
8
DC
6
CONTINUOUS
62
7
10
  0.12480000
20
 -0.09420000
30
  0.00000000
11
  0.12480000
21
 -0.09420000
31
  0.00000000
0
LINE
8
DC
6
CONTINUOUS
62
7
10
  0.12466771
20
 -0.09415000
30
  0.00000000
11
  0.12493229
21
 -0.09415000
31
  0.00000000
0
LINE
8
DC
6
CONTINUOUS
62
7
10
  0.12462679
20
 -0.09410000
30
  0.00000000
11
  0.12497321
21
 -0.09410000
31
  0.00000000
0
LINE
8
DC
6
CONTINUOUS
62
7
10
  0.12460635
20
 -0.09405000
30
  0.00000000
11
  0.12499365
21
 -0.09405000
31
  0.00000000
0
LINE
8
DC
6
CONTINUOUS
62
7
10
  0.12460000
20
 -0.09400000
30
  0.00000000
11
  0.12500000
21
 -0.09400000
31
  0.00000000
0
LINE
8
DC
6
CONTINUOUS
62
7
10
  0.12460635
20
 -0.09395000
30
  0.00000000
11
  0.12499365
21
 -0.09395000
31
  0.00000000
0
LINE
8
DC
6
CONTINUOUS
62
7
10
  0.12462679
20
 -0.09390000
30
  0.00000000
11
  0.12497321
21
 -0.09390000
31
  0.00000000
0
LINE
8
DC
6
CONTINUOUS
62
7
10
  0.12466771
20
 -0.09385000
30
  0.00000000
11
  0.12493229
21
 -0.09385000
31
  0.00000000
0
CIRCLE
8
DC
6
CONTINUOUS
62
7
10
  0.12480000
20
 -0.09400000
30
  0.00000000
40
  0.00020000
0
LINE
8
DC
6
CONTINUOUS
62
7
10
  0.12580000
20
 -0.09420000
30
  0.00000000
11
  0.12580000
21
 -0.09420000
31
  0.00000000
0
LINE
8
DC
6
CONTINUOUS
62
7
10
  0.12566771
20
 -0.09415000
30
  0.00000000
11
  0.12593229
21
 -0.09415000
31
  0.00000000
0
LINE
8
DC
6
CONTINUOUS
62
7
10
  0.12562679
20
 -0.09410000
30
  0.00000000
11
  0.12597321
21
 -0.09410000
31
  0.00000000
0
LINE
8
DC
6
CONTINUOUS
62
7
10
  0.12560635
20
 -0.09405000
30
  0.00000000
11
  0.12599365
21
 -0.09405000
31
  0.00000000
0
LINE
8
DC
6
CONTINUOUS
62
7
10
  0.12560000
20
 -0.09400000
30
  0.00000000
11
  0.12600000
21
 -0.09400000
31
  0.00000000
0
LINE
8
DC
6
CONTINUOUS
62
7
10
  0.12560635
20
 -0.09395000
30
  0.00000000
11
  0.12599365
21
 -0.09395000
31
  0.00000000
0
LINE
8
DC
6
CONTINUOUS
62
7
10
  0.12562679
20
 -0.09390000
30
  0.00000000
11
  0.12597321
21
 -0.09390000
31
  0.00000000
0
LINE
8
DC
6
CONTINUOUS
62
7
10
  0.12566771
20
 -0.09385000
30
  0.00000000
11
  0.12593229
21
 -0.09385000
31
  0.00000000
0
CIRCLE
8
DC
6
CONTINUOUS
62
7
10
  0.12580000
20
 -0.09400000
30
  0.00000000
40
  0.00020000
0
LINE
8
DC
6
CONTINUOUS
62
7
10
  0.12680000
20
 -0.09420000
30
  0.00000000
11
  0.12680000
21
 -0.09420000
31
  0.00000000
0
LINE
8
DC
6
CONTINUOUS
62
7
10
  0.12666771
20
 -0.09415000
30
  0.00000000
11
  0.12693229
21
 -0.09415000
31
  0.00000000
0
LINE
8
DC
6
CONTINUOUS
62
7
10
  0.12662679
20
 -0.09410000
30
  0.00000000
11
  0.12697321
21
 -0.09410000
31
  0.00000000
0
LINE
8
DC
6
CONTINUOUS
62
7
10
  0.12660635
20
 -0.09405000
30
  0.00000000
11
  0.12699365
21
 -0.09405000
31
  0.00000000
0
LINE
8
DC
6
CONTINUOUS
62
7
10
  0.12660000
20
 -0.09400000
30
  0.00000000
11
  0.12700000
21
 -0.09400000
31
  0.00000000
0
LINE
8
DC
6
CONTINUOUS
62
7
10
  0.12660635
20
 -0.09395000
30
  0.00000000
11
  0.12699365
21
 -0.09395000
31
  0.00000000
0
LINE
8
DC
6
CONTINUOUS
62
7
10
  0.12662679
20
 -0.09390000
30
  0.00000000
11
  0.12697321
21
 -0.09390000
31
  0.00000000
0
LINE
8
DC
6
CONTINUOUS
62
7
10
  0.12666771
20
 -0.09385000
30
  0.00000000
11
  0.12693229
21
 -0.09385000
31
  0.00000000
0
CIRCLE
8
DC
6
CONTINUOUS
62
7
10
  0.12680000
20
 -0.09400000
30
  0.00000000
40
  0.00020000
0
LINE
8
DC
6
CONTINUOUS
62
7
10
  0.12780000
20
 -0.09420000
30
  0.00000000
11
  0.12780000
21
 -0.09420000
31
  0.00000000
0
LINE
8
DC
6
CONTINUOUS
62
7
10
  0.12766771
20
 -0.09415000
30
  0.00000000
11
  0.12793229
21
 -0.09415000
31
  0.00000000
0
LINE
8
DC
6
CONTINUOUS
62
7
10
  0.12762679
20
 -0.09410000
30
  0.00000000
11
  0.12797321
21
 -0.09410000
31
  0.00000000
0
LINE
8
DC
6
CONTINUOUS
62
7
10
  0.12760635
20
 -0.09405000
30
  0.00000000
11
  0.12799365
21
 -0.09405000
31
  0.00000000
0
LINE
8
DC
6
CONTINUOUS
62
7
10
  0.12760000
20
 -0.09400000
30
  0.00000000
11
  0.12800000
21
 -0.09400000
31
  0.00000000
0
LINE
8
DC
6
CONTINUOUS
62
7
10
  0.12760635
20
 -0.09395000
30
  0.00000000
11
  0.12799365
21
 -0.09395000
31
  0.00000000
0
LINE
8
DC
6
CONTINUOUS
62
7
10
  0.12762679
20
 -0.09390000
30
  0.00000000
11
  0.12797321
21
 -0.09390000
31
  0.00000000
0
LINE
8
DC
6
CONTINUOUS
62
7
10
  0.12766771
20
 -0.09385000
30
  0.00000000
11
  0.12793229
21
 -0.09385000
31
  0.00000000
0
CIRCLE
8
DC
6
CONTINUOUS
62
7
10
  0.12780000
20
 -0.09400000
30
  0.00000000
40
  0.00020000
0
LINE
8
DC
6
CONTINUOUS
62
7
10
  0.12880000
20
 -0.09420000
30
  0.00000000
11
  0.12880000
21
 -0.09420000
31
  0.00000000
0
LINE
8
DC
6
CONTINUOUS
62
7
10
  0.12866771
20
 -0.09415000
30
  0.00000000
11
  0.12893229
21
 -0.09415000
31
  0.00000000
0
LINE
8
DC
6
CONTINUOUS
62
7
10
  0.12862679
20
 -0.09410000
30
  0.00000000
11
  0.12897321
21
 -0.09410000
31
  0.00000000
0
LINE
8
DC
6
CONTINUOUS
62
7
10
  0.12860635
20
 -0.09405000
30
  0.00000000
11
  0.12899365
21
 -0.09405000
31
  0.00000000
0
LINE
8
DC
6
CONTINUOUS
62
7
10
  0.12860000
20
 -0.09400000
30
  0.00000000
11
  0.12900000
21
 -0.09400000
31
  0.00000000
0
LINE
8
DC
6
CONTINUOUS
62
7
10
  0.12860635
20
 -0.09395000
30
  0.00000000
11
  0.12899365
21
 -0.09395000
31
  0.00000000
0
LINE
8
DC
6
CONTINUOUS
62
7
10
  0.12862679
20
 -0.09390000
30
  0.00000000
11
  0.12897321
21
 -0.09390000
31
  0.00000000
0
LINE
8
DC
6
CONTINUOUS
62
7
10
  0.12866771
20
 -0.09385000
30
  0.00000000
11
  0.12893229
21
 -0.09385000
31
  0.00000000
0
CIRCLE
8
DC
6
CONTINUOUS
62
7
10
  0.12880000
20
 -0.09400000
30
  0.00000000
40
  0.00020000
0
LINE
8
DC
6
CONTINUOUS
62
7
10
  0.12480000
20
 -0.09640000
30
  0.00000000
11
  0.12480000
21
 -0.09640000
31
  0.00000000
0
LINE
8
DC
6
CONTINUOUS
62
7
10
  0.12466771
20
 -0.09635000
30
  0.00000000
11
  0.12493229
21
 -0.09635000
31
  0.00000000
0
LINE
8
DC
6
CONTINUOUS
62
7
10
  0.12462679
20
 -0.09630000
30
  0.00000000
11
  0.12497321
21
 -0.09630000
31
  0.00000000
0
LINE
8
DC
6
CONTINUOUS
62
7
10
  0.12460635
20
 -0.09625000
30
  0.00000000
11
  0.12499365
21
 -0.09625000
31
  0.00000000
0
LINE
8
DC
6
CONTINUOUS
62
7
10
  0.12460000
20
 -0.09620000
30
  0.00000000
11
  0.12500000
21
 -0.09620000
31
  0.00000000
0
LINE
8
DC
6
CONTINUOUS
62
7
10
  0.12460635
20
 -0.09615000
30
  0.00000000
11
  0.12499365
21
 -0.09615000
31
  0.00000000
0
LINE
8
DC
6
CONTINUOUS
62
7
10
  0.12462679
20
 -0.09610000
30
  0.00000000
11
  0.12497321
21
 -0.09610000
31
  0.00000000
0
LINE
8
DC
6
CONTINUOUS
62
7
10
  0.12466771
20
 -0.09605000
30
  0.00000000
11
  0.12493229
21
 -0.09605000
31
  0.00000000
0
CIRCLE
8
DC
6
CONTINUOUS
62
7
10
  0.12480000
20
 -0.09620000
30
  0.00000000
40
  0.00020000
0
LINE
8
DC
6
CONTINUOUS
62
7
10
  0.12580000
20
 -0.09640000
30
  0.00000000
11
  0.12580000
21
 -0.09640000
31
  0.00000000
0
LINE
8
DC
6
CONTINUOUS
62
7
10
  0.12566771
20
 -0.09635000
30
  0.00000000
11
  0.12593229
21
 -0.09635000
31
  0.00000000
0
LINE
8
DC
6
CONTINUOUS
62
7
10
  0.12562679
20
 -0.09630000
30
  0.00000000
11
  0.12597321
21
 -0.09630000
31
  0.00000000
0
LINE
8
DC
6
CONTINUOUS
62
7
10
  0.12560635
20
 -0.09625000
30
  0.00000000
11
  0.12599365
21
 -0.09625000
31
  0.00000000
0
LINE
8
DC
6
CONTINUOUS
62
7
10
  0.12560000
20
 -0.09620000
30
  0.00000000
11
  0.12600000
21
 -0.09620000
31
  0.00000000
0
LINE
8
DC
6
CONTINUOUS
62
7
10
  0.12560635
20
 -0.09615000
30
  0.00000000
11
  0.12599365
21
 -0.09615000
31
  0.00000000
0
LINE
8
DC
6
CONTINUOUS
62
7
10
  0.12562679
20
 -0.09610000
30
  0.00000000
11
  0.12597321
21
 -0.09610000
31
  0.00000000
0
LINE
8
DC
6
CONTINUOUS
62
7
10
  0.12566771
20
 -0.09605000
30
  0.00000000
11
  0.12593229
21
 -0.09605000
31
  0.00000000
0
CIRCLE
8
DC
6
CONTINUOUS
62
7
10
  0.12580000
20
 -0.09620000
30
  0.00000000
40
  0.00020000
0
LINE
8
DC
6
CONTINUOUS
62
7
10
  0.12680000
20
 -0.09640000
30
  0.00000000
11
  0.12680000
21
 -0.09640000
31
  0.00000000
0
LINE
8
DC
6
CONTINUOUS
62
7
10
  0.12666771
20
 -0.09635000
30
  0.00000000
11
  0.12693229
21
 -0.09635000
31
  0.00000000
0
LINE
8
DC
6
CONTINUOUS
62
7
10
  0.12662679
20
 -0.09630000
30
  0.00000000
11
  0.12697321
21
 -0.09630000
31
  0.00000000
0
LINE
8
DC
6
CONTINUOUS
62
7
10
  0.12660635
20
 -0.09625000
30
  0.00000000
11
  0.12699365
21
 -0.09625000
31
  0.00000000
0
LINE
8
DC
6
CONTINUOUS
62
7
10
  0.12660000
20
 -0.09620000
30
  0.00000000
11
  0.12700000
21
 -0.09620000
31
  0.00000000
0
LINE
8
DC
6
CONTINUOUS
62
7
10
  0.12660635
20
 -0.09615000
30
  0.00000000
11
  0.12699365
21
 -0.09615000
31
  0.00000000
0
LINE
8
DC
6
CONTINUOUS
62
7
10
  0.12662679
20
 -0.09610000
30
  0.00000000
11
  0.12697321
21
 -0.09610000
31
  0.00000000
0
LINE
8
DC
6
CONTINUOUS
62
7
10
  0.12666771
20
 -0.09605000
30
  0.00000000
11
  0.12693229
21
 -0.09605000
31
  0.00000000
0
CIRCLE
8
DC
6
CONTINUOUS
62
7
10
  0.12680000
20
 -0.09620000
30
  0.00000000
40
  0.00020000
0
LINE
8
DC
6
CONTINUOUS
62
7
10
  0.12780000
20
 -0.09640000
30
  0.00000000
11
  0.12780000
21
 -0.09640000
31
  0.00000000
0
LINE
8
DC
6
CONTINUOUS
62
7
10
  0.12766771
20
 -0.09635000
30
  0.00000000
11
  0.12793229
21
 -0.09635000
31
  0.00000000
0
LINE
8
DC
6
CONTINUOUS
62
7
10
  0.12762679
20
 -0.09630000
30
  0.00000000
11
  0.12797321
21
 -0.09630000
31
  0.00000000
0
LINE
8
DC
6
CONTINUOUS
62
7
10
  0.12760635
20
 -0.09625000
30
  0.00000000
11
  0.12799365
21
 -0.09625000
31
  0.00000000
0
LINE
8
DC
6
CONTINUOUS
62
7
10
  0.12760000
20
 -0.09620000
30
  0.00000000
11
  0.12800000
21
 -0.09620000
31
  0.00000000
0
LINE
8
DC
6
CONTINUOUS
62
7
10
  0.12760635
20
 -0.09615000
30
  0.00000000
11
  0.12799365
21
 -0.09615000
31
  0.00000000
0
LINE
8
DC
6
CONTINUOUS
62
7
10
  0.12762679
20
 -0.09610000
30
  0.00000000
11
  0.12797321
21
 -0.09610000
31
  0.00000000
0
LINE
8
DC
6
CONTINUOUS
62
7
10
  0.12766771
20
 -0.09605000
30
  0.00000000
11
  0.12793229
21
 -0.09605000
31
  0.00000000
0
CIRCLE
8
DC
6
CONTINUOUS
62
7
10
  0.12780000
20
 -0.09620000
30
  0.00000000
40
  0.00020000
0
LINE
8
DC
6
CONTINUOUS
62
7
10
  0.12880000
20
 -0.09640000
30
  0.00000000
11
  0.12880000
21
 -0.09640000
31
  0.00000000
0
LINE
8
DC
6
CONTINUOUS
62
7
10
  0.12866771
20
 -0.09635000
30
  0.00000000
11
  0.12893229
21
 -0.09635000
31
  0.00000000
0
LINE
8
DC
6
CONTINUOUS
62
7
10
  0.12862679
20
 -0.09630000
30
  0.00000000
11
  0.12897321
21
 -0.09630000
31
  0.00000000
0
LINE
8
DC
6
CONTINUOUS
62
7
10
  0.12860635
20
 -0.09625000
30
  0.00000000
11
  0.12899365
21
 -0.09625000
31
  0.00000000
0
LINE
8
DC
6
CONTINUOUS
62
7
10
  0.12860000
20
 -0.09620000
30
  0.00000000
11
  0.12900000
21
 -0.09620000
31
  0.00000000
0
LINE
8
DC
6
CONTINUOUS
62
7
10
  0.12860635
20
 -0.09615000
30
  0.00000000
11
  0.12899365
21
 -0.09615000
31
  0.00000000
0
LINE
8
DC
6
CONTINUOUS
62
7
10
  0.12862679
20
 -0.09610000
30
  0.00000000
11
  0.12897321
21
 -0.09610000
31
  0.00000000
0
LINE
8
DC
6
CONTINUOUS
62
7
10
  0.12866771
20
 -0.09605000
30
  0.00000000
11
  0.12893229
21
 -0.09605000
31
  0.00000000
0
CIRCLE
8
DC
6
CONTINUOUS
62
7
10
  0.12880000
20
 -0.09620000
30
  0.00000000
40
  0.00020000
0
LINE
8
DC
6
CONTINUOUS
62
7
10
  0.12530000
20
 -0.09530000
30
  0.00000000
11
  0.12530000
21
 -0.09530000
31
  0.00000000
0
LINE
8
DC
6
CONTINUOUS
62
7
10
  0.12516771
20
 -0.09525000
30
  0.00000000
11
  0.12543229
21
 -0.09525000
31
  0.00000000
0
LINE
8
DC
6
CONTINUOUS
62
7
10
  0.12512679
20
 -0.09520000
30
  0.00000000
11
  0.12547321
21
 -0.09520000
31
  0.00000000
0
LINE
8
DC
6
CONTINUOUS
62
7
10
  0.12510635
20
 -0.09515000
30
  0.00000000
11
  0.12549365
21
 -0.09515000
31
  0.00000000
0
LINE
8
DC
6
CONTINUOUS
62
7
10
  0.12510000
20
 -0.09510000
30
  0.00000000
11
  0.12550000
21
 -0.09510000
31
  0.00000000
0
LINE
8
DC
6
CONTINUOUS
62
7
10
  0.12510635
20
 -0.09505000
30
  0.00000000
11
  0.12549365
21
 -0.09505000
31
  0.00000000
0
LINE
8
DC
6
CONTINUOUS
62
7
10
  0.12512679
20
 -0.09500000
30
  0.00000000
11
  0.12547321
21
 -0.09500000
31
  0.00000000
0
LINE
8
DC
6
CONTINUOUS
62
7
10
  0.12516771
20
 -0.09495000
30
  0.00000000
11
  0.12543229
21
 -0.09495000
31
  0.00000000
0
CIRCLE
8
DC
6
CONTINUOUS
62
7
10
  0.12530000
20
 -0.09510000
30
  0.00000000
40
  0.00020000
0
LINE
8
DC
6
CONTINUOUS
62
7
10
  0.12630000
20
 -0.09530000
30
  0.00000000
11
  0.12630000
21
 -0.09530000
31
  0.00000000
0
LINE
8
DC
6
CONTINUOUS
62
7
10
  0.12616771
20
 -0.09525000
30
  0.00000000
11
  0.12643229
21
 -0.09525000
31
  0.00000000
0
LINE
8
DC
6
CONTINUOUS
62
7
10
  0.12612679
20
 -0.09520000
30
  0.00000000
11
  0.12647321
21
 -0.09520000
31
  0.00000000
0
LINE
8
DC
6
CONTINUOUS
62
7
10
  0.12610635
20
 -0.09515000
30
  0.00000000
11
  0.12649365
21
 -0.09515000
31
  0.00000000
0
LINE
8
DC
6
CONTINUOUS
62
7
10
  0.12610000
20
 -0.09510000
30
  0.00000000
11
  0.12650000
21
 -0.09510000
31
  0.00000000
0
LINE
8
DC
6
CONTINUOUS
62
7
10
  0.12610635
20
 -0.09505000
30
  0.00000000
11
  0.12649365
21
 -0.09505000
31
  0.00000000
0
LINE
8
DC
6
CONTINUOUS
62
7
10
  0.12612679
20
 -0.09500000
30
  0.00000000
11
  0.12647321
21
 -0.09500000
31
  0.00000000
0
LINE
8
DC
6
CONTINUOUS
62
7
10
  0.12616771
20
 -0.09495000
30
  0.00000000
11
  0.12643229
21
 -0.09495000
31
  0.00000000
0
CIRCLE
8
DC
6
CONTINUOUS
62
7
10
  0.12630000
20
 -0.09510000
30
  0.00000000
40
  0.00020000
0
LINE
8
DC
6
CONTINUOUS
62
7
10
  0.12730000
20
 -0.09530000
30
  0.00000000
11
  0.12730000
21
 -0.09530000
31
  0.00000000
0
LINE
8
DC
6
CONTINUOUS
62
7
10
  0.12716771
20
 -0.09525000
30
  0.00000000
11
  0.12743229
21
 -0.09525000
31
  0.00000000
0
LINE
8
DC
6
CONTINUOUS
62
7
10
  0.12712679
20
 -0.09520000
30
  0.00000000
11
  0.12747321
21
 -0.09520000
31
  0.00000000
0
LINE
8
DC
6
CONTINUOUS
62
7
10
  0.12710635
20
 -0.09515000
30
  0.00000000
11
  0.12749365
21
 -0.09515000
31
  0.00000000
0
LINE
8
DC
6
CONTINUOUS
62
7
10
  0.12710000
20
 -0.09510000
30
  0.00000000
11
  0.12750000
21
 -0.09510000
31
  0.00000000
0
LINE
8
DC
6
CONTINUOUS
62
7
10
  0.12710635
20
 -0.09505000
30
  0.00000000
11
  0.12749365
21
 -0.09505000
31
  0.00000000
0
LINE
8
DC
6
CONTINUOUS
62
7
10
  0.12712679
20
 -0.09500000
30
  0.00000000
11
  0.12747321
21
 -0.09500000
31
  0.00000000
0
LINE
8
DC
6
CONTINUOUS
62
7
10
  0.12716771
20
 -0.09495000
30
  0.00000000
11
  0.12743229
21
 -0.09495000
31
  0.00000000
0
CIRCLE
8
DC
6
CONTINUOUS
62
7
10
  0.12730000
20
 -0.09510000
30
  0.00000000
40
  0.00020000
0
LINE
8
DC
6
CONTINUOUS
62
7
10
  0.12830000
20
 -0.09530000
30
  0.00000000
11
  0.12830000
21
 -0.09530000
31
  0.00000000
0
LINE
8
DC
6
CONTINUOUS
62
7
10
  0.12816771
20
 -0.09525000
30
  0.00000000
11
  0.12843229
21
 -0.09525000
31
  0.00000000
0
LINE
8
DC
6
CONTINUOUS
62
7
10
  0.12812679
20
 -0.09520000
30
  0.00000000
11
  0.12847321
21
 -0.09520000
31
  0.00000000
0
LINE
8
DC
6
CONTINUOUS
62
7
10
  0.12810635
20
 -0.09515000
30
  0.00000000
11
  0.12849365
21
 -0.09515000
31
  0.00000000
0
LINE
8
DC
6
CONTINUOUS
62
7
10
  0.12810000
20
 -0.09510000
30
  0.00000000
11
  0.12850000
21
 -0.09510000
31
  0.00000000
0
LINE
8
DC
6
CONTINUOUS
62
7
10
  0.12810635
20
 -0.09505000
30
  0.00000000
11
  0.12849365
21
 -0.09505000
31
  0.00000000
0
LINE
8
DC
6
CONTINUOUS
62
7
10
  0.12812679
20
 -0.09500000
30
  0.00000000
11
  0.12847321
21
 -0.09500000
31
  0.00000000
0
LINE
8
DC
6
CONTINUOUS
62
7
10
  0.12816771
20
 -0.09495000
30
  0.00000000
11
  0.12843229
21
 -0.09495000
31
  0.00000000
0
CIRCLE
8
DC
6
CONTINUOUS
62
7
10
  0.12830000
20
 -0.09510000
30
  0.00000000
40
  0.00020000
0
LINE
8
DC
6
CONTINUOUS
62
7
10
  0.12930000
20
 -0.09530000
30
  0.00000000
11
  0.12930000
21
 -0.09530000
31
  0.00000000
0
LINE
8
DC
6
CONTINUOUS
62
7
10
  0.12916771
20
 -0.09525000
30
  0.00000000
11
  0.12943229
21
 -0.09525000
31
  0.00000000
0
LINE
8
DC
6
CONTINUOUS
62
7
10
  0.12912679
20
 -0.09520000
30
  0.00000000
11
  0.12947321
21
 -0.09520000
31
  0.00000000
0
LINE
8
DC
6
CONTINUOUS
62
7
10
  0.12910635
20
 -0.09515000
30
  0.00000000
11
  0.12949365
21
 -0.09515000
31
  0.00000000
0
LINE
8
DC
6
CONTINUOUS
62
7
10
  0.12910000
20
 -0.09510000
30
  0.00000000
11
  0.12950000
21
 -0.09510000
31
  0.00000000
0
LINE
8
DC
6
CONTINUOUS
62
7
10
  0.12910635
20
 -0.09505000
30
  0.00000000
11
  0.12949365
21
 -0.09505000
31
  0.00000000
0
LINE
8
DC
6
CONTINUOUS
62
7
10
  0.12912679
20
 -0.09500000
30
  0.00000000
11
  0.12947321
21
 -0.09500000
31
  0.00000000
0
LINE
8
DC
6
CONTINUOUS
62
7
10
  0.12916771
20
 -0.09495000
30
  0.00000000
11
  0.12943229
21
 -0.09495000
31
  0.00000000
0
CIRCLE
8
DC
6
CONTINUOUS
62
7
10
  0.12930000
20
 -0.09510000
30
  0.00000000
40
  0.00020000
0
LINE
8
DC
6
CONTINUOUS
62
7
10
  0.12510000
20
 -0.09760000
30
  0.00000000
11
  0.12810000
21
 -0.09760000
31
  0.00000000
0
LINE
8
DC
6
CONTINUOUS
62
7
10
  0.12610000
20
 -0.09920000
30
  0.00000000
11
  0.12910000
21
 -0.09920000
31
  0.00000000
0
LINE
8
DC
6
CONTINUOUS
62
7
10
  0.12510000
20
 -0.10090000
30
  0.00000000
11
  0.12810000
21
 -0.10090000
31
  0.00000000
0
LINE
8
DC
6
CONTINUOUS
62
7
10
  0.12610000
20
 -0.10250000
30
  0.00000000
11
  0.12910000
21
 -0.10250000
31
  0.00000000
0
LINE
8
DC
6
CONTINUOUS
62
7
10
  0.12620000
20
 -0.10550000
30
  0.00000000
11
  0.12620000
21
 -0.10550000
31
  0.00000000
0
LINE
8
DC
6
CONTINUOUS
62
7
10
  0.12598206
20
 -0.10545000
30
  0.00000000
11
  0.12641794
21
 -0.10545000
31
  0.00000000
0
LINE
8
DC
6
CONTINUOUS
62
7
10
  0.12590000
20
 -0.10540000
30
  0.00000000
11
  0.12650000
21
 -0.10540000
31
  0.00000000
0
LINE
8
DC
6
CONTINUOUS
62
7
10
  0.12584293
20
 -0.10535000
30
  0.00000000
11
  0.12655707
21
 -0.10535000
31
  0.00000000
0
LINE
8
DC
6
CONTINUOUS
62
7
10
  0.12580000
20
 -0.10530000
30
  0.00000000
11
  0.12660000
21
 -0.10530000
31
  0.00000000
0
LINE
8
DC
6
CONTINUOUS
62
7
10
  0.12576699
20
 -0.10525000
30
  0.00000000
11
  0.12663301
21
 -0.10525000
31
  0.00000000
0
LINE
8
DC
6
CONTINUOUS
62
7
10
  0.12574174
20
 -0.10520000
30
  0.00000000
11
  0.12665826
21
 -0.10520000
31
  0.00000000
0
LINE
8
DC
6
CONTINUOUS
62
7
10
  0.12572303
20
 -0.10515000
30
  0.00000000
11
  0.12667697
21
 -0.10515000
31
  0.00000000
0
LINE
8
DC
6
CONTINUOUS
62
7
10
  0.12571010
20
 -0.10510000
30
  0.00000000
11
  0.12668990
21
 -0.10510000
31
  0.00000000
0
LINE
8
DC
6
CONTINUOUS
62
7
10
  0.12570251
20
 -0.10505000
30
  0.00000000
11
  0.12669749
21
 -0.10505000
31
  0.00000000
0
LINE
8
DC
6
CONTINUOUS
62
7
10
  0.12570000
20
 -0.10500000
30
  0.00000000
11
  0.12670000
21
 -0.10500000
31
  0.00000000
0
LINE
8
DC
6
CONTINUOUS
62
7
10
  0.12570251
20
 -0.10495000
30
  0.00000000
11
  0.12669749
21
 -0.10495000
31
  0.00000000
0
LINE
8
DC
6
CONTINUOUS
62
7
10
  0.12571010
20
 -0.10490000
30
  0.00000000
11
  0.12668990
21
 -0.10490000
31
  0.00000000
0
LINE
8
DC
6
CONTINUOUS
62
7
10
  0.12572303
20
 -0.10485000
30
  0.00000000
11
  0.12667697
21
 -0.10485000
31
  0.00000000
0
LINE
8
DC
6
CONTINUOUS
62
7
10
  0.12574174
20
 -0.10480000
30
  0.00000000
11
  0.12665826
21
 -0.10480000
31
  0.00000000
0
LINE
8
DC
6
CONTINUOUS
62
7
10
  0.12576699
20
 -0.10475000
30
  0.00000000
11
  0.12663301
21
 -0.10475000
31
  0.00000000
0
LINE
8
DC
6
CONTINUOUS
62
7
10
  0.12580000
20
 -0.10470000
30
  0.00000000
11
  0.12660000
21
 -0.10470000
31
  0.00000000
0
LINE
8
DC
6
CONTINUOUS
62
7
10
  0.12584293
20
 -0.10465000
30
  0.00000000
11
  0.12655707
21
 -0.10465000
31
  0.00000000
0
LINE
8
DC
6
CONTINUOUS
62
7
10
  0.12590000
20
 -0.10460000
30
  0.00000000
11
  0.12650000
21
 -0.10460000
31
  0.00000000
0
LINE
8
DC
6
CONTINUOUS
62
7
10
  0.12598206
20
 -0.10455000
30
  0.00000000
11
  0.12641794
21
 -0.10455000
31
  0.00000000
0
CIRCLE
8
DC
6
CONTINUOUS
62
7
10
  0.12620000
20
 -0.10500000
30
  0.00000000
40
  0.00050000
0
LINE
8
DC
6
CONTINUOUS
62
7
10
  0.12780000
20
 -0.10550000
30
  0.00000000
11
  0.12780000
21
 -0.10550000
31
  0.00000000
0
LINE
8
DC
6
CONTINUOUS
62
7
10
  0.12758206
20
 -0.10545000
30
  0.00000000
11
  0.12801794
21
 -0.10545000
31
  0.00000000
0
LINE
8
DC
6
CONTINUOUS
62
7
10
  0.12750000
20
 -0.10540000
30
  0.00000000
11
  0.12810000
21
 -0.10540000
31
  0.00000000
0
LINE
8
DC
6
CONTINUOUS
62
7
10
  0.12744293
20
 -0.10535000
30
  0.00000000
11
  0.12815707
21
 -0.10535000
31
  0.00000000
0
LINE
8
DC
6
CONTINUOUS
62
7
10
  0.12740000
20
 -0.10530000
30
  0.00000000
11
  0.12820000
21
 -0.10530000
31
  0.00000000
0
LINE
8
DC
6
CONTINUOUS
62
7
10
  0.12736699
20
 -0.10525000
30
  0.00000000
11
  0.12823301
21
 -0.10525000
31
  0.00000000
0
LINE
8
DC
6
CONTINUOUS
62
7
10
  0.12734174
20
 -0.10520000
30
  0.00000000
11
  0.12825826
21
 -0.10520000
31
  0.00000000
0
LINE
8
DC
6
CONTINUOUS
62
7
10
  0.12732303
20
 -0.10515000
30
  0.00000000
11
  0.12827697
21
 -0.10515000
31
  0.00000000
0
LINE
8
DC
6
CONTINUOUS
62
7
10
  0.12731010
20
 -0.10510000
30
  0.00000000
11
  0.12828990
21
 -0.10510000
31
  0.00000000
0
LINE
8
DC
6
CONTINUOUS
62
7
10
  0.12730251
20
 -0.10505000
30
  0.00000000
11
  0.12829749
21
 -0.10505000
31
  0.00000000
0
LINE
8
DC
6
CONTINUOUS
62
7
10
  0.12730000
20
 -0.10500000
30
  0.00000000
11
  0.12830000
21
 -0.10500000
31
  0.00000000
0
LINE
8
DC
6
CONTINUOUS
62
7
10
  0.12730251
20
 -0.10495000
30
  0.00000000
11
  0.12829749
21
 -0.10495000
31
  0.00000000
0
LINE
8
DC
6
CONTINUOUS
62
7
10
  0.12731010
20
 -0.10490000
30
  0.00000000
11
  0.12828990
21
 -0.10490000
31
  0.00000000
0
LINE
8
DC
6
CONTINUOUS
62
7
10
  0.12732303
20
 -0.10485000
30
  0.00000000
11
  0.12827697
21
 -0.10485000
31
  0.00000000
0
LINE
8
DC
6
CONTINUOUS
62
7
10
  0.12734174
20
 -0.10480000
30
  0.00000000
11
  0.12825826
21
 -0.10480000
31
  0.00000000
0
LINE
8
DC
6
CONTINUOUS
62
7
10
  0.12736699
20
 -0.10475000
30
  0.00000000
11
  0.12823301
21
 -0.10475000
31
  0.00000000
0
LINE
8
DC
6
CONTINUOUS
62
7
10
  0.12740000
20
 -0.10470000
30
  0.00000000
11
  0.12820000
21
 -0.10470000
31
  0.00000000
0
LINE
8
DC
6
CONTINUOUS
62
7
10
  0.12744293
20
 -0.10465000
30
  0.00000000
11
  0.12815707
21
 -0.10465000
31
  0.00000000
0
LINE
8
DC
6
CONTINUOUS
62
7
10
  0.12750000
20
 -0.10460000
30
  0.00000000
11
  0.12810000
21
 -0.10460000
31
  0.00000000
0
LINE
8
DC
6
CONTINUOUS
62
7
10
  0.12758206
20
 -0.10455000
30
  0.00000000
11
  0.12801794
21
 -0.10455000
31
  0.00000000
0
CIRCLE
8
DC
6
CONTINUOUS
62
7
10
  0.12780000
20
 -0.10500000
30
  0.00000000
40
  0.00050000
0
LINE
8
DC
6
CONTINUOUS
62
7
10
  0.12560000
20
 -0.10550000
30
  0.00000000
11
  0.12860000
21
 -0.10550000
31
  0.00000000
0
LINE
8
DC
6
CONTINUOUS
62
7
10
  0.12480000
20
 -0.10740000
30
  0.00000000
11
  0.12480000
21
 -0.10740000
31
  0.00000000
0
LINE
8
DC
6
CONTINUOUS
62
7
10
  0.12466771
20
 -0.10735000
30
  0.00000000
11
  0.12493229
21
 -0.10735000
31
  0.00000000
0
LINE
8
DC
6
CONTINUOUS
62
7
10
  0.12462679
20
 -0.10730000
30
  0.00000000
11
  0.12497321
21
 -0.10730000
31
  0.00000000
0
LINE
8
DC
6
CONTINUOUS
62
7
10
  0.12460635
20
 -0.10725000
30
  0.00000000
11
  0.12499365
21
 -0.10725000
31
  0.00000000
0
LINE
8
DC
6
CONTINUOUS
62
7
10
  0.12460000
20
 -0.10720000
30
  0.00000000
11
  0.12500000
21
 -0.10720000
31
  0.00000000
0
LINE
8
DC
6
CONTINUOUS
62
7
10
  0.12460635
20
 -0.10715000
30
  0.00000000
11
  0.12499365
21
 -0.10715000
31
  0.00000000
0
LINE
8
DC
6
CONTINUOUS
62
7
10
  0.12462679
20
 -0.10710000
30
  0.00000000
11
  0.12497321
21
 -0.10710000
31
  0.00000000
0
LINE
8
DC
6
CONTINUOUS
62
7
10
  0.12466771
20
 -0.10705000
30
  0.00000000
11
  0.12493229
21
 -0.10705000
31
  0.00000000
0
CIRCLE
8
DC
6
CONTINUOUS
62
7
10
  0.12480000
20
 -0.10720000
30
  0.00000000
40
  0.00020000
0
LINE
8
DC
6
CONTINUOUS
62
7
10
  0.12580000
20
 -0.10740000
30
  0.00000000
11
  0.12580000
21
 -0.10740000
31
  0.00000000
0
LINE
8
DC
6
CONTINUOUS
62
7
10
  0.12566771
20
 -0.10735000
30
  0.00000000
11
  0.12593229
21
 -0.10735000
31
  0.00000000
0
LINE
8
DC
6
CONTINUOUS
62
7
10
  0.12562679
20
 -0.10730000
30
  0.00000000
11
  0.12597321
21
 -0.10730000
31
  0.00000000
0
LINE
8
DC
6
CONTINUOUS
62
7
10
  0.12560635
20
 -0.10725000
30
  0.00000000
11
  0.12599365
21
 -0.10725000
31
  0.00000000
0
LINE
8
DC
6
CONTINUOUS
62
7
10
  0.12560000
20
 -0.10720000
30
  0.00000000
11
  0.12600000
21
 -0.10720000
31
  0.00000000
0
LINE
8
DC
6
CONTINUOUS
62
7
10
  0.12560635
20
 -0.10715000
30
  0.00000000
11
  0.12599365
21
 -0.10715000
31
  0.00000000
0
LINE
8
DC
6
CONTINUOUS
62
7
10
  0.12562679
20
 -0.10710000
30
  0.00000000
11
  0.12597321
21
 -0.10710000
31
  0.00000000
0
LINE
8
DC
6
CONTINUOUS
62
7
10
  0.12566771
20
 -0.10705000
30
  0.00000000
11
  0.12593229
21
 -0.10705000
31
  0.00000000
0
CIRCLE
8
DC
6
CONTINUOUS
62
7
10
  0.12580000
20
 -0.10720000
30
  0.00000000
40
  0.00020000
0
LINE
8
DC
6
CONTINUOUS
62
7
10
  0.12680000
20
 -0.10740000
30
  0.00000000
11
  0.12680000
21
 -0.10740000
31
  0.00000000
0
LINE
8
DC
6
CONTINUOUS
62
7
10
  0.12666771
20
 -0.10735000
30
  0.00000000
11
  0.12693229
21
 -0.10735000
31
  0.00000000
0
LINE
8
DC
6
CONTINUOUS
62
7
10
  0.12662679
20
 -0.10730000
30
  0.00000000
11
  0.12697321
21
 -0.10730000
31
  0.00000000
0
LINE
8
DC
6
CONTINUOUS
62
7
10
  0.12660635
20
 -0.10725000
30
  0.00000000
11
  0.12699365
21
 -0.10725000
31
  0.00000000
0
LINE
8
DC
6
CONTINUOUS
62
7
10
  0.12660000
20
 -0.10720000
30
  0.00000000
11
  0.12700000
21
 -0.10720000
31
  0.00000000
0
LINE
8
DC
6
CONTINUOUS
62
7
10
  0.12660635
20
 -0.10715000
30
  0.00000000
11
  0.12699365
21
 -0.10715000
31
  0.00000000
0
LINE
8
DC
6
CONTINUOUS
62
7
10
  0.12662679
20
 -0.10710000
30
  0.00000000
11
  0.12697321
21
 -0.10710000
31
  0.00000000
0
LINE
8
DC
6
CONTINUOUS
62
7
10
  0.12666771
20
 -0.10705000
30
  0.00000000
11
  0.12693229
21
 -0.10705000
31
  0.00000000
0
CIRCLE
8
DC
6
CONTINUOUS
62
7
10
  0.12680000
20
 -0.10720000
30
  0.00000000
40
  0.00020000
0
LINE
8
DC
6
CONTINUOUS
62
7
10
  0.12780000
20
 -0.10740000
30
  0.00000000
11
  0.12780000
21
 -0.10740000
31
  0.00000000
0
LINE
8
DC
6
CONTINUOUS
62
7
10
  0.12766771
20
 -0.10735000
30
  0.00000000
11
  0.12793229
21
 -0.10735000
31
  0.00000000
0
LINE
8
DC
6
CONTINUOUS
62
7
10
  0.12762679
20
 -0.10730000
30
  0.00000000
11
  0.12797321
21
 -0.10730000
31
  0.00000000
0
LINE
8
DC
6
CONTINUOUS
62
7
10
  0.12760635
20
 -0.10725000
30
  0.00000000
11
  0.12799365
21
 -0.10725000
31
  0.00000000
0
LINE
8
DC
6
CONTINUOUS
62
7
10
  0.12760000
20
 -0.10720000
30
  0.00000000
11
  0.12800000
21
 -0.10720000
31
  0.00000000
0
LINE
8
DC
6
CONTINUOUS
62
7
10
  0.12760635
20
 -0.10715000
30
  0.00000000
11
  0.12799365
21
 -0.10715000
31
  0.00000000
0
LINE
8
DC
6
CONTINUOUS
62
7
10
  0.12762679
20
 -0.10710000
30
  0.00000000
11
  0.12797321
21
 -0.10710000
31
  0.00000000
0
LINE
8
DC
6
CONTINUOUS
62
7
10
  0.12766771
20
 -0.10705000
30
  0.00000000
11
  0.12793229
21
 -0.10705000
31
  0.00000000
0
CIRCLE
8
DC
6
CONTINUOUS
62
7
10
  0.12780000
20
 -0.10720000
30
  0.00000000
40
  0.00020000
0
LINE
8
DC
6
CONTINUOUS
62
7
10
  0.12880000
20
 -0.10740000
30
  0.00000000
11
  0.12880000
21
 -0.10740000
31
  0.00000000
0
LINE
8
DC
6
CONTINUOUS
62
7
10
  0.12866771
20
 -0.10735000
30
  0.00000000
11
  0.12893229
21
 -0.10735000
31
  0.00000000
0
LINE
8
DC
6
CONTINUOUS
62
7
10
  0.12862679
20
 -0.10730000
30
  0.00000000
11
  0.12897321
21
 -0.10730000
31
  0.00000000
0
LINE
8
DC
6
CONTINUOUS
62
7
10
  0.12860635
20
 -0.10725000
30
  0.00000000
11
  0.12899365
21
 -0.10725000
31
  0.00000000
0
LINE
8
DC
6
CONTINUOUS
62
7
10
  0.12860000
20
 -0.10720000
30
  0.00000000
11
  0.12900000
21
 -0.10720000
31
  0.00000000
0
LINE
8
DC
6
CONTINUOUS
62
7
10
  0.12860635
20
 -0.10715000
30
  0.00000000
11
  0.12899365
21
 -0.10715000
31
  0.00000000
0
LINE
8
DC
6
CONTINUOUS
62
7
10
  0.12862679
20
 -0.10710000
30
  0.00000000
11
  0.12897321
21
 -0.10710000
31
  0.00000000
0
LINE
8
DC
6
CONTINUOUS
62
7
10
  0.12866771
20
 -0.10705000
30
  0.00000000
11
  0.12893229
21
 -0.10705000
31
  0.00000000
0
CIRCLE
8
DC
6
CONTINUOUS
62
7
10
  0.12880000
20
 -0.10720000
30
  0.00000000
40
  0.00020000
0
LINE
8
DC
6
CONTINUOUS
62
7
10
  0.12480000
20
 -0.10960000
30
  0.00000000
11
  0.12480000
21
 -0.10960000
31
  0.00000000
0
LINE
8
DC
6
CONTINUOUS
62
7
10
  0.12466771
20
 -0.10955000
30
  0.00000000
11
  0.12493229
21
 -0.10955000
31
  0.00000000
0
LINE
8
DC
6
CONTINUOUS
62
7
10
  0.12462679
20
 -0.10950000
30
  0.00000000
11
  0.12497321
21
 -0.10950000
31
  0.00000000
0
LINE
8
DC
6
CONTINUOUS
62
7
10
  0.12460635
20
 -0.10945000
30
  0.00000000
11
  0.12499365
21
 -0.10945000
31
  0.00000000
0
LINE
8
DC
6
CONTINUOUS
62
7
10
  0.12460000
20
 -0.10940000
30
  0.00000000
11
  0.12500000
21
 -0.10940000
31
  0.00000000
0
LINE
8
DC
6
CONTINUOUS
62
7
10
  0.12460635
20
 -0.10935000
30
  0.00000000
11
  0.12499365
21
 -0.10935000
31
  0.00000000
0
LINE
8
DC
6
CONTINUOUS
62
7
10
  0.12462679
20
 -0.10930000
30
  0.00000000
11
  0.12497321
21
 -0.10930000
31
  0.00000000
0
LINE
8
DC
6
CONTINUOUS
62
7
10
  0.12466771
20
 -0.10925000
30
  0.00000000
11
  0.12493229
21
 -0.10925000
31
  0.00000000
0
CIRCLE
8
DC
6
CONTINUOUS
62
7
10
  0.12480000
20
 -0.10940000
30
  0.00000000
40
  0.00020000
0
LINE
8
DC
6
CONTINUOUS
62
7
10
  0.12580000
20
 -0.10960000
30
  0.00000000
11
  0.12580000
21
 -0.10960000
31
  0.00000000
0
LINE
8
DC
6
CONTINUOUS
62
7
10
  0.12566771
20
 -0.10955000
30
  0.00000000
11
  0.12593229
21
 -0.10955000
31
  0.00000000
0
LINE
8
DC
6
CONTINUOUS
62
7
10
  0.12562679
20
 -0.10950000
30
  0.00000000
11
  0.12597321
21
 -0.10950000
31
  0.00000000
0
LINE
8
DC
6
CONTINUOUS
62
7
10
  0.12560635
20
 -0.10945000
30
  0.00000000
11
  0.12599365
21
 -0.10945000
31
  0.00000000
0
LINE
8
DC
6
CONTINUOUS
62
7
10
  0.12560000
20
 -0.10940000
30
  0.00000000
11
  0.12600000
21
 -0.10940000
31
  0.00000000
0
LINE
8
DC
6
CONTINUOUS
62
7
10
  0.12560635
20
 -0.10935000
30
  0.00000000
11
  0.12599365
21
 -0.10935000
31
  0.00000000
0
LINE
8
DC
6
CONTINUOUS
62
7
10
  0.12562679
20
 -0.10930000
30
  0.00000000
11
  0.12597321
21
 -0.10930000
31
  0.00000000
0
LINE
8
DC
6
CONTINUOUS
62
7
10
  0.12566771
20
 -0.10925000
30
  0.00000000
11
  0.12593229
21
 -0.10925000
31
  0.00000000
0
CIRCLE
8
DC
6
CONTINUOUS
62
7
10
  0.12580000
20
 -0.10940000
30
  0.00000000
40
  0.00020000
0
LINE
8
DC
6
CONTINUOUS
62
7
10
  0.12680000
20
 -0.10960000
30
  0.00000000
11
  0.12680000
21
 -0.10960000
31
  0.00000000
0
LINE
8
DC
6
CONTINUOUS
62
7
10
  0.12666771
20
 -0.10955000
30
  0.00000000
11
  0.12693229
21
 -0.10955000
31
  0.00000000
0
LINE
8
DC
6
CONTINUOUS
62
7
10
  0.12662679
20
 -0.10950000
30
  0.00000000
11
  0.12697321
21
 -0.10950000
31
  0.00000000
0
LINE
8
DC
6
CONTINUOUS
62
7
10
  0.12660635
20
 -0.10945000
30
  0.00000000
11
  0.12699365
21
 -0.10945000
31
  0.00000000
0
LINE
8
DC
6
CONTINUOUS
62
7
10
  0.12660000
20
 -0.10940000
30
  0.00000000
11
  0.12700000
21
 -0.10940000
31
  0.00000000
0
LINE
8
DC
6
CONTINUOUS
62
7
10
  0.12660635
20
 -0.10935000
30
  0.00000000
11
  0.12699365
21
 -0.10935000
31
  0.00000000
0
LINE
8
DC
6
CONTINUOUS
62
7
10
  0.12662679
20
 -0.10930000
30
  0.00000000
11
  0.12697321
21
 -0.10930000
31
  0.00000000
0
LINE
8
DC
6
CONTINUOUS
62
7
10
  0.12666771
20
 -0.10925000
30
  0.00000000
11
  0.12693229
21
 -0.10925000
31
  0.00000000
0
CIRCLE
8
DC
6
CONTINUOUS
62
7
10
  0.12680000
20
 -0.10940000
30
  0.00000000
40
  0.00020000
0
LINE
8
DC
6
CONTINUOUS
62
7
10
  0.12780000
20
 -0.10960000
30
  0.00000000
11
  0.12780000
21
 -0.10960000
31
  0.00000000
0
LINE
8
DC
6
CONTINUOUS
62
7
10
  0.12766771
20
 -0.10955000
30
  0.00000000
11
  0.12793229
21
 -0.10955000
31
  0.00000000
0
LINE
8
DC
6
CONTINUOUS
62
7
10
  0.12762679
20
 -0.10950000
30
  0.00000000
11
  0.12797321
21
 -0.10950000
31
  0.00000000
0
LINE
8
DC
6
CONTINUOUS
62
7
10
  0.12760635
20
 -0.10945000
30
  0.00000000
11
  0.12799365
21
 -0.10945000
31
  0.00000000
0
LINE
8
DC
6
CONTINUOUS
62
7
10
  0.12760000
20
 -0.10940000
30
  0.00000000
11
  0.12800000
21
 -0.10940000
31
  0.00000000
0
LINE
8
DC
6
CONTINUOUS
62
7
10
  0.12760635
20
 -0.10935000
30
  0.00000000
11
  0.12799365
21
 -0.10935000
31
  0.00000000
0
LINE
8
DC
6
CONTINUOUS
62
7
10
  0.12762679
20
 -0.10930000
30
  0.00000000
11
  0.12797321
21
 -0.10930000
31
  0.00000000
0
LINE
8
DC
6
CONTINUOUS
62
7
10
  0.12766771
20
 -0.10925000
30
  0.00000000
11
  0.12793229
21
 -0.10925000
31
  0.00000000
0
CIRCLE
8
DC
6
CONTINUOUS
62
7
10
  0.12780000
20
 -0.10940000
30
  0.00000000
40
  0.00020000
0
LINE
8
DC
6
CONTINUOUS
62
7
10
  0.12880000
20
 -0.10960000
30
  0.00000000
11
  0.12880000
21
 -0.10960000
31
  0.00000000
0
LINE
8
DC
6
CONTINUOUS
62
7
10
  0.12866771
20
 -0.10955000
30
  0.00000000
11
  0.12893229
21
 -0.10955000
31
  0.00000000
0
LINE
8
DC
6
CONTINUOUS
62
7
10
  0.12862679
20
 -0.10950000
30
  0.00000000
11
  0.12897321
21
 -0.10950000
31
  0.00000000
0
LINE
8
DC
6
CONTINUOUS
62
7
10
  0.12860635
20
 -0.10945000
30
  0.00000000
11
  0.12899365
21
 -0.10945000
31
  0.00000000
0
LINE
8
DC
6
CONTINUOUS
62
7
10
  0.12860000
20
 -0.10940000
30
  0.00000000
11
  0.12900000
21
 -0.10940000
31
  0.00000000
0
LINE
8
DC
6
CONTINUOUS
62
7
10
  0.12860635
20
 -0.10935000
30
  0.00000000
11
  0.12899365
21
 -0.10935000
31
  0.00000000
0
LINE
8
DC
6
CONTINUOUS
62
7
10
  0.12862679
20
 -0.10930000
30
  0.00000000
11
  0.12897321
21
 -0.10930000
31
  0.00000000
0
LINE
8
DC
6
CONTINUOUS
62
7
10
  0.12866771
20
 -0.10925000
30
  0.00000000
11
  0.12893229
21
 -0.10925000
31
  0.00000000
0
CIRCLE
8
DC
6
CONTINUOUS
62
7
10
  0.12880000
20
 -0.10940000
30
  0.00000000
40
  0.00020000
0
LINE
8
DC
6
CONTINUOUS
62
7
10
  0.12530000
20
 -0.10850000
30
  0.00000000
11
  0.12530000
21
 -0.10850000
31
  0.00000000
0
LINE
8
DC
6
CONTINUOUS
62
7
10
  0.12516771
20
 -0.10845000
30
  0.00000000
11
  0.12543229
21
 -0.10845000
31
  0.00000000
0
LINE
8
DC
6
CONTINUOUS
62
7
10
  0.12512679
20
 -0.10840000
30
  0.00000000
11
  0.12547321
21
 -0.10840000
31
  0.00000000
0
LINE
8
DC
6
CONTINUOUS
62
7
10
  0.12510635
20
 -0.10835000
30
  0.00000000
11
  0.12549365
21
 -0.10835000
31
  0.00000000
0
LINE
8
DC
6
CONTINUOUS
62
7
10
  0.12510000
20
 -0.10830000
30
  0.00000000
11
  0.12550000
21
 -0.10830000
31
  0.00000000
0
LINE
8
DC
6
CONTINUOUS
62
7
10
  0.12510635
20
 -0.10825000
30
  0.00000000
11
  0.12549365
21
 -0.10825000
31
  0.00000000
0
LINE
8
DC
6
CONTINUOUS
62
7
10
  0.12512679
20
 -0.10820000
30
  0.00000000
11
  0.12547321
21
 -0.10820000
31
  0.00000000
0
LINE
8
DC
6
CONTINUOUS
62
7
10
  0.12516771
20
 -0.10815000
30
  0.00000000
11
  0.12543229
21
 -0.10815000
31
  0.00000000
0
CIRCLE
8
DC
6
CONTINUOUS
62
7
10
  0.12530000
20
 -0.10830000
30
  0.00000000
40
  0.00020000
0
LINE
8
DC
6
CONTINUOUS
62
7
10
  0.12630000
20
 -0.10850000
30
  0.00000000
11
  0.12630000
21
 -0.10850000
31
  0.00000000
0
LINE
8
DC
6
CONTINUOUS
62
7
10
  0.12616771
20
 -0.10845000
30
  0.00000000
11
  0.12643229
21
 -0.10845000
31
  0.00000000
0
LINE
8
DC
6
CONTINUOUS
62
7
10
  0.12612679
20
 -0.10840000
30
  0.00000000
11
  0.12647321
21
 -0.10840000
31
  0.00000000
0
LINE
8
DC
6
CONTINUOUS
62
7
10
  0.12610635
20
 -0.10835000
30
  0.00000000
11
  0.12649365
21
 -0.10835000
31
  0.00000000
0
LINE
8
DC
6
CONTINUOUS
62
7
10
  0.12610000
20
 -0.10830000
30
  0.00000000
11
  0.12650000
21
 -0.10830000
31
  0.00000000
0
LINE
8
DC
6
CONTINUOUS
62
7
10
  0.12610635
20
 -0.10825000
30
  0.00000000
11
  0.12649365
21
 -0.10825000
31
  0.00000000
0
LINE
8
DC
6
CONTINUOUS
62
7
10
  0.12612679
20
 -0.10820000
30
  0.00000000
11
  0.12647321
21
 -0.10820000
31
  0.00000000
0
LINE
8
DC
6
CONTINUOUS
62
7
10
  0.12616771
20
 -0.10815000
30
  0.00000000
11
  0.12643229
21
 -0.10815000
31
  0.00000000
0
CIRCLE
8
DC
6
CONTINUOUS
62
7
10
  0.12630000
20
 -0.10830000
30
  0.00000000
40
  0.00020000
0
LINE
8
DC
6
CONTINUOUS
62
7
10
  0.12730000
20
 -0.10850000
30
  0.00000000
11
  0.12730000
21
 -0.10850000
31
  0.00000000
0
LINE
8
DC
6
CONTINUOUS
62
7
10
  0.12716771
20
 -0.10845000
30
  0.00000000
11
  0.12743229
21
 -0.10845000
31
  0.00000000
0
LINE
8
DC
6
CONTINUOUS
62
7
10
  0.12712679
20
 -0.10840000
30
  0.00000000
11
  0.12747321
21
 -0.10840000
31
  0.00000000
0
LINE
8
DC
6
CONTINUOUS
62
7
10
  0.12710635
20
 -0.10835000
30
  0.00000000
11
  0.12749365
21
 -0.10835000
31
  0.00000000
0
LINE
8
DC
6
CONTINUOUS
62
7
10
  0.12710000
20
 -0.10830000
30
  0.00000000
11
  0.12750000
21
 -0.10830000
31
  0.00000000
0
LINE
8
DC
6
CONTINUOUS
62
7
10
  0.12710635
20
 -0.10825000
30
  0.00000000
11
  0.12749365
21
 -0.10825000
31
  0.00000000
0
LINE
8
DC
6
CONTINUOUS
62
7
10
  0.12712679
20
 -0.10820000
30
  0.00000000
11
  0.12747321
21
 -0.10820000
31
  0.00000000
0
LINE
8
DC
6
CONTINUOUS
62
7
10
  0.12716771
20
 -0.10815000
30
  0.00000000
11
  0.12743229
21
 -0.10815000
31
  0.00000000
0
CIRCLE
8
DC
6
CONTINUOUS
62
7
10
  0.12730000
20
 -0.10830000
30
  0.00000000
40
  0.00020000
0
LINE
8
DC
6
CONTINUOUS
62
7
10
  0.12830000
20
 -0.10850000
30
  0.00000000
11
  0.12830000
21
 -0.10850000
31
  0.00000000
0
LINE
8
DC
6
CONTINUOUS
62
7
10
  0.12816771
20
 -0.10845000
30
  0.00000000
11
  0.12843229
21
 -0.10845000
31
  0.00000000
0
LINE
8
DC
6
CONTINUOUS
62
7
10
  0.12812679
20
 -0.10840000
30
  0.00000000
11
  0.12847321
21
 -0.10840000
31
  0.00000000
0
LINE
8
DC
6
CONTINUOUS
62
7
10
  0.12810635
20
 -0.10835000
30
  0.00000000
11
  0.12849365
21
 -0.10835000
31
  0.00000000
0
LINE
8
DC
6
CONTINUOUS
62
7
10
  0.12810000
20
 -0.10830000
30
  0.00000000
11
  0.12850000
21
 -0.10830000
31
  0.00000000
0
LINE
8
DC
6
CONTINUOUS
62
7
10
  0.12810635
20
 -0.10825000
30
  0.00000000
11
  0.12849365
21
 -0.10825000
31
  0.00000000
0
LINE
8
DC
6
CONTINUOUS
62
7
10
  0.12812679
20
 -0.10820000
30
  0.00000000
11
  0.12847321
21
 -0.10820000
31
  0.00000000
0
LINE
8
DC
6
CONTINUOUS
62
7
10
  0.12816771
20
 -0.10815000
30
  0.00000000
11
  0.12843229
21
 -0.10815000
31
  0.00000000
0
CIRCLE
8
DC
6
CONTINUOUS
62
7
10
  0.12830000
20
 -0.10830000
30
  0.00000000
40
  0.00020000
0
LINE
8
DC
6
CONTINUOUS
62
7
10
  0.12930000
20
 -0.10850000
30
  0.00000000
11
  0.12930000
21
 -0.10850000
31
  0.00000000
0
LINE
8
DC
6
CONTINUOUS
62
7
10
  0.12916771
20
 -0.10845000
30
  0.00000000
11
  0.12943229
21
 -0.10845000
31
  0.00000000
0
LINE
8
DC
6
CONTINUOUS
62
7
10
  0.12912679
20
 -0.10840000
30
  0.00000000
11
  0.12947321
21
 -0.10840000
31
  0.00000000
0
LINE
8
DC
6
CONTINUOUS
62
7
10
  0.12910635
20
 -0.10835000
30
  0.00000000
11
  0.12949365
21
 -0.10835000
31
  0.00000000
0
LINE
8
DC
6
CONTINUOUS
62
7
10
  0.12910000
20
 -0.10830000
30
  0.00000000
11
  0.12950000
21
 -0.10830000
31
  0.00000000
0
LINE
8
DC
6
CONTINUOUS
62
7
10
  0.12910635
20
 -0.10825000
30
  0.00000000
11
  0.12949365
21
 -0.10825000
31
  0.00000000
0
LINE
8
DC
6
CONTINUOUS
62
7
10
  0.12912679
20
 -0.10820000
30
  0.00000000
11
  0.12947321
21
 -0.10820000
31
  0.00000000
0
LINE
8
DC
6
CONTINUOUS
62
7
10
  0.12916771
20
 -0.10815000
30
  0.00000000
11
  0.12943229
21
 -0.10815000
31
  0.00000000
0
CIRCLE
8
DC
6
CONTINUOUS
62
7
10
  0.12930000
20
 -0.10830000
30
  0.00000000
40
  0.00020000
0
LINE
8
DC
6
CONTINUOUS
62
7
10
  0.12510000
20
 -0.11080000
30
  0.00000000
11
  0.12810000
21
 -0.11080000
31
  0.00000000
0
LINE
8
DC
6
CONTINUOUS
62
7
10
  0.12610000
20
 -0.11240000
30
  0.00000000
11
  0.12910000
21
 -0.11240000
31
  0.00000000
0
LINE
8
DC
6
CONTINUOUS
62
7
10
  0.12510000
20
 -0.11410000
30
  0.00000000
11
  0.12810000
21
 -0.11410000
31
  0.00000000
0
LINE
8
DC
6
CONTINUOUS
62
7
10
  0.12610000
20
 -0.11570000
30
  0.00000000
11
  0.12910000
21
 -0.11570000
31
  0.00000000
0
LINE
8
DC
6
CONTINUOUS
62
7
10
  0.12620000
20
 -0.11870000
30
  0.00000000
11
  0.12620000
21
 -0.11870000
31
  0.00000000
0
LINE
8
DC
6
CONTINUOUS
62
7
10
  0.12598206
20
 -0.11865000
30
  0.00000000
11
  0.12641794
21
 -0.11865000
31
  0.00000000
0
LINE
8
DC
6
CONTINUOUS
62
7
10
  0.12590000
20
 -0.11860000
30
  0.00000000
11
  0.12650000
21
 -0.11860000
31
  0.00000000
0
LINE
8
DC
6
CONTINUOUS
62
7
10
  0.12584293
20
 -0.11855000
30
  0.00000000
11
  0.12655707
21
 -0.11855000
31
  0.00000000
0
LINE
8
DC
6
CONTINUOUS
62
7
10
  0.12580000
20
 -0.11850000
30
  0.00000000
11
  0.12660000
21
 -0.11850000
31
  0.00000000
0
LINE
8
DC
6
CONTINUOUS
62
7
10
  0.12576699
20
 -0.11845000
30
  0.00000000
11
  0.12663301
21
 -0.11845000
31
  0.00000000
0
LINE
8
DC
6
CONTINUOUS
62
7
10
  0.12574174
20
 -0.11840000
30
  0.00000000
11
  0.12665826
21
 -0.11840000
31
  0.00000000
0
LINE
8
DC
6
CONTINUOUS
62
7
10
  0.12572303
20
 -0.11835000
30
  0.00000000
11
  0.12667697
21
 -0.11835000
31
  0.00000000
0
LINE
8
DC
6
CONTINUOUS
62
7
10
  0.12571010
20
 -0.11830000
30
  0.00000000
11
  0.12668990
21
 -0.11830000
31
  0.00000000
0
LINE
8
DC
6
CONTINUOUS
62
7
10
  0.12570251
20
 -0.11825000
30
  0.00000000
11
  0.12669749
21
 -0.11825000
31
  0.00000000
0
LINE
8
DC
6
CONTINUOUS
62
7
10
  0.12570000
20
 -0.11820000
30
  0.00000000
11
  0.12670000
21
 -0.11820000
31
  0.00000000
0
LINE
8
DC
6
CONTINUOUS
62
7
10
  0.12570251
20
 -0.11815000
30
  0.00000000
11
  0.12669749
21
 -0.11815000
31
  0.00000000
0
LINE
8
DC
6
CONTINUOUS
62
7
10
  0.12571010
20
 -0.11810000
30
  0.00000000
11
  0.12668990
21
 -0.11810000
31
  0.00000000
0
LINE
8
DC
6
CONTINUOUS
62
7
10
  0.12572303
20
 -0.11805000
30
  0.00000000
11
  0.12667697
21
 -0.11805000
31
  0.00000000
0
LINE
8
DC
6
CONTINUOUS
62
7
10
  0.12574174
20
 -0.11800000
30
  0.00000000
11
  0.12665826
21
 -0.11800000
31
  0.00000000
0
LINE
8
DC
6
CONTINUOUS
62
7
10
  0.12576699
20
 -0.11795000
30
  0.00000000
11
  0.12663301
21
 -0.11795000
31
  0.00000000
0
LINE
8
DC
6
CONTINUOUS
62
7
10
  0.12580000
20
 -0.11790000
30
  0.00000000
11
  0.12660000
21
 -0.11790000
31
  0.00000000
0
LINE
8
DC
6
CONTINUOUS
62
7
10
  0.12584293
20
 -0.11785000
30
  0.00000000
11
  0.12655707
21
 -0.11785000
31
  0.00000000
0
LINE
8
DC
6
CONTINUOUS
62
7
10
  0.12590000
20
 -0.11780000
30
  0.00000000
11
  0.12650000
21
 -0.11780000
31
  0.00000000
0
LINE
8
DC
6
CONTINUOUS
62
7
10
  0.12598206
20
 -0.11775000
30
  0.00000000
11
  0.12641794
21
 -0.11775000
31
  0.00000000
0
CIRCLE
8
DC
6
CONTINUOUS
62
7
10
  0.12620000
20
 -0.11820000
30
  0.00000000
40
  0.00050000
0
LINE
8
DC
6
CONTINUOUS
62
7
10
  0.12780000
20
 -0.11870000
30
  0.00000000
11
  0.12780000
21
 -0.11870000
31
  0.00000000
0
LINE
8
DC
6
CONTINUOUS
62
7
10
  0.12758206
20
 -0.11865000
30
  0.00000000
11
  0.12801794
21
 -0.11865000
31
  0.00000000
0
LINE
8
DC
6
CONTINUOUS
62
7
10
  0.12750000
20
 -0.11860000
30
  0.00000000
11
  0.12810000
21
 -0.11860000
31
  0.00000000
0
LINE
8
DC
6
CONTINUOUS
62
7
10
  0.12744293
20
 -0.11855000
30
  0.00000000
11
  0.12815707
21
 -0.11855000
31
  0.00000000
0
LINE
8
DC
6
CONTINUOUS
62
7
10
  0.12740000
20
 -0.11850000
30
  0.00000000
11
  0.12820000
21
 -0.11850000
31
  0.00000000
0
LINE
8
DC
6
CONTINUOUS
62
7
10
  0.12736699
20
 -0.11845000
30
  0.00000000
11
  0.12823301
21
 -0.11845000
31
  0.00000000
0
LINE
8
DC
6
CONTINUOUS
62
7
10
  0.12734174
20
 -0.11840000
30
  0.00000000
11
  0.12825826
21
 -0.11840000
31
  0.00000000
0
LINE
8
DC
6
CONTINUOUS
62
7
10
  0.12732303
20
 -0.11835000
30
  0.00000000
11
  0.12827697
21
 -0.11835000
31
  0.00000000
0
LINE
8
DC
6
CONTINUOUS
62
7
10
  0.12731010
20
 -0.11830000
30
  0.00000000
11
  0.12828990
21
 -0.11830000
31
  0.00000000
0
LINE
8
DC
6
CONTINUOUS
62
7
10
  0.12730251
20
 -0.11825000
30
  0.00000000
11
  0.12829749
21
 -0.11825000
31
  0.00000000
0
LINE
8
DC
6
CONTINUOUS
62
7
10
  0.12730000
20
 -0.11820000
30
  0.00000000
11
  0.12830000
21
 -0.11820000
31
  0.00000000
0
LINE
8
DC
6
CONTINUOUS
62
7
10
  0.12730251
20
 -0.11815000
30
  0.00000000
11
  0.12829749
21
 -0.11815000
31
  0.00000000
0
LINE
8
DC
6
CONTINUOUS
62
7
10
  0.12731010
20
 -0.11810000
30
  0.00000000
11
  0.12828990
21
 -0.11810000
31
  0.00000000
0
LINE
8
DC
6
CONTINUOUS
62
7
10
  0.12732303
20
 -0.11805000
30
  0.00000000
11
  0.12827697
21
 -0.11805000
31
  0.00000000
0
LINE
8
DC
6
CONTINUOUS
62
7
10
  0.12734174
20
 -0.11800000
30
  0.00000000
11
  0.12825826
21
 -0.11800000
31
  0.00000000
0
LINE
8
DC
6
CONTINUOUS
62
7
10
  0.12736699
20
 -0.11795000
30
  0.00000000
11
  0.12823301
21
 -0.11795000
31
  0.00000000
0
LINE
8
DC
6
CONTINUOUS
62
7
10
  0.12740000
20
 -0.11790000
30
  0.00000000
11
  0.12820000
21
 -0.11790000
31
  0.00000000
0
LINE
8
DC
6
CONTINUOUS
62
7
10
  0.12744293
20
 -0.11785000
30
  0.00000000
11
  0.12815707
21
 -0.11785000
31
  0.00000000
0
LINE
8
DC
6
CONTINUOUS
62
7
10
  0.12750000
20
 -0.11780000
30
  0.00000000
11
  0.12810000
21
 -0.11780000
31
  0.00000000
0
LINE
8
DC
6
CONTINUOUS
62
7
10
  0.12758206
20
 -0.11775000
30
  0.00000000
11
  0.12801794
21
 -0.11775000
31
  0.00000000
0
CIRCLE
8
DC
6
CONTINUOUS
62
7
10
  0.12780000
20
 -0.11820000
30
  0.00000000
40
  0.00050000
0
LINE
8
DC
6
CONTINUOUS
62
7
10
  0.12560000
20
 -0.11870000
30
  0.00000000
11
  0.12860000
21
 -0.11870000
31
  0.00000000
0
LINE
8
DC
6
CONTINUOUS
62
7
10
  0.12480000
20
 -0.12060000
30
  0.00000000
11
  0.12480000
21
 -0.12060000
31
  0.00000000
0
LINE
8
DC
6
CONTINUOUS
62
7
10
  0.12466771
20
 -0.12055000
30
  0.00000000
11
  0.12493229
21
 -0.12055000
31
  0.00000000
0
LINE
8
DC
6
CONTINUOUS
62
7
10
  0.12462679
20
 -0.12050000
30
  0.00000000
11
  0.12497321
21
 -0.12050000
31
  0.00000000
0
LINE
8
DC
6
CONTINUOUS
62
7
10
  0.12460635
20
 -0.12045000
30
  0.00000000
11
  0.12499365
21
 -0.12045000
31
  0.00000000
0
LINE
8
DC
6
CONTINUOUS
62
7
10
  0.12460000
20
 -0.12040000
30
  0.00000000
11
  0.12500000
21
 -0.12040000
31
  0.00000000
0
LINE
8
DC
6
CONTINUOUS
62
7
10
  0.12460635
20
 -0.12035000
30
  0.00000000
11
  0.12499365
21
 -0.12035000
31
  0.00000000
0
LINE
8
DC
6
CONTINUOUS
62
7
10
  0.12462679
20
 -0.12030000
30
  0.00000000
11
  0.12497321
21
 -0.12030000
31
  0.00000000
0
LINE
8
DC
6
CONTINUOUS
62
7
10
  0.12466771
20
 -0.12025000
30
  0.00000000
11
  0.12493229
21
 -0.12025000
31
  0.00000000
0
CIRCLE
8
DC
6
CONTINUOUS
62
7
10
  0.12480000
20
 -0.12040000
30
  0.00000000
40
  0.00020000
0
LINE
8
DC
6
CONTINUOUS
62
7
10
  0.12580000
20
 -0.12060000
30
  0.00000000
11
  0.12580000
21
 -0.12060000
31
  0.00000000
0
LINE
8
DC
6
CONTINUOUS
62
7
10
  0.12566771
20
 -0.12055000
30
  0.00000000
11
  0.12593229
21
 -0.12055000
31
  0.00000000
0
LINE
8
DC
6
CONTINUOUS
62
7
10
  0.12562679
20
 -0.12050000
30
  0.00000000
11
  0.12597321
21
 -0.12050000
31
  0.00000000
0
LINE
8
DC
6
CONTINUOUS
62
7
10
  0.12560635
20
 -0.12045000
30
  0.00000000
11
  0.12599365
21
 -0.12045000
31
  0.00000000
0
LINE
8
DC
6
CONTINUOUS
62
7
10
  0.12560000
20
 -0.12040000
30
  0.00000000
11
  0.12600000
21
 -0.12040000
31
  0.00000000
0
LINE
8
DC
6
CONTINUOUS
62
7
10
  0.12560635
20
 -0.12035000
30
  0.00000000
11
  0.12599365
21
 -0.12035000
31
  0.00000000
0
LINE
8
DC
6
CONTINUOUS
62
7
10
  0.12562679
20
 -0.12030000
30
  0.00000000
11
  0.12597321
21
 -0.12030000
31
  0.00000000
0
LINE
8
DC
6
CONTINUOUS
62
7
10
  0.12566771
20
 -0.12025000
30
  0.00000000
11
  0.12593229
21
 -0.12025000
31
  0.00000000
0
CIRCLE
8
DC
6
CONTINUOUS
62
7
10
  0.12580000
20
 -0.12040000
30
  0.00000000
40
  0.00020000
0
LINE
8
DC
6
CONTINUOUS
62
7
10
  0.12680000
20
 -0.12060000
30
  0.00000000
11
  0.12680000
21
 -0.12060000
31
  0.00000000
0
LINE
8
DC
6
CONTINUOUS
62
7
10
  0.12666771
20
 -0.12055000
30
  0.00000000
11
  0.12693229
21
 -0.12055000
31
  0.00000000
0
LINE
8
DC
6
CONTINUOUS
62
7
10
  0.12662679
20
 -0.12050000
30
  0.00000000
11
  0.12697321
21
 -0.12050000
31
  0.00000000
0
LINE
8
DC
6
CONTINUOUS
62
7
10
  0.12660635
20
 -0.12045000
30
  0.00000000
11
  0.12699365
21
 -0.12045000
31
  0.00000000
0
LINE
8
DC
6
CONTINUOUS
62
7
10
  0.12660000
20
 -0.12040000
30
  0.00000000
11
  0.12700000
21
 -0.12040000
31
  0.00000000
0
LINE
8
DC
6
CONTINUOUS
62
7
10
  0.12660635
20
 -0.12035000
30
  0.00000000
11
  0.12699365
21
 -0.12035000
31
  0.00000000
0
LINE
8
DC
6
CONTINUOUS
62
7
10
  0.12662679
20
 -0.12030000
30
  0.00000000
11
  0.12697321
21
 -0.12030000
31
  0.00000000
0
LINE
8
DC
6
CONTINUOUS
62
7
10
  0.12666771
20
 -0.12025000
30
  0.00000000
11
  0.12693229
21
 -0.12025000
31
  0.00000000
0
CIRCLE
8
DC
6
CONTINUOUS
62
7
10
  0.12680000
20
 -0.12040000
30
  0.00000000
40
  0.00020000
0
LINE
8
DC
6
CONTINUOUS
62
7
10
  0.12780000
20
 -0.12060000
30
  0.00000000
11
  0.12780000
21
 -0.12060000
31
  0.00000000
0
LINE
8
DC
6
CONTINUOUS
62
7
10
  0.12766771
20
 -0.12055000
30
  0.00000000
11
  0.12793229
21
 -0.12055000
31
  0.00000000
0
LINE
8
DC
6
CONTINUOUS
62
7
10
  0.12762679
20
 -0.12050000
30
  0.00000000
11
  0.12797321
21
 -0.12050000
31
  0.00000000
0
LINE
8
DC
6
CONTINUOUS
62
7
10
  0.12760635
20
 -0.12045000
30
  0.00000000
11
  0.12799365
21
 -0.12045000
31
  0.00000000
0
LINE
8
DC
6
CONTINUOUS
62
7
10
  0.12760000
20
 -0.12040000
30
  0.00000000
11
  0.12800000
21
 -0.12040000
31
  0.00000000
0
LINE
8
DC
6
CONTINUOUS
62
7
10
  0.12760635
20
 -0.12035000
30
  0.00000000
11
  0.12799365
21
 -0.12035000
31
  0.00000000
0
LINE
8
DC
6
CONTINUOUS
62
7
10
  0.12762679
20
 -0.12030000
30
  0.00000000
11
  0.12797321
21
 -0.12030000
31
  0.00000000
0
LINE
8
DC
6
CONTINUOUS
62
7
10
  0.12766771
20
 -0.12025000
30
  0.00000000
11
  0.12793229
21
 -0.12025000
31
  0.00000000
0
CIRCLE
8
DC
6
CONTINUOUS
62
7
10
  0.12780000
20
 -0.12040000
30
  0.00000000
40
  0.00020000
0
LINE
8
DC
6
CONTINUOUS
62
7
10
  0.12880000
20
 -0.12060000
30
  0.00000000
11
  0.12880000
21
 -0.12060000
31
  0.00000000
0
LINE
8
DC
6
CONTINUOUS
62
7
10
  0.12866771
20
 -0.12055000
30
  0.00000000
11
  0.12893229
21
 -0.12055000
31
  0.00000000
0
LINE
8
DC
6
CONTINUOUS
62
7
10
  0.12862679
20
 -0.12050000
30
  0.00000000
11
  0.12897321
21
 -0.12050000
31
  0.00000000
0
LINE
8
DC
6
CONTINUOUS
62
7
10
  0.12860635
20
 -0.12045000
30
  0.00000000
11
  0.12899365
21
 -0.12045000
31
  0.00000000
0
LINE
8
DC
6
CONTINUOUS
62
7
10
  0.12860000
20
 -0.12040000
30
  0.00000000
11
  0.12900000
21
 -0.12040000
31
  0.00000000
0
LINE
8
DC
6
CONTINUOUS
62
7
10
  0.12860635
20
 -0.12035000
30
  0.00000000
11
  0.12899365
21
 -0.12035000
31
  0.00000000
0
LINE
8
DC
6
CONTINUOUS
62
7
10
  0.12862679
20
 -0.12030000
30
  0.00000000
11
  0.12897321
21
 -0.12030000
31
  0.00000000
0
LINE
8
DC
6
CONTINUOUS
62
7
10
  0.12866771
20
 -0.12025000
30
  0.00000000
11
  0.12893229
21
 -0.12025000
31
  0.00000000
0
CIRCLE
8
DC
6
CONTINUOUS
62
7
10
  0.12880000
20
 -0.12040000
30
  0.00000000
40
  0.00020000
0
LINE
8
DC
6
CONTINUOUS
62
7
10
  0.12480000
20
 -0.12280000
30
  0.00000000
11
  0.12480000
21
 -0.12280000
31
  0.00000000
0
LINE
8
DC
6
CONTINUOUS
62
7
10
  0.12466771
20
 -0.12275000
30
  0.00000000
11
  0.12493229
21
 -0.12275000
31
  0.00000000
0
LINE
8
DC
6
CONTINUOUS
62
7
10
  0.12462679
20
 -0.12270000
30
  0.00000000
11
  0.12497321
21
 -0.12270000
31
  0.00000000
0
LINE
8
DC
6
CONTINUOUS
62
7
10
  0.12460635
20
 -0.12265000
30
  0.00000000
11
  0.12499365
21
 -0.12265000
31
  0.00000000
0
LINE
8
DC
6
CONTINUOUS
62
7
10
  0.12460000
20
 -0.12260000
30
  0.00000000
11
  0.12500000
21
 -0.12260000
31
  0.00000000
0
LINE
8
DC
6
CONTINUOUS
62
7
10
  0.12460635
20
 -0.12255000
30
  0.00000000
11
  0.12499365
21
 -0.12255000
31
  0.00000000
0
LINE
8
DC
6
CONTINUOUS
62
7
10
  0.12462679
20
 -0.12250000
30
  0.00000000
11
  0.12497321
21
 -0.12250000
31
  0.00000000
0
LINE
8
DC
6
CONTINUOUS
62
7
10
  0.12466771
20
 -0.12245000
30
  0.00000000
11
  0.12493229
21
 -0.12245000
31
  0.00000000
0
CIRCLE
8
DC
6
CONTINUOUS
62
7
10
  0.12480000
20
 -0.12260000
30
  0.00000000
40
  0.00020000
0
LINE
8
DC
6
CONTINUOUS
62
7
10
  0.12580000
20
 -0.12280000
30
  0.00000000
11
  0.12580000
21
 -0.12280000
31
  0.00000000
0
LINE
8
DC
6
CONTINUOUS
62
7
10
  0.12566771
20
 -0.12275000
30
  0.00000000
11
  0.12593229
21
 -0.12275000
31
  0.00000000
0
LINE
8
DC
6
CONTINUOUS
62
7
10
  0.12562679
20
 -0.12270000
30
  0.00000000
11
  0.12597321
21
 -0.12270000
31
  0.00000000
0
LINE
8
DC
6
CONTINUOUS
62
7
10
  0.12560635
20
 -0.12265000
30
  0.00000000
11
  0.12599365
21
 -0.12265000
31
  0.00000000
0
LINE
8
DC
6
CONTINUOUS
62
7
10
  0.12560000
20
 -0.12260000
30
  0.00000000
11
  0.12600000
21
 -0.12260000
31
  0.00000000
0
LINE
8
DC
6
CONTINUOUS
62
7
10
  0.12560635
20
 -0.12255000
30
  0.00000000
11
  0.12599365
21
 -0.12255000
31
  0.00000000
0
LINE
8
DC
6
CONTINUOUS
62
7
10
  0.12562679
20
 -0.12250000
30
  0.00000000
11
  0.12597321
21
 -0.12250000
31
  0.00000000
0
LINE
8
DC
6
CONTINUOUS
62
7
10
  0.12566771
20
 -0.12245000
30
  0.00000000
11
  0.12593229
21
 -0.12245000
31
  0.00000000
0
CIRCLE
8
DC
6
CONTINUOUS
62
7
10
  0.12580000
20
 -0.12260000
30
  0.00000000
40
  0.00020000
0
LINE
8
DC
6
CONTINUOUS
62
7
10
  0.12680000
20
 -0.12280000
30
  0.00000000
11
  0.12680000
21
 -0.12280000
31
  0.00000000
0
LINE
8
DC
6
CONTINUOUS
62
7
10
  0.12666771
20
 -0.12275000
30
  0.00000000
11
  0.12693229
21
 -0.12275000
31
  0.00000000
0
LINE
8
DC
6
CONTINUOUS
62
7
10
  0.12662679
20
 -0.12270000
30
  0.00000000
11
  0.12697321
21
 -0.12270000
31
  0.00000000
0
LINE
8
DC
6
CONTINUOUS
62
7
10
  0.12660635
20
 -0.12265000
30
  0.00000000
11
  0.12699365
21
 -0.12265000
31
  0.00000000
0
LINE
8
DC
6
CONTINUOUS
62
7
10
  0.12660000
20
 -0.12260000
30
  0.00000000
11
  0.12700000
21
 -0.12260000
31
  0.00000000
0
LINE
8
DC
6
CONTINUOUS
62
7
10
  0.12660635
20
 -0.12255000
30
  0.00000000
11
  0.12699365
21
 -0.12255000
31
  0.00000000
0
LINE
8
DC
6
CONTINUOUS
62
7
10
  0.12662679
20
 -0.12250000
30
  0.00000000
11
  0.12697321
21
 -0.12250000
31
  0.00000000
0
LINE
8
DC
6
CONTINUOUS
62
7
10
  0.12666771
20
 -0.12245000
30
  0.00000000
11
  0.12693229
21
 -0.12245000
31
  0.00000000
0
CIRCLE
8
DC
6
CONTINUOUS
62
7
10
  0.12680000
20
 -0.12260000
30
  0.00000000
40
  0.00020000
0
LINE
8
DC
6
CONTINUOUS
62
7
10
  0.12780000
20
 -0.12280000
30
  0.00000000
11
  0.12780000
21
 -0.12280000
31
  0.00000000
0
LINE
8
DC
6
CONTINUOUS
62
7
10
  0.12766771
20
 -0.12275000
30
  0.00000000
11
  0.12793229
21
 -0.12275000
31
  0.00000000
0
LINE
8
DC
6
CONTINUOUS
62
7
10
  0.12762679
20
 -0.12270000
30
  0.00000000
11
  0.12797321
21
 -0.12270000
31
  0.00000000
0
LINE
8
DC
6
CONTINUOUS
62
7
10
  0.12760635
20
 -0.12265000
30
  0.00000000
11
  0.12799365
21
 -0.12265000
31
  0.00000000
0
LINE
8
DC
6
CONTINUOUS
62
7
10
  0.12760000
20
 -0.12260000
30
  0.00000000
11
  0.12800000
21
 -0.12260000
31
  0.00000000
0
LINE
8
DC
6
CONTINUOUS
62
7
10
  0.12760635
20
 -0.12255000
30
  0.00000000
11
  0.12799365
21
 -0.12255000
31
  0.00000000
0
LINE
8
DC
6
CONTINUOUS
62
7
10
  0.12762679
20
 -0.12250000
30
  0.00000000
11
  0.12797321
21
 -0.12250000
31
  0.00000000
0
LINE
8
DC
6
CONTINUOUS
62
7
10
  0.12766771
20
 -0.12245000
30
  0.00000000
11
  0.12793229
21
 -0.12245000
31
  0.00000000
0
CIRCLE
8
DC
6
CONTINUOUS
62
7
10
  0.12780000
20
 -0.12260000
30
  0.00000000
40
  0.00020000
0
LINE
8
DC
6
CONTINUOUS
62
7
10
  0.12880000
20
 -0.12280000
30
  0.00000000
11
  0.12880000
21
 -0.12280000
31
  0.00000000
0
LINE
8
DC
6
CONTINUOUS
62
7
10
  0.12866771
20
 -0.12275000
30
  0.00000000
11
  0.12893229
21
 -0.12275000
31
  0.00000000
0
LINE
8
DC
6
CONTINUOUS
62
7
10
  0.12862679
20
 -0.12270000
30
  0.00000000
11
  0.12897321
21
 -0.12270000
31
  0.00000000
0
LINE
8
DC
6
CONTINUOUS
62
7
10
  0.12860635
20
 -0.12265000
30
  0.00000000
11
  0.12899365
21
 -0.12265000
31
  0.00000000
0
LINE
8
DC
6
CONTINUOUS
62
7
10
  0.12860000
20
 -0.12260000
30
  0.00000000
11
  0.12900000
21
 -0.12260000
31
  0.00000000
0
LINE
8
DC
6
CONTINUOUS
62
7
10
  0.12860635
20
 -0.12255000
30
  0.00000000
11
  0.12899365
21
 -0.12255000
31
  0.00000000
0
LINE
8
DC
6
CONTINUOUS
62
7
10
  0.12862679
20
 -0.12250000
30
  0.00000000
11
  0.12897321
21
 -0.12250000
31
  0.00000000
0
LINE
8
DC
6
CONTINUOUS
62
7
10
  0.12866771
20
 -0.12245000
30
  0.00000000
11
  0.12893229
21
 -0.12245000
31
  0.00000000
0
CIRCLE
8
DC
6
CONTINUOUS
62
7
10
  0.12880000
20
 -0.12260000
30
  0.00000000
40
  0.00020000
0
LINE
8
DC
6
CONTINUOUS
62
7
10
  0.12530000
20
 -0.12170000
30
  0.00000000
11
  0.12530000
21
 -0.12170000
31
  0.00000000
0
LINE
8
DC
6
CONTINUOUS
62
7
10
  0.12516771
20
 -0.12165000
30
  0.00000000
11
  0.12543229
21
 -0.12165000
31
  0.00000000
0
LINE
8
DC
6
CONTINUOUS
62
7
10
  0.12512679
20
 -0.12160000
30
  0.00000000
11
  0.12547321
21
 -0.12160000
31
  0.00000000
0
LINE
8
DC
6
CONTINUOUS
62
7
10
  0.12510635
20
 -0.12155000
30
  0.00000000
11
  0.12549365
21
 -0.12155000
31
  0.00000000
0
LINE
8
DC
6
CONTINUOUS
62
7
10
  0.12510000
20
 -0.12150000
30
  0.00000000
11
  0.12550000
21
 -0.12150000
31
  0.00000000
0
LINE
8
DC
6
CONTINUOUS
62
7
10
  0.12510635
20
 -0.12145000
30
  0.00000000
11
  0.12549365
21
 -0.12145000
31
  0.00000000
0
LINE
8
DC
6
CONTINUOUS
62
7
10
  0.12512679
20
 -0.12140000
30
  0.00000000
11
  0.12547321
21
 -0.12140000
31
  0.00000000
0
LINE
8
DC
6
CONTINUOUS
62
7
10
  0.12516771
20
 -0.12135000
30
  0.00000000
11
  0.12543229
21
 -0.12135000
31
  0.00000000
0
CIRCLE
8
DC
6
CONTINUOUS
62
7
10
  0.12530000
20
 -0.12150000
30
  0.00000000
40
  0.00020000
0
LINE
8
DC
6
CONTINUOUS
62
7
10
  0.12630000
20
 -0.12170000
30
  0.00000000
11
  0.12630000
21
 -0.12170000
31
  0.00000000
0
LINE
8
DC
6
CONTINUOUS
62
7
10
  0.12616771
20
 -0.12165000
30
  0.00000000
11
  0.12643229
21
 -0.12165000
31
  0.00000000
0
LINE
8
DC
6
CONTINUOUS
62
7
10
  0.12612679
20
 -0.12160000
30
  0.00000000
11
  0.12647321
21
 -0.12160000
31
  0.00000000
0
LINE
8
DC
6
CONTINUOUS
62
7
10
  0.12610635
20
 -0.12155000
30
  0.00000000
11
  0.12649365
21
 -0.12155000
31
  0.00000000
0
LINE
8
DC
6
CONTINUOUS
62
7
10
  0.12610000
20
 -0.12150000
30
  0.00000000
11
  0.12650000
21
 -0.12150000
31
  0.00000000
0
LINE
8
DC
6
CONTINUOUS
62
7
10
  0.12610635
20
 -0.12145000
30
  0.00000000
11
  0.12649365
21
 -0.12145000
31
  0.00000000
0
LINE
8
DC
6
CONTINUOUS
62
7
10
  0.12612679
20
 -0.12140000
30
  0.00000000
11
  0.12647321
21
 -0.12140000
31
  0.00000000
0
LINE
8
DC
6
CONTINUOUS
62
7
10
  0.12616771
20
 -0.12135000
30
  0.00000000
11
  0.12643229
21
 -0.12135000
31
  0.00000000
0
CIRCLE
8
DC
6
CONTINUOUS
62
7
10
  0.12630000
20
 -0.12150000
30
  0.00000000
40
  0.00020000
0
LINE
8
DC
6
CONTINUOUS
62
7
10
  0.12730000
20
 -0.12170000
30
  0.00000000
11
  0.12730000
21
 -0.12170000
31
  0.00000000
0
LINE
8
DC
6
CONTINUOUS
62
7
10
  0.12716771
20
 -0.12165000
30
  0.00000000
11
  0.12743229
21
 -0.12165000
31
  0.00000000
0
LINE
8
DC
6
CONTINUOUS
62
7
10
  0.12712679
20
 -0.12160000
30
  0.00000000
11
  0.12747321
21
 -0.12160000
31
  0.00000000
0
LINE
8
DC
6
CONTINUOUS
62
7
10
  0.12710635
20
 -0.12155000
30
  0.00000000
11
  0.12749365
21
 -0.12155000
31
  0.00000000
0
LINE
8
DC
6
CONTINUOUS
62
7
10
  0.12710000
20
 -0.12150000
30
  0.00000000
11
  0.12750000
21
 -0.12150000
31
  0.00000000
0
LINE
8
DC
6
CONTINUOUS
62
7
10
  0.12710635
20
 -0.12145000
30
  0.00000000
11
  0.12749365
21
 -0.12145000
31
  0.00000000
0
LINE
8
DC
6
CONTINUOUS
62
7
10
  0.12712679
20
 -0.12140000
30
  0.00000000
11
  0.12747321
21
 -0.12140000
31
  0.00000000
0
LINE
8
DC
6
CONTINUOUS
62
7
10
  0.12716771
20
 -0.12135000
30
  0.00000000
11
  0.12743229
21
 -0.12135000
31
  0.00000000
0
CIRCLE
8
DC
6
CONTINUOUS
62
7
10
  0.12730000
20
 -0.12150000
30
  0.00000000
40
  0.00020000
0
LINE
8
DC
6
CONTINUOUS
62
7
10
  0.12830000
20
 -0.12170000
30
  0.00000000
11
  0.12830000
21
 -0.12170000
31
  0.00000000
0
LINE
8
DC
6
CONTINUOUS
62
7
10
  0.12816771
20
 -0.12165000
30
  0.00000000
11
  0.12843229
21
 -0.12165000
31
  0.00000000
0
LINE
8
DC
6
CONTINUOUS
62
7
10
  0.12812679
20
 -0.12160000
30
  0.00000000
11
  0.12847321
21
 -0.12160000
31
  0.00000000
0
LINE
8
DC
6
CONTINUOUS
62
7
10
  0.12810635
20
 -0.12155000
30
  0.00000000
11
  0.12849365
21
 -0.12155000
31
  0.00000000
0
LINE
8
DC
6
CONTINUOUS
62
7
10
  0.12810000
20
 -0.12150000
30
  0.00000000
11
  0.12850000
21
 -0.12150000
31
  0.00000000
0
LINE
8
DC
6
CONTINUOUS
62
7
10
  0.12810635
20
 -0.12145000
30
  0.00000000
11
  0.12849365
21
 -0.12145000
31
  0.00000000
0
LINE
8
DC
6
CONTINUOUS
62
7
10
  0.12812679
20
 -0.12140000
30
  0.00000000
11
  0.12847321
21
 -0.12140000
31
  0.00000000
0
LINE
8
DC
6
CONTINUOUS
62
7
10
  0.12816771
20
 -0.12135000
30
  0.00000000
11
  0.12843229
21
 -0.12135000
31
  0.00000000
0
CIRCLE
8
DC
6
CONTINUOUS
62
7
10
  0.12830000
20
 -0.12150000
30
  0.00000000
40
  0.00020000
0
LINE
8
DC
6
CONTINUOUS
62
7
10
  0.12930000
20
 -0.12170000
30
  0.00000000
11
  0.12930000
21
 -0.12170000
31
  0.00000000
0
LINE
8
DC
6
CONTINUOUS
62
7
10
  0.12916771
20
 -0.12165000
30
  0.00000000
11
  0.12943229
21
 -0.12165000
31
  0.00000000
0
LINE
8
DC
6
CONTINUOUS
62
7
10
  0.12912679
20
 -0.12160000
30
  0.00000000
11
  0.12947321
21
 -0.12160000
31
  0.00000000
0
LINE
8
DC
6
CONTINUOUS
62
7
10
  0.12910635
20
 -0.12155000
30
  0.00000000
11
  0.12949365
21
 -0.12155000
31
  0.00000000
0
LINE
8
DC
6
CONTINUOUS
62
7
10
  0.12910000
20
 -0.12150000
30
  0.00000000
11
  0.12950000
21
 -0.12150000
31
  0.00000000
0
LINE
8
DC
6
CONTINUOUS
62
7
10
  0.12910635
20
 -0.12145000
30
  0.00000000
11
  0.12949365
21
 -0.12145000
31
  0.00000000
0
LINE
8
DC
6
CONTINUOUS
62
7
10
  0.12912679
20
 -0.12140000
30
  0.00000000
11
  0.12947321
21
 -0.12140000
31
  0.00000000
0
LINE
8
DC
6
CONTINUOUS
62
7
10
  0.12916771
20
 -0.12135000
30
  0.00000000
11
  0.12943229
21
 -0.12135000
31
  0.00000000
0
CIRCLE
8
DC
6
CONTINUOUS
62
7
10
  0.12930000
20
 -0.12150000
30
  0.00000000
40
  0.00020000
0
LINE
8
DC
6
CONTINUOUS
62
7
10
  0.12510000
20
 -0.12400000
30
  0.00000000
11
  0.12810000
21
 -0.12400000
31
  0.00000000
0
LINE
8
DC
6
CONTINUOUS
62
7
10
  0.12610000
20
 -0.12560000
30
  0.00000000
11
  0.12910000
21
 -0.12560000
31
  0.00000000
0
LINE
8
DC
6
CONTINUOUS
62
7
10
  0.12510000
20
 -0.12730000
30
  0.00000000
11
  0.12810000
21
 -0.12730000
31
  0.00000000
0
LINE
8
DC
6
CONTINUOUS
62
7
10
  0.12610000
20
 -0.12890000
30
  0.00000000
11
  0.12910000
21
 -0.12890000
31
  0.00000000
0
LINE
8
DC
6
CONTINUOUS
62
7
10
  0.12620000
20
 -0.13190000
30
  0.00000000
11
  0.12620000
21
 -0.13190000
31
  0.00000000
0
LINE
8
DC
6
CONTINUOUS
62
7
10
  0.12598206
20
 -0.13185000
30
  0.00000000
11
  0.12641794
21
 -0.13185000
31
  0.00000000
0
LINE
8
DC
6
CONTINUOUS
62
7
10
  0.12590000
20
 -0.13180000
30
  0.00000000
11
  0.12650000
21
 -0.13180000
31
  0.00000000
0
LINE
8
DC
6
CONTINUOUS
62
7
10
  0.12584293
20
 -0.13175000
30
  0.00000000
11
  0.12655707
21
 -0.13175000
31
  0.00000000
0
LINE
8
DC
6
CONTINUOUS
62
7
10
  0.12580000
20
 -0.13170000
30
  0.00000000
11
  0.12660000
21
 -0.13170000
31
  0.00000000
0
LINE
8
DC
6
CONTINUOUS
62
7
10
  0.12576699
20
 -0.13165000
30
  0.00000000
11
  0.12663301
21
 -0.13165000
31
  0.00000000
0
LINE
8
DC
6
CONTINUOUS
62
7
10
  0.12574174
20
 -0.13160000
30
  0.00000000
11
  0.12665826
21
 -0.13160000
31
  0.00000000
0
LINE
8
DC
6
CONTINUOUS
62
7
10
  0.12572303
20
 -0.13155000
30
  0.00000000
11
  0.12667697
21
 -0.13155000
31
  0.00000000
0
LINE
8
DC
6
CONTINUOUS
62
7
10
  0.12571010
20
 -0.13150000
30
  0.00000000
11
  0.12668990
21
 -0.13150000
31
  0.00000000
0
LINE
8
DC
6
CONTINUOUS
62
7
10
  0.12570251
20
 -0.13145000
30
  0.00000000
11
  0.12669749
21
 -0.13145000
31
  0.00000000
0
LINE
8
DC
6
CONTINUOUS
62
7
10
  0.12570000
20
 -0.13140000
30
  0.00000000
11
  0.12670000
21
 -0.13140000
31
  0.00000000
0
LINE
8
DC
6
CONTINUOUS
62
7
10
  0.12570251
20
 -0.13135000
30
  0.00000000
11
  0.12669749
21
 -0.13135000
31
  0.00000000
0
LINE
8
DC
6
CONTINUOUS
62
7
10
  0.12571010
20
 -0.13130000
30
  0.00000000
11
  0.12668990
21
 -0.13130000
31
  0.00000000
0
LINE
8
DC
6
CONTINUOUS
62
7
10
  0.12572303
20
 -0.13125000
30
  0.00000000
11
  0.12667697
21
 -0.13125000
31
  0.00000000
0
LINE
8
DC
6
CONTINUOUS
62
7
10
  0.12574174
20
 -0.13120000
30
  0.00000000
11
  0.12665826
21
 -0.13120000
31
  0.00000000
0
LINE
8
DC
6
CONTINUOUS
62
7
10
  0.12576699
20
 -0.13115000
30
  0.00000000
11
  0.12663301
21
 -0.13115000
31
  0.00000000
0
LINE
8
DC
6
CONTINUOUS
62
7
10
  0.12580000
20
 -0.13110000
30
  0.00000000
11
  0.12660000
21
 -0.13110000
31
  0.00000000
0
LINE
8
DC
6
CONTINUOUS
62
7
10
  0.12584293
20
 -0.13105000
30
  0.00000000
11
  0.12655707
21
 -0.13105000
31
  0.00000000
0
LINE
8
DC
6
CONTINUOUS
62
7
10
  0.12590000
20
 -0.13100000
30
  0.00000000
11
  0.12650000
21
 -0.13100000
31
  0.00000000
0
LINE
8
DC
6
CONTINUOUS
62
7
10
  0.12598206
20
 -0.13095000
30
  0.00000000
11
  0.12641794
21
 -0.13095000
31
  0.00000000
0
CIRCLE
8
DC
6
CONTINUOUS
62
7
10
  0.12620000
20
 -0.13140000
30
  0.00000000
40
  0.00050000
0
LINE
8
DC
6
CONTINUOUS
62
7
10
  0.12780000
20
 -0.13190000
30
  0.00000000
11
  0.12780000
21
 -0.13190000
31
  0.00000000
0
LINE
8
DC
6
CONTINUOUS
62
7
10
  0.12758206
20
 -0.13185000
30
  0.00000000
11
  0.12801794
21
 -0.13185000
31
  0.00000000
0
LINE
8
DC
6
CONTINUOUS
62
7
10
  0.12750000
20
 -0.13180000
30
  0.00000000
11
  0.12810000
21
 -0.13180000
31
  0.00000000
0
LINE
8
DC
6
CONTINUOUS
62
7
10
  0.12744293
20
 -0.13175000
30
  0.00000000
11
  0.12815707
21
 -0.13175000
31
  0.00000000
0
LINE
8
DC
6
CONTINUOUS
62
7
10
  0.12740000
20
 -0.13170000
30
  0.00000000
11
  0.12820000
21
 -0.13170000
31
  0.00000000
0
LINE
8
DC
6
CONTINUOUS
62
7
10
  0.12736699
20
 -0.13165000
30
  0.00000000
11
  0.12823301
21
 -0.13165000
31
  0.00000000
0
LINE
8
DC
6
CONTINUOUS
62
7
10
  0.12734174
20
 -0.13160000
30
  0.00000000
11
  0.12825826
21
 -0.13160000
31
  0.00000000
0
LINE
8
DC
6
CONTINUOUS
62
7
10
  0.12732303
20
 -0.13155000
30
  0.00000000
11
  0.12827697
21
 -0.13155000
31
  0.00000000
0
LINE
8
DC
6
CONTINUOUS
62
7
10
  0.12731010
20
 -0.13150000
30
  0.00000000
11
  0.12828990
21
 -0.13150000
31
  0.00000000
0
LINE
8
DC
6
CONTINUOUS
62
7
10
  0.12730251
20
 -0.13145000
30
  0.00000000
11
  0.12829749
21
 -0.13145000
31
  0.00000000
0
LINE
8
DC
6
CONTINUOUS
62
7
10
  0.12730000
20
 -0.13140000
30
  0.00000000
11
  0.12830000
21
 -0.13140000
31
  0.00000000
0
LINE
8
DC
6
CONTINUOUS
62
7
10
  0.12730251
20
 -0.13135000
30
  0.00000000
11
  0.12829749
21
 -0.13135000
31
  0.00000000
0
LINE
8
DC
6
CONTINUOUS
62
7
10
  0.12731010
20
 -0.13130000
30
  0.00000000
11
  0.12828990
21
 -0.13130000
31
  0.00000000
0
LINE
8
DC
6
CONTINUOUS
62
7
10
  0.12732303
20
 -0.13125000
30
  0.00000000
11
  0.12827697
21
 -0.13125000
31
  0.00000000
0
LINE
8
DC
6
CONTINUOUS
62
7
10
  0.12734174
20
 -0.13120000
30
  0.00000000
11
  0.12825826
21
 -0.13120000
31
  0.00000000
0
LINE
8
DC
6
CONTINUOUS
62
7
10
  0.12736699
20
 -0.13115000
30
  0.00000000
11
  0.12823301
21
 -0.13115000
31
  0.00000000
0
LINE
8
DC
6
CONTINUOUS
62
7
10
  0.12740000
20
 -0.13110000
30
  0.00000000
11
  0.12820000
21
 -0.13110000
31
  0.00000000
0
LINE
8
DC
6
CONTINUOUS
62
7
10
  0.12744293
20
 -0.13105000
30
  0.00000000
11
  0.12815707
21
 -0.13105000
31
  0.00000000
0
LINE
8
DC
6
CONTINUOUS
62
7
10
  0.12750000
20
 -0.13100000
30
  0.00000000
11
  0.12810000
21
 -0.13100000
31
  0.00000000
0
LINE
8
DC
6
CONTINUOUS
62
7
10
  0.12758206
20
 -0.13095000
30
  0.00000000
11
  0.12801794
21
 -0.13095000
31
  0.00000000
0
CIRCLE
8
DC
6
CONTINUOUS
62
7
10
  0.12780000
20
 -0.13140000
30
  0.00000000
40
  0.00050000
0
LINE
8
DC
6
CONTINUOUS
62
7
10
  0.12560000
20
 -0.13190000
30
  0.00000000
11
  0.12860000
21
 -0.13190000
31
  0.00000000
0
LINE
8
DC
6
CONTINUOUS
62
7
10
  0.12480000
20
 -0.13380000
30
  0.00000000
11
  0.12480000
21
 -0.13380000
31
  0.00000000
0
LINE
8
DC
6
CONTINUOUS
62
7
10
  0.12466771
20
 -0.13375000
30
  0.00000000
11
  0.12493229
21
 -0.13375000
31
  0.00000000
0
LINE
8
DC
6
CONTINUOUS
62
7
10
  0.12462679
20
 -0.13370000
30
  0.00000000
11
  0.12497321
21
 -0.13370000
31
  0.00000000
0
LINE
8
DC
6
CONTINUOUS
62
7
10
  0.12460635
20
 -0.13365000
30
  0.00000000
11
  0.12499365
21
 -0.13365000
31
  0.00000000
0
LINE
8
DC
6
CONTINUOUS
62
7
10
  0.12460000
20
 -0.13360000
30
  0.00000000
11
  0.12500000
21
 -0.13360000
31
  0.00000000
0
LINE
8
DC
6
CONTINUOUS
62
7
10
  0.12460635
20
 -0.13355000
30
  0.00000000
11
  0.12499365
21
 -0.13355000
31
  0.00000000
0
LINE
8
DC
6
CONTINUOUS
62
7
10
  0.12462679
20
 -0.13350000
30
  0.00000000
11
  0.12497321
21
 -0.13350000
31
  0.00000000
0
LINE
8
DC
6
CONTINUOUS
62
7
10
  0.12466771
20
 -0.13345000
30
  0.00000000
11
  0.12493229
21
 -0.13345000
31
  0.00000000
0
CIRCLE
8
DC
6
CONTINUOUS
62
7
10
  0.12480000
20
 -0.13360000
30
  0.00000000
40
  0.00020000
0
LINE
8
DC
6
CONTINUOUS
62
7
10
  0.12580000
20
 -0.13380000
30
  0.00000000
11
  0.12580000
21
 -0.13380000
31
  0.00000000
0
LINE
8
DC
6
CONTINUOUS
62
7
10
  0.12566771
20
 -0.13375000
30
  0.00000000
11
  0.12593229
21
 -0.13375000
31
  0.00000000
0
LINE
8
DC
6
CONTINUOUS
62
7
10
  0.12562679
20
 -0.13370000
30
  0.00000000
11
  0.12597321
21
 -0.13370000
31
  0.00000000
0
LINE
8
DC
6
CONTINUOUS
62
7
10
  0.12560635
20
 -0.13365000
30
  0.00000000
11
  0.12599365
21
 -0.13365000
31
  0.00000000
0
LINE
8
DC
6
CONTINUOUS
62
7
10
  0.12560000
20
 -0.13360000
30
  0.00000000
11
  0.12600000
21
 -0.13360000
31
  0.00000000
0
LINE
8
DC
6
CONTINUOUS
62
7
10
  0.12560635
20
 -0.13355000
30
  0.00000000
11
  0.12599365
21
 -0.13355000
31
  0.00000000
0
LINE
8
DC
6
CONTINUOUS
62
7
10
  0.12562679
20
 -0.13350000
30
  0.00000000
11
  0.12597321
21
 -0.13350000
31
  0.00000000
0
LINE
8
DC
6
CONTINUOUS
62
7
10
  0.12566771
20
 -0.13345000
30
  0.00000000
11
  0.12593229
21
 -0.13345000
31
  0.00000000
0
CIRCLE
8
DC
6
CONTINUOUS
62
7
10
  0.12580000
20
 -0.13360000
30
  0.00000000
40
  0.00020000
0
LINE
8
DC
6
CONTINUOUS
62
7
10
  0.12680000
20
 -0.13380000
30
  0.00000000
11
  0.12680000
21
 -0.13380000
31
  0.00000000
0
LINE
8
DC
6
CONTINUOUS
62
7
10
  0.12666771
20
 -0.13375000
30
  0.00000000
11
  0.12693229
21
 -0.13375000
31
  0.00000000
0
LINE
8
DC
6
CONTINUOUS
62
7
10
  0.12662679
20
 -0.13370000
30
  0.00000000
11
  0.12697321
21
 -0.13370000
31
  0.00000000
0
LINE
8
DC
6
CONTINUOUS
62
7
10
  0.12660635
20
 -0.13365000
30
  0.00000000
11
  0.12699365
21
 -0.13365000
31
  0.00000000
0
LINE
8
DC
6
CONTINUOUS
62
7
10
  0.12660000
20
 -0.13360000
30
  0.00000000
11
  0.12700000
21
 -0.13360000
31
  0.00000000
0
LINE
8
DC
6
CONTINUOUS
62
7
10
  0.12660635
20
 -0.13355000
30
  0.00000000
11
  0.12699365
21
 -0.13355000
31
  0.00000000
0
LINE
8
DC
6
CONTINUOUS
62
7
10
  0.12662679
20
 -0.13350000
30
  0.00000000
11
  0.12697321
21
 -0.13350000
31
  0.00000000
0
LINE
8
DC
6
CONTINUOUS
62
7
10
  0.12666771
20
 -0.13345000
30
  0.00000000
11
  0.12693229
21
 -0.13345000
31
  0.00000000
0
CIRCLE
8
DC
6
CONTINUOUS
62
7
10
  0.12680000
20
 -0.13360000
30
  0.00000000
40
  0.00020000
0
LINE
8
DC
6
CONTINUOUS
62
7
10
  0.12780000
20
 -0.13380000
30
  0.00000000
11
  0.12780000
21
 -0.13380000
31
  0.00000000
0
LINE
8
DC
6
CONTINUOUS
62
7
10
  0.12766771
20
 -0.13375000
30
  0.00000000
11
  0.12793229
21
 -0.13375000
31
  0.00000000
0
LINE
8
DC
6
CONTINUOUS
62
7
10
  0.12762679
20
 -0.13370000
30
  0.00000000
11
  0.12797321
21
 -0.13370000
31
  0.00000000
0
LINE
8
DC
6
CONTINUOUS
62
7
10
  0.12760635
20
 -0.13365000
30
  0.00000000
11
  0.12799365
21
 -0.13365000
31
  0.00000000
0
LINE
8
DC
6
CONTINUOUS
62
7
10
  0.12760000
20
 -0.13360000
30
  0.00000000
11
  0.12800000
21
 -0.13360000
31
  0.00000000
0
LINE
8
DC
6
CONTINUOUS
62
7
10
  0.12760635
20
 -0.13355000
30
  0.00000000
11
  0.12799365
21
 -0.13355000
31
  0.00000000
0
LINE
8
DC
6
CONTINUOUS
62
7
10
  0.12762679
20
 -0.13350000
30
  0.00000000
11
  0.12797321
21
 -0.13350000
31
  0.00000000
0
LINE
8
DC
6
CONTINUOUS
62
7
10
  0.12766771
20
 -0.13345000
30
  0.00000000
11
  0.12793229
21
 -0.13345000
31
  0.00000000
0
CIRCLE
8
DC
6
CONTINUOUS
62
7
10
  0.12780000
20
 -0.13360000
30
  0.00000000
40
  0.00020000
0
LINE
8
DC
6
CONTINUOUS
62
7
10
  0.12880000
20
 -0.13380000
30
  0.00000000
11
  0.12880000
21
 -0.13380000
31
  0.00000000
0
LINE
8
DC
6
CONTINUOUS
62
7
10
  0.12866771
20
 -0.13375000
30
  0.00000000
11
  0.12893229
21
 -0.13375000
31
  0.00000000
0
LINE
8
DC
6
CONTINUOUS
62
7
10
  0.12862679
20
 -0.13370000
30
  0.00000000
11
  0.12897321
21
 -0.13370000
31
  0.00000000
0
LINE
8
DC
6
CONTINUOUS
62
7
10
  0.12860635
20
 -0.13365000
30
  0.00000000
11
  0.12899365
21
 -0.13365000
31
  0.00000000
0
LINE
8
DC
6
CONTINUOUS
62
7
10
  0.12860000
20
 -0.13360000
30
  0.00000000
11
  0.12900000
21
 -0.13360000
31
  0.00000000
0
LINE
8
DC
6
CONTINUOUS
62
7
10
  0.12860635
20
 -0.13355000
30
  0.00000000
11
  0.12899365
21
 -0.13355000
31
  0.00000000
0
LINE
8
DC
6
CONTINUOUS
62
7
10
  0.12862679
20
 -0.13350000
30
  0.00000000
11
  0.12897321
21
 -0.13350000
31
  0.00000000
0
LINE
8
DC
6
CONTINUOUS
62
7
10
  0.12866771
20
 -0.13345000
30
  0.00000000
11
  0.12893229
21
 -0.13345000
31
  0.00000000
0
CIRCLE
8
DC
6
CONTINUOUS
62
7
10
  0.12880000
20
 -0.13360000
30
  0.00000000
40
  0.00020000
0
LINE
8
DC
6
CONTINUOUS
62
7
10
  0.12480000
20
 -0.13600000
30
  0.00000000
11
  0.12480000
21
 -0.13600000
31
  0.00000000
0
LINE
8
DC
6
CONTINUOUS
62
7
10
  0.12466771
20
 -0.13595000
30
  0.00000000
11
  0.12493229
21
 -0.13595000
31
  0.00000000
0
LINE
8
DC
6
CONTINUOUS
62
7
10
  0.12462679
20
 -0.13590000
30
  0.00000000
11
  0.12497321
21
 -0.13590000
31
  0.00000000
0
LINE
8
DC
6
CONTINUOUS
62
7
10
  0.12460635
20
 -0.13585000
30
  0.00000000
11
  0.12499365
21
 -0.13585000
31
  0.00000000
0
LINE
8
DC
6
CONTINUOUS
62
7
10
  0.12460000
20
 -0.13580000
30
  0.00000000
11
  0.12500000
21
 -0.13580000
31
  0.00000000
0
LINE
8
DC
6
CONTINUOUS
62
7
10
  0.12460635
20
 -0.13575000
30
  0.00000000
11
  0.12499365
21
 -0.13575000
31
  0.00000000
0
LINE
8
DC
6
CONTINUOUS
62
7
10
  0.12462679
20
 -0.13570000
30
  0.00000000
11
  0.12497321
21
 -0.13570000
31
  0.00000000
0
LINE
8
DC
6
CONTINUOUS
62
7
10
  0.12466771
20
 -0.13565000
30
  0.00000000
11
  0.12493229
21
 -0.13565000
31
  0.00000000
0
CIRCLE
8
DC
6
CONTINUOUS
62
7
10
  0.12480000
20
 -0.13580000
30
  0.00000000
40
  0.00020000
0
LINE
8
DC
6
CONTINUOUS
62
7
10
  0.12580000
20
 -0.13600000
30
  0.00000000
11
  0.12580000
21
 -0.13600000
31
  0.00000000
0
LINE
8
DC
6
CONTINUOUS
62
7
10
  0.12566771
20
 -0.13595000
30
  0.00000000
11
  0.12593229
21
 -0.13595000
31
  0.00000000
0
LINE
8
DC
6
CONTINUOUS
62
7
10
  0.12562679
20
 -0.13590000
30
  0.00000000
11
  0.12597321
21
 -0.13590000
31
  0.00000000
0
LINE
8
DC
6
CONTINUOUS
62
7
10
  0.12560635
20
 -0.13585000
30
  0.00000000
11
  0.12599365
21
 -0.13585000
31
  0.00000000
0
LINE
8
DC
6
CONTINUOUS
62
7
10
  0.12560000
20
 -0.13580000
30
  0.00000000
11
  0.12600000
21
 -0.13580000
31
  0.00000000
0
LINE
8
DC
6
CONTINUOUS
62
7
10
  0.12560635
20
 -0.13575000
30
  0.00000000
11
  0.12599365
21
 -0.13575000
31
  0.00000000
0
LINE
8
DC
6
CONTINUOUS
62
7
10
  0.12562679
20
 -0.13570000
30
  0.00000000
11
  0.12597321
21
 -0.13570000
31
  0.00000000
0
LINE
8
DC
6
CONTINUOUS
62
7
10
  0.12566771
20
 -0.13565000
30
  0.00000000
11
  0.12593229
21
 -0.13565000
31
  0.00000000
0
CIRCLE
8
DC
6
CONTINUOUS
62
7
10
  0.12580000
20
 -0.13580000
30
  0.00000000
40
  0.00020000
0
LINE
8
DC
6
CONTINUOUS
62
7
10
  0.12680000
20
 -0.13600000
30
  0.00000000
11
  0.12680000
21
 -0.13600000
31
  0.00000000
0
LINE
8
DC
6
CONTINUOUS
62
7
10
  0.12666771
20
 -0.13595000
30
  0.00000000
11
  0.12693229
21
 -0.13595000
31
  0.00000000
0
LINE
8
DC
6
CONTINUOUS
62
7
10
  0.12662679
20
 -0.13590000
30
  0.00000000
11
  0.12697321
21
 -0.13590000
31
  0.00000000
0
LINE
8
DC
6
CONTINUOUS
62
7
10
  0.12660635
20
 -0.13585000
30
  0.00000000
11
  0.12699365
21
 -0.13585000
31
  0.00000000
0
LINE
8
DC
6
CONTINUOUS
62
7
10
  0.12660000
20
 -0.13580000
30
  0.00000000
11
  0.12700000
21
 -0.13580000
31
  0.00000000
0
LINE
8
DC
6
CONTINUOUS
62
7
10
  0.12660635
20
 -0.13575000
30
  0.00000000
11
  0.12699365
21
 -0.13575000
31
  0.00000000
0
LINE
8
DC
6
CONTINUOUS
62
7
10
  0.12662679
20
 -0.13570000
30
  0.00000000
11
  0.12697321
21
 -0.13570000
31
  0.00000000
0
LINE
8
DC
6
CONTINUOUS
62
7
10
  0.12666771
20
 -0.13565000
30
  0.00000000
11
  0.12693229
21
 -0.13565000
31
  0.00000000
0
CIRCLE
8
DC
6
CONTINUOUS
62
7
10
  0.12680000
20
 -0.13580000
30
  0.00000000
40
  0.00020000
0
LINE
8
DC
6
CONTINUOUS
62
7
10
  0.12780000
20
 -0.13600000
30
  0.00000000
11
  0.12780000
21
 -0.13600000
31
  0.00000000
0
LINE
8
DC
6
CONTINUOUS
62
7
10
  0.12766771
20
 -0.13595000
30
  0.00000000
11
  0.12793229
21
 -0.13595000
31
  0.00000000
0
LINE
8
DC
6
CONTINUOUS
62
7
10
  0.12762679
20
 -0.13590000
30
  0.00000000
11
  0.12797321
21
 -0.13590000
31
  0.00000000
0
LINE
8
DC
6
CONTINUOUS
62
7
10
  0.12760635
20
 -0.13585000
30
  0.00000000
11
  0.12799365
21
 -0.13585000
31
  0.00000000
0
LINE
8
DC
6
CONTINUOUS
62
7
10
  0.12760000
20
 -0.13580000
30
  0.00000000
11
  0.12800000
21
 -0.13580000
31
  0.00000000
0
LINE
8
DC
6
CONTINUOUS
62
7
10
  0.12760635
20
 -0.13575000
30
  0.00000000
11
  0.12799365
21
 -0.13575000
31
  0.00000000
0
LINE
8
DC
6
CONTINUOUS
62
7
10
  0.12762679
20
 -0.13570000
30
  0.00000000
11
  0.12797321
21
 -0.13570000
31
  0.00000000
0
LINE
8
DC
6
CONTINUOUS
62
7
10
  0.12766771
20
 -0.13565000
30
  0.00000000
11
  0.12793229
21
 -0.13565000
31
  0.00000000
0
CIRCLE
8
DC
6
CONTINUOUS
62
7
10
  0.12780000
20
 -0.13580000
30
  0.00000000
40
  0.00020000
0
LINE
8
DC
6
CONTINUOUS
62
7
10
  0.12880000
20
 -0.13600000
30
  0.00000000
11
  0.12880000
21
 -0.13600000
31
  0.00000000
0
LINE
8
DC
6
CONTINUOUS
62
7
10
  0.12866771
20
 -0.13595000
30
  0.00000000
11
  0.12893229
21
 -0.13595000
31
  0.00000000
0
LINE
8
DC
6
CONTINUOUS
62
7
10
  0.12862679
20
 -0.13590000
30
  0.00000000
11
  0.12897321
21
 -0.13590000
31
  0.00000000
0
LINE
8
DC
6
CONTINUOUS
62
7
10
  0.12860635
20
 -0.13585000
30
  0.00000000
11
  0.12899365
21
 -0.13585000
31
  0.00000000
0
LINE
8
DC
6
CONTINUOUS
62
7
10
  0.12860000
20
 -0.13580000
30
  0.00000000
11
  0.12900000
21
 -0.13580000
31
  0.00000000
0
LINE
8
DC
6
CONTINUOUS
62
7
10
  0.12860635
20
 -0.13575000
30
  0.00000000
11
  0.12899365
21
 -0.13575000
31
  0.00000000
0
LINE
8
DC
6
CONTINUOUS
62
7
10
  0.12862679
20
 -0.13570000
30
  0.00000000
11
  0.12897321
21
 -0.13570000
31
  0.00000000
0
LINE
8
DC
6
CONTINUOUS
62
7
10
  0.12866771
20
 -0.13565000
30
  0.00000000
11
  0.12893229
21
 -0.13565000
31
  0.00000000
0
CIRCLE
8
DC
6
CONTINUOUS
62
7
10
  0.12880000
20
 -0.13580000
30
  0.00000000
40
  0.00020000
0
LINE
8
DC
6
CONTINUOUS
62
7
10
  0.12530000
20
 -0.13490000
30
  0.00000000
11
  0.12530000
21
 -0.13490000
31
  0.00000000
0
LINE
8
DC
6
CONTINUOUS
62
7
10
  0.12516771
20
 -0.13485000
30
  0.00000000
11
  0.12543229
21
 -0.13485000
31
  0.00000000
0
LINE
8
DC
6
CONTINUOUS
62
7
10
  0.12512679
20
 -0.13480000
30
  0.00000000
11
  0.12547321
21
 -0.13480000
31
  0.00000000
0
LINE
8
DC
6
CONTINUOUS
62
7
10
  0.12510635
20
 -0.13475000
30
  0.00000000
11
  0.12549365
21
 -0.13475000
31
  0.00000000
0
LINE
8
DC
6
CONTINUOUS
62
7
10
  0.12510000
20
 -0.13470000
30
  0.00000000
11
  0.12550000
21
 -0.13470000
31
  0.00000000
0
LINE
8
DC
6
CONTINUOUS
62
7
10
  0.12510635
20
 -0.13465000
30
  0.00000000
11
  0.12549365
21
 -0.13465000
31
  0.00000000
0
LINE
8
DC
6
CONTINUOUS
62
7
10
  0.12512679
20
 -0.13460000
30
  0.00000000
11
  0.12547321
21
 -0.13460000
31
  0.00000000
0
LINE
8
DC
6
CONTINUOUS
62
7
10
  0.12516771
20
 -0.13455000
30
  0.00000000
11
  0.12543229
21
 -0.13455000
31
  0.00000000
0
CIRCLE
8
DC
6
CONTINUOUS
62
7
10
  0.12530000
20
 -0.13470000
30
  0.00000000
40
  0.00020000
0
LINE
8
DC
6
CONTINUOUS
62
7
10
  0.12630000
20
 -0.13490000
30
  0.00000000
11
  0.12630000
21
 -0.13490000
31
  0.00000000
0
LINE
8
DC
6
CONTINUOUS
62
7
10
  0.12616771
20
 -0.13485000
30
  0.00000000
11
  0.12643229
21
 -0.13485000
31
  0.00000000
0
LINE
8
DC
6
CONTINUOUS
62
7
10
  0.12612679
20
 -0.13480000
30
  0.00000000
11
  0.12647321
21
 -0.13480000
31
  0.00000000
0
LINE
8
DC
6
CONTINUOUS
62
7
10
  0.12610635
20
 -0.13475000
30
  0.00000000
11
  0.12649365
21
 -0.13475000
31
  0.00000000
0
LINE
8
DC
6
CONTINUOUS
62
7
10
  0.12610000
20
 -0.13470000
30
  0.00000000
11
  0.12650000
21
 -0.13470000
31
  0.00000000
0
LINE
8
DC
6
CONTINUOUS
62
7
10
  0.12610635
20
 -0.13465000
30
  0.00000000
11
  0.12649365
21
 -0.13465000
31
  0.00000000
0
LINE
8
DC
6
CONTINUOUS
62
7
10
  0.12612679
20
 -0.13460000
30
  0.00000000
11
  0.12647321
21
 -0.13460000
31
  0.00000000
0
LINE
8
DC
6
CONTINUOUS
62
7
10
  0.12616771
20
 -0.13455000
30
  0.00000000
11
  0.12643229
21
 -0.13455000
31
  0.00000000
0
CIRCLE
8
DC
6
CONTINUOUS
62
7
10
  0.12630000
20
 -0.13470000
30
  0.00000000
40
  0.00020000
0
LINE
8
DC
6
CONTINUOUS
62
7
10
  0.12730000
20
 -0.13490000
30
  0.00000000
11
  0.12730000
21
 -0.13490000
31
  0.00000000
0
LINE
8
DC
6
CONTINUOUS
62
7
10
  0.12716771
20
 -0.13485000
30
  0.00000000
11
  0.12743229
21
 -0.13485000
31
  0.00000000
0
LINE
8
DC
6
CONTINUOUS
62
7
10
  0.12712679
20
 -0.13480000
30
  0.00000000
11
  0.12747321
21
 -0.13480000
31
  0.00000000
0
LINE
8
DC
6
CONTINUOUS
62
7
10
  0.12710635
20
 -0.13475000
30
  0.00000000
11
  0.12749365
21
 -0.13475000
31
  0.00000000
0
LINE
8
DC
6
CONTINUOUS
62
7
10
  0.12710000
20
 -0.13470000
30
  0.00000000
11
  0.12750000
21
 -0.13470000
31
  0.00000000
0
LINE
8
DC
6
CONTINUOUS
62
7
10
  0.12710635
20
 -0.13465000
30
  0.00000000
11
  0.12749365
21
 -0.13465000
31
  0.00000000
0
LINE
8
DC
6
CONTINUOUS
62
7
10
  0.12712679
20
 -0.13460000
30
  0.00000000
11
  0.12747321
21
 -0.13460000
31
  0.00000000
0
LINE
8
DC
6
CONTINUOUS
62
7
10
  0.12716771
20
 -0.13455000
30
  0.00000000
11
  0.12743229
21
 -0.13455000
31
  0.00000000
0
CIRCLE
8
DC
6
CONTINUOUS
62
7
10
  0.12730000
20
 -0.13470000
30
  0.00000000
40
  0.00020000
0
LINE
8
DC
6
CONTINUOUS
62
7
10
  0.12830000
20
 -0.13490000
30
  0.00000000
11
  0.12830000
21
 -0.13490000
31
  0.00000000
0
LINE
8
DC
6
CONTINUOUS
62
7
10
  0.12816771
20
 -0.13485000
30
  0.00000000
11
  0.12843229
21
 -0.13485000
31
  0.00000000
0
LINE
8
DC
6
CONTINUOUS
62
7
10
  0.12812679
20
 -0.13480000
30
  0.00000000
11
  0.12847321
21
 -0.13480000
31
  0.00000000
0
LINE
8
DC
6
CONTINUOUS
62
7
10
  0.12810635
20
 -0.13475000
30
  0.00000000
11
  0.12849365
21
 -0.13475000
31
  0.00000000
0
LINE
8
DC
6
CONTINUOUS
62
7
10
  0.12810000
20
 -0.13470000
30
  0.00000000
11
  0.12850000
21
 -0.13470000
31
  0.00000000
0
LINE
8
DC
6
CONTINUOUS
62
7
10
  0.12810635
20
 -0.13465000
30
  0.00000000
11
  0.12849365
21
 -0.13465000
31
  0.00000000
0
LINE
8
DC
6
CONTINUOUS
62
7
10
  0.12812679
20
 -0.13460000
30
  0.00000000
11
  0.12847321
21
 -0.13460000
31
  0.00000000
0
LINE
8
DC
6
CONTINUOUS
62
7
10
  0.12816771
20
 -0.13455000
30
  0.00000000
11
  0.12843229
21
 -0.13455000
31
  0.00000000
0
CIRCLE
8
DC
6
CONTINUOUS
62
7
10
  0.12830000
20
 -0.13470000
30
  0.00000000
40
  0.00020000
0
LINE
8
DC
6
CONTINUOUS
62
7
10
  0.12930000
20
 -0.13490000
30
  0.00000000
11
  0.12930000
21
 -0.13490000
31
  0.00000000
0
LINE
8
DC
6
CONTINUOUS
62
7
10
  0.12916771
20
 -0.13485000
30
  0.00000000
11
  0.12943229
21
 -0.13485000
31
  0.00000000
0
LINE
8
DC
6
CONTINUOUS
62
7
10
  0.12912679
20
 -0.13480000
30
  0.00000000
11
  0.12947321
21
 -0.13480000
31
  0.00000000
0
LINE
8
DC
6
CONTINUOUS
62
7
10
  0.12910635
20
 -0.13475000
30
  0.00000000
11
  0.12949365
21
 -0.13475000
31
  0.00000000
0
LINE
8
DC
6
CONTINUOUS
62
7
10
  0.12910000
20
 -0.13470000
30
  0.00000000
11
  0.12950000
21
 -0.13470000
31
  0.00000000
0
LINE
8
DC
6
CONTINUOUS
62
7
10
  0.12910635
20
 -0.13465000
30
  0.00000000
11
  0.12949365
21
 -0.13465000
31
  0.00000000
0
LINE
8
DC
6
CONTINUOUS
62
7
10
  0.12912679
20
 -0.13460000
30
  0.00000000
11
  0.12947321
21
 -0.13460000
31
  0.00000000
0
LINE
8
DC
6
CONTINUOUS
62
7
10
  0.12916771
20
 -0.13455000
30
  0.00000000
11
  0.12943229
21
 -0.13455000
31
  0.00000000
0
CIRCLE
8
DC
6
CONTINUOUS
62
7
10
  0.12930000
20
 -0.13470000
30
  0.00000000
40
  0.00020000
0
LINE
8
DC
6
CONTINUOUS
62
7
10
  0.11960000
20
 -0.07700000
30
  0.00000000
11
  0.13460000
21
 -0.07700000
31
  0.00000000
0
LINE
8
DC
6
CONTINUOUS
62
7
10
  0.13460000
20
 -0.07700000
30
  0.00000000
11
  0.13560000
21
 -0.10280000
31
  0.00000000
0
LINE
8
DC
6
CONTINUOUS
62
7
10
  0.13560000
20
 -0.10280000
30
  0.00000000
11
  0.17660000
21
 -0.10280000
31
  0.00000000
0
LINE
8
DC
6
CONTINUOUS
62
7
10
  0.11960000
20
 -0.13700000
30
  0.00000000
11
  0.11860000
21
 -0.13700000
31
  0.00000000
0
LINE
8
DC
6
CONTINUOUS
62
7
10
  0.10920000
20
 -0.13700000
30
  0.00000000
11
  0.11860000
21
 -0.13700000
31
  0.00000000
0
TEXT
8
DC
62
7
10
  0.11860000
20
 -0.13650000
30
  0.00000000
40
  0.00250000
41
  0.60000000
1
    4.60m
50
  0.00000000
72
2
73
0
11
  0.11860000
21
 -0.13650000
31
  0.00000000
0
TEXT
8
DC
62
7
10
  0.13660000
20
 -0.11520000
30
  0.00000000
40
  0.00216667
41
  0.60000000
1
Auelehm, Ton, stark schluffig, 
50
  0.00000000
72
0
73
1
11
  0.13660000
21
 -0.11520000
31
  0.00000000
0
TEXT
8
DC
62
7
10
  0.13660000
20
 -0.11830000
30
  0.00000000
40
  0.00216667
41
  0.60000000
1
schwach feinsandig
50
  0.00000000
72
0
73
1
11
  0.13660000
21
 -0.11830000
31
  0.00000000
0
TEXT
8
DC
62
7
10
  0.13660000
20
 -0.12140000
30
  0.00000000
40
  0.00216667
41
  0.60000000
1
weich
50
  0.00000000
72
0
73
1
11
  0.13660000
21
 -0.12140000
31
  0.00000000
0
TEXT
8
DC
62
7
10
  0.13660000
20
 -0.12450000
30
  0.00000000
40
  0.00216667
41
  0.60000000
1
feucht
50
  0.00000000
72
0
73
1
11
  0.13660000
21
 -0.12450000
31
  0.00000000
0
TEXT
8
DC
62
7
10
  0.13660000
20
 -0.12760000
30
  0.00000000
40
  0.00216667
41
  0.60000000
1
schwarzbraun
50
  0.00000000
72
0
73
1
11
  0.13660000
21
 -0.12760000
31
  0.00000000
0
CIRCLE
8
DC
6
CONTINUOUS
62
7
10
  0.18290000
20
 -0.11990000
30
  0.00000000
40
  0.00530000
0
TEXT
8
DC
62
7
10
  0.18090000
20
 -0.12190000
30
  0.00000000
40
  0.00250000
41
  0.60000000
1
TL
50
  0.00000000
72
0
73
1
11
  0.18090000
21
 -0.12190000
31
  0.00000000
0
LINE
8
DC
6
CONTINUOUS
62
7
10
  0.17040000
20
 -0.11680000
30
  0.00000000
11
  0.17660000
21
 -0.11680000
31
  0.00000000
0
LINE
8
DC
6
CONTINUOUS
62
7
10
  0.17660000
20
 -0.11680000
30
  0.00000000
11
  0.17660000
21
 -0.12300000
31
  0.00000000
0
LINE
8
DC
6
CONTINUOUS
62
7
10
  0.17660000
20
 -0.12300000
30
  0.00000000
11
  0.17040000
21
 -0.12300000
31
  0.00000000
0
LINE
8
DC
6
CONTINUOUS
62
7
10
  0.17040000
20
 -0.12300000
30
  0.00000000
11
  0.17040000
21
 -0.11680000
31
  0.00000000
0
TEXT
8
DC
62
7
10
  0.17350000
20
 -0.12190000
30
  0.00000000
40
  0.00250000
41
  0.60000000
1
4
50
  0.00000000
72
1
73
1
11
  0.17350000
21
 -0.12190000
31
  0.00000000
0
SOLID
8
DC
62
15
10
  0.11960000
20
 -0.13700000
30
  0.00000000
11
  0.12970000
21
 -0.13700000
31
  0.00000000
12
  0.11960000
22
 -0.13910000
32
  0.00000000
13
  0.12970000
23
 -0.13910000
33
  0.00000000
0
LINE
8
DC
6
CONTINUOUS
62
7
10
  0.11960000
20
 -0.13700000
30
  0.00000000
11
  0.12970000
21
 -0.13700000
31
  0.00000000
0
LINE
8
DC
6
CONTINUOUS
62
7
10
  0.12970000
20
 -0.13700000
30
  0.00000000
11
  0.12970000
21
 -0.13910000
31
  0.00000000
0
LINE
8
DC
6
CONTINUOUS
62
7
10
  0.12970000
20
 -0.13910000
30
  0.00000000
11
  0.11960000
21
 -0.13910000
31
  0.00000000
0
LINE
8
DC
6
CONTINUOUS
62
7
10
  0.11960000
20
 -0.13910000
30
  0.00000000
11
  0.11960000
21
 -0.13700000
31
  0.00000000
0
LINE
8
DC
6
CONTINUOUS
62
7
10
  0.11960000
20
 -0.13700000
30
  0.00000000
11
  0.17660000
21
 -0.13700000
31
  0.00000000
0
LINE
8
DC
6
CONTINUOUS
62
7
10
  0.11960000
20
 -0.13900000
30
  0.00000000
11
  0.11860000
21
 -0.14110000
31
  0.00000000
0
LINE
8
DC
6
CONTINUOUS
62
7
10
  0.10920000
20
 -0.14110000
30
  0.00000000
11
  0.11860000
21
 -0.14110000
31
  0.00000000
0
TEXT
8
DC
62
7
10
  0.11860000
20
 -0.14060000
30
  0.00000000
40
  0.00250000
41
  0.60000000
1
    4.70m
50
  0.00000000
72
2
73
0
11
  0.11860000
21
 -0.14060000
31
  0.00000000
0
TEXT
8
DC
62
7
10
  0.13660000
20
 -0.14060000
30
  0.00000000
40
  0.00216667
41
  0.60000000
1
Torf
50
  0.00000000
72
0
73
1
11
  0.13660000
21
 -0.14060000
31
  0.00000000
0
TEXT
8
DC
62
7
10
  0.13660000
20
 -0.14370000
30
  0.00000000
40
  0.00216667
41
  0.60000000
1
braun
50
  0.00000000
72
0
73
1
11
  0.13660000
21
 -0.14370000
31
  0.00000000
0
CIRCLE
8
DC
6
CONTINUOUS
62
7
10
  0.18290000
20
 -0.14030000
30
  0.00000000
40
  0.00530000
0
TEXT
8
DC
62
7
10
  0.18090000
20
 -0.14230000
30
  0.00000000
40
  0.00250000
41
  0.60000000
1
HZ
50
  0.00000000
72
0
73
1
11
  0.18090000
21
 -0.14230000
31
  0.00000000
0
LINE
8
DC
6
CONTINUOUS
62
7
10
  0.17040000
20
 -0.13720000
30
  0.00000000
11
  0.17660000
21
 -0.13720000
31
  0.00000000
0
LINE
8
DC
6
CONTINUOUS
62
7
10
  0.17660000
20
 -0.13720000
30
  0.00000000
11
  0.17660000
21
 -0.14340000
31
  0.00000000
0
LINE
8
DC
6
CONTINUOUS
62
7
10
  0.17660000
20
 -0.14340000
30
  0.00000000
11
  0.17040000
21
 -0.14340000
31
  0.00000000
0
LINE
8
DC
6
CONTINUOUS
62
7
10
  0.17040000
20
 -0.14340000
30
  0.00000000
11
  0.17040000
21
 -0.13720000
31
  0.00000000
0
TEXT
8
DC
62
7
10
  0.17350000
20
 -0.14230000
30
  0.00000000
40
  0.00250000
41
  0.60000000
1
2
50
  0.00000000
72
1
73
1
11
  0.17350000
21
 -0.14230000
31
  0.00000000
0
LINE
8
DC
6
CONTINUOUS
62
7
10
  0.13120000
20
 -0.13900000
30
  0.00000000
11
  0.13120000
21
 -0.13930000
31
  0.00000000
0
LINE
8
DC
6
CONTINUOUS
62
7
10
  0.13120000
20
 -0.13930000
30
  0.00000000
11
  0.13150000
21
 -0.13960000
31
  0.00000000
0
LINE
8
DC
6
CONTINUOUS
62
7
10
  0.13150000
20
 -0.13960000
30
  0.00000000
11
  0.13180000
21
 -0.13990000
31
  0.00000000
0
LINE
8
DC
6
CONTINUOUS
62
7
10
  0.13180000
20
 -0.13990000
30
  0.00000000
11
  0.13190000
21
 -0.14020000
31
  0.00000000
0
LINE
8
DC
6
CONTINUOUS
62
7
10
  0.13190000
20
 -0.14020000
30
  0.00000000
11
  0.13180000
21
 -0.14050000
31
  0.00000000
0
LINE
8
DC
6
CONTINUOUS
62
7
10
  0.13180000
20
 -0.14050000
30
  0.00000000
11
  0.13150000
21
 -0.14080000
31
  0.00000000
0
LINE
8
DC
6
CONTINUOUS
62
7
10
  0.13150000
20
 -0.14080000
30
  0.00000000
11
  0.13120000
21
 -0.14110000
31
  0.00000000
0
LINE
8
DC
6
CONTINUOUS
62
7
10
  0.13120000
20
 -0.14110000
30
  0.00000000
11
  0.13090000
21
 -0.14140000
31
  0.00000000
0
LINE
8
DC
6
CONTINUOUS
62
7
10
  0.13090000
20
 -0.14140000
30
  0.00000000
11
  0.13060000
21
 -0.14170000
31
  0.00000000
0
LINE
8
DC
6
CONTINUOUS
62
7
10
  0.13060000
20
 -0.14170000
30
  0.00000000
11
  0.13050000
21
 -0.14200000
31
  0.00000000
0
LINE
8
DC
6
CONTINUOUS
62
7
10
  0.13050000
20
 -0.14200000
30
  0.00000000
11
  0.13060000
21
 -0.14230000
31
  0.00000000
0
LINE
8
DC
6
CONTINUOUS
62
7
10
  0.13060000
20
 -0.14230000
30
  0.00000000
11
  0.13090000
21
 -0.14260000
31
  0.00000000
0
LINE
8
DC
6
CONTINUOUS
62
7
10
  0.13090000
20
 -0.14260000
30
  0.00000000
11
  0.13120000
21
 -0.14290000
31
  0.00000000
0
LINE
8
DC
6
CONTINUOUS
62
7
10
  0.13120000
20
 -0.14290000
30
  0.00000000
11
  0.13150000
21
 -0.14320000
31
  0.00000000
0
LINE
8
DC
6
CONTINUOUS
62
7
10
  0.13150000
20
 -0.14320000
30
  0.00000000
11
  0.13180000
21
 -0.14350000
31
  0.00000000
0
LINE
8
DC
6
CONTINUOUS
62
7
10
  0.13180000
20
 -0.14350000
30
  0.00000000
11
  0.13190000
21
 -0.14380000
31
  0.00000000
0
LINE
8
DC
6
CONTINUOUS
62
7
10
  0.13190000
20
 -0.14380000
30
  0.00000000
11
  0.13180000
21
 -0.14410000
31
  0.00000000
0
LINE
8
DC
6
CONTINUOUS
62
7
10
  0.13180000
20
 -0.14410000
30
  0.00000000
11
  0.13150000
21
 -0.14440000
31
  0.00000000
0
LINE
8
DC
6
CONTINUOUS
62
7
10
  0.13150000
20
 -0.14440000
30
  0.00000000
11
  0.13120000
21
 -0.14470000
31
  0.00000000
0
LINE
8
DC
6
CONTINUOUS
62
7
10
  0.13120000
20
 -0.14470000
30
  0.00000000
11
  0.13090000
21
 -0.14500000
31
  0.00000000
0
SOLID
8
DC
62
200
10
  0.11960000
20
 -0.13900000
30
  0.00000000
11
  0.12970000
21
 -0.13900000
31
  0.00000000
12
  0.11960000
22
 -0.14510000
32
  0.00000000
13
  0.12970000
23
 -0.14510000
33
  0.00000000
0
LINE
8
DC
6
CONTINUOUS
62
7
10
  0.11960000
20
 -0.13900000
30
  0.00000000
11
  0.12970000
21
 -0.13900000
31
  0.00000000
0
LINE
8
DC
6
CONTINUOUS
62
7
10
  0.12970000
20
 -0.13900000
30
  0.00000000
11
  0.12970000
21
 -0.14510000
31
  0.00000000
0
LINE
8
DC
6
CONTINUOUS
62
7
10
  0.12970000
20
 -0.14510000
30
  0.00000000
11
  0.11960000
21
 -0.14510000
31
  0.00000000
0
LINE
8
DC
6
CONTINUOUS
62
7
10
  0.11960000
20
 -0.14510000
30
  0.00000000
11
  0.11960000
21
 -0.13900000
31
  0.00000000
0
LINE
8
DC
6
CONTINUOUS
62
7
10
  0.12010000
20
 -0.13980000
30
  0.00000000
11
  0.12310000
21
 -0.13980000
31
  0.00000000
0
LINE
8
DC
6
CONTINUOUS
62
7
10
  0.12110000
20
 -0.14140000
30
  0.00000000
11
  0.12410000
21
 -0.14140000
31
  0.00000000
0
LINE
8
DC
6
CONTINUOUS
62
7
10
  0.12010000
20
 -0.14310000
30
  0.00000000
11
  0.12310000
21
 -0.14310000
31
  0.00000000
0
LINE
8
DC
6
CONTINUOUS
62
7
10
  0.12620000
20
 -0.14110000
30
  0.00000000
11
  0.12620000
21
 -0.14110000
31
  0.00000000
0
LINE
8
DC
6
CONTINUOUS
62
7
10
  0.12598206
20
 -0.14105000
30
  0.00000000
11
  0.12641794
21
 -0.14105000
31
  0.00000000
0
LINE
8
DC
6
CONTINUOUS
62
7
10
  0.12590000
20
 -0.14100000
30
  0.00000000
11
  0.12650000
21
 -0.14100000
31
  0.00000000
0
LINE
8
DC
6
CONTINUOUS
62
7
10
  0.12584293
20
 -0.14095000
30
  0.00000000
11
  0.12655707
21
 -0.14095000
31
  0.00000000
0
LINE
8
DC
6
CONTINUOUS
62
7
10
  0.12580000
20
 -0.14090000
30
  0.00000000
11
  0.12660000
21
 -0.14090000
31
  0.00000000
0
LINE
8
DC
6
CONTINUOUS
62
7
10
  0.12576699
20
 -0.14085000
30
  0.00000000
11
  0.12663301
21
 -0.14085000
31
  0.00000000
0
LINE
8
DC
6
CONTINUOUS
62
7
10
  0.12574174
20
 -0.14080000
30
  0.00000000
11
  0.12665826
21
 -0.14080000
31
  0.00000000
0
LINE
8
DC
6
CONTINUOUS
62
7
10
  0.12572303
20
 -0.14075000
30
  0.00000000
11
  0.12667697
21
 -0.14075000
31
  0.00000000
0
LINE
8
DC
6
CONTINUOUS
62
7
10
  0.12571010
20
 -0.14070000
30
  0.00000000
11
  0.12668990
21
 -0.14070000
31
  0.00000000
0
LINE
8
DC
6
CONTINUOUS
62
7
10
  0.12570251
20
 -0.14065000
30
  0.00000000
11
  0.12669749
21
 -0.14065000
31
  0.00000000
0
LINE
8
DC
6
CONTINUOUS
62
7
10
  0.12570000
20
 -0.14060000
30
  0.00000000
11
  0.12670000
21
 -0.14060000
31
  0.00000000
0
LINE
8
DC
6
CONTINUOUS
62
7
10
  0.12570251
20
 -0.14055000
30
  0.00000000
11
  0.12669749
21
 -0.14055000
31
  0.00000000
0
LINE
8
DC
6
CONTINUOUS
62
7
10
  0.12571010
20
 -0.14050000
30
  0.00000000
11
  0.12668990
21
 -0.14050000
31
  0.00000000
0
LINE
8
DC
6
CONTINUOUS
62
7
10
  0.12572303
20
 -0.14045000
30
  0.00000000
11
  0.12667697
21
 -0.14045000
31
  0.00000000
0
LINE
8
DC
6
CONTINUOUS
62
7
10
  0.12574174
20
 -0.14040000
30
  0.00000000
11
  0.12665826
21
 -0.14040000
31
  0.00000000
0
LINE
8
DC
6
CONTINUOUS
62
7
10
  0.12576699
20
 -0.14035000
30
  0.00000000
11
  0.12663301
21
 -0.14035000
31
  0.00000000
0
LINE
8
DC
6
CONTINUOUS
62
7
10
  0.12580000
20
 -0.14030000
30
  0.00000000
11
  0.12660000
21
 -0.14030000
31
  0.00000000
0
LINE
8
DC
6
CONTINUOUS
62
7
10
  0.12584293
20
 -0.14025000
30
  0.00000000
11
  0.12655707
21
 -0.14025000
31
  0.00000000
0
LINE
8
DC
6
CONTINUOUS
62
7
10
  0.12590000
20
 -0.14020000
30
  0.00000000
11
  0.12650000
21
 -0.14020000
31
  0.00000000
0
LINE
8
DC
6
CONTINUOUS
62
7
10
  0.12598206
20
 -0.14015000
30
  0.00000000
11
  0.12641794
21
 -0.14015000
31
  0.00000000
0
CIRCLE
8
DC
6
CONTINUOUS
62
7
10
  0.12620000
20
 -0.14060000
30
  0.00000000
40
  0.00050000
0
LINE
8
DC
6
CONTINUOUS
62
7
10
  0.12780000
20
 -0.14110000
30
  0.00000000
11
  0.12780000
21
 -0.14110000
31
  0.00000000
0
LINE
8
DC
6
CONTINUOUS
62
7
10
  0.12758206
20
 -0.14105000
30
  0.00000000
11
  0.12801794
21
 -0.14105000
31
  0.00000000
0
LINE
8
DC
6
CONTINUOUS
62
7
10
  0.12750000
20
 -0.14100000
30
  0.00000000
11
  0.12810000
21
 -0.14100000
31
  0.00000000
0
LINE
8
DC
6
CONTINUOUS
62
7
10
  0.12744293
20
 -0.14095000
30
  0.00000000
11
  0.12815707
21
 -0.14095000
31
  0.00000000
0
LINE
8
DC
6
CONTINUOUS
62
7
10
  0.12740000
20
 -0.14090000
30
  0.00000000
11
  0.12820000
21
 -0.14090000
31
  0.00000000
0
LINE
8
DC
6
CONTINUOUS
62
7
10
  0.12736699
20
 -0.14085000
30
  0.00000000
11
  0.12823301
21
 -0.14085000
31
  0.00000000
0
LINE
8
DC
6
CONTINUOUS
62
7
10
  0.12734174
20
 -0.14080000
30
  0.00000000
11
  0.12825826
21
 -0.14080000
31
  0.00000000
0
LINE
8
DC
6
CONTINUOUS
62
7
10
  0.12732303
20
 -0.14075000
30
  0.00000000
11
  0.12827697
21
 -0.14075000
31
  0.00000000
0
LINE
8
DC
6
CONTINUOUS
62
7
10
  0.12731010
20
 -0.14070000
30
  0.00000000
11
  0.12828990
21
 -0.14070000
31
  0.00000000
0
LINE
8
DC
6
CONTINUOUS
62
7
10
  0.12730251
20
 -0.14065000
30
  0.00000000
11
  0.12829749
21
 -0.14065000
31
  0.00000000
0
LINE
8
DC
6
CONTINUOUS
62
7
10
  0.12730000
20
 -0.14060000
30
  0.00000000
11
  0.12830000
21
 -0.14060000
31
  0.00000000
0
LINE
8
DC
6
CONTINUOUS
62
7
10
  0.12730251
20
 -0.14055000
30
  0.00000000
11
  0.12829749
21
 -0.14055000
31
  0.00000000
0
LINE
8
DC
6
CONTINUOUS
62
7
10
  0.12731010
20
 -0.14050000
30
  0.00000000
11
  0.12828990
21
 -0.14050000
31
  0.00000000
0
LINE
8
DC
6
CONTINUOUS
62
7
10
  0.12732303
20
 -0.14045000
30
  0.00000000
11
  0.12827697
21
 -0.14045000
31
  0.00000000
0
LINE
8
DC
6
CONTINUOUS
62
7
10
  0.12734174
20
 -0.14040000
30
  0.00000000
11
  0.12825826
21
 -0.14040000
31
  0.00000000
0
LINE
8
DC
6
CONTINUOUS
62
7
10
  0.12736699
20
 -0.14035000
30
  0.00000000
11
  0.12823301
21
 -0.14035000
31
  0.00000000
0
LINE
8
DC
6
CONTINUOUS
62
7
10
  0.12740000
20
 -0.14030000
30
  0.00000000
11
  0.12820000
21
 -0.14030000
31
  0.00000000
0
LINE
8
DC
6
CONTINUOUS
62
7
10
  0.12744293
20
 -0.14025000
30
  0.00000000
11
  0.12815707
21
 -0.14025000
31
  0.00000000
0
LINE
8
DC
6
CONTINUOUS
62
7
10
  0.12750000
20
 -0.14020000
30
  0.00000000
11
  0.12810000
21
 -0.14020000
31
  0.00000000
0
LINE
8
DC
6
CONTINUOUS
62
7
10
  0.12758206
20
 -0.14015000
30
  0.00000000
11
  0.12801794
21
 -0.14015000
31
  0.00000000
0
CIRCLE
8
DC
6
CONTINUOUS
62
7
10
  0.12780000
20
 -0.14060000
30
  0.00000000
40
  0.00050000
0
LINE
8
DC
6
CONTINUOUS
62
7
10
  0.12560000
20
 -0.14110000
30
  0.00000000
11
  0.12860000
21
 -0.14110000
31
  0.00000000
0
LINE
8
DC
6
CONTINUOUS
62
7
10
  0.12480000
20
 -0.14300000
30
  0.00000000
11
  0.12480000
21
 -0.14300000
31
  0.00000000
0
LINE
8
DC
6
CONTINUOUS
62
7
10
  0.12466771
20
 -0.14295000
30
  0.00000000
11
  0.12493229
21
 -0.14295000
31
  0.00000000
0
LINE
8
DC
6
CONTINUOUS
62
7
10
  0.12462679
20
 -0.14290000
30
  0.00000000
11
  0.12497321
21
 -0.14290000
31
  0.00000000
0
LINE
8
DC
6
CONTINUOUS
62
7
10
  0.12460635
20
 -0.14285000
30
  0.00000000
11
  0.12499365
21
 -0.14285000
31
  0.00000000
0
LINE
8
DC
6
CONTINUOUS
62
7
10
  0.12460000
20
 -0.14280000
30
  0.00000000
11
  0.12500000
21
 -0.14280000
31
  0.00000000
0
LINE
8
DC
6
CONTINUOUS
62
7
10
  0.12460635
20
 -0.14275000
30
  0.00000000
11
  0.12499365
21
 -0.14275000
31
  0.00000000
0
LINE
8
DC
6
CONTINUOUS
62
7
10
  0.12462679
20
 -0.14270000
30
  0.00000000
11
  0.12497321
21
 -0.14270000
31
  0.00000000
0
LINE
8
DC
6
CONTINUOUS
62
7
10
  0.12466771
20
 -0.14265000
30
  0.00000000
11
  0.12493229
21
 -0.14265000
31
  0.00000000
0
CIRCLE
8
DC
6
CONTINUOUS
62
7
10
  0.12480000
20
 -0.14280000
30
  0.00000000
40
  0.00020000
0
LINE
8
DC
6
CONTINUOUS
62
7
10
  0.12580000
20
 -0.14300000
30
  0.00000000
11
  0.12580000
21
 -0.14300000
31
  0.00000000
0
LINE
8
DC
6
CONTINUOUS
62
7
10
  0.12566771
20
 -0.14295000
30
  0.00000000
11
  0.12593229
21
 -0.14295000
31
  0.00000000
0
LINE
8
DC
6
CONTINUOUS
62
7
10
  0.12562679
20
 -0.14290000
30
  0.00000000
11
  0.12597321
21
 -0.14290000
31
  0.00000000
0
LINE
8
DC
6
CONTINUOUS
62
7
10
  0.12560635
20
 -0.14285000
30
  0.00000000
11
  0.12599365
21
 -0.14285000
31
  0.00000000
0
LINE
8
DC
6
CONTINUOUS
62
7
10
  0.12560000
20
 -0.14280000
30
  0.00000000
11
  0.12600000
21
 -0.14280000
31
  0.00000000
0
LINE
8
DC
6
CONTINUOUS
62
7
10
  0.12560635
20
 -0.14275000
30
  0.00000000
11
  0.12599365
21
 -0.14275000
31
  0.00000000
0
LINE
8
DC
6
CONTINUOUS
62
7
10
  0.12562679
20
 -0.14270000
30
  0.00000000
11
  0.12597321
21
 -0.14270000
31
  0.00000000
0
LINE
8
DC
6
CONTINUOUS
62
7
10
  0.12566771
20
 -0.14265000
30
  0.00000000
11
  0.12593229
21
 -0.14265000
31
  0.00000000
0
CIRCLE
8
DC
6
CONTINUOUS
62
7
10
  0.12580000
20
 -0.14280000
30
  0.00000000
40
  0.00020000
0
LINE
8
DC
6
CONTINUOUS
62
7
10
  0.12680000
20
 -0.14300000
30
  0.00000000
11
  0.12680000
21
 -0.14300000
31
  0.00000000
0
LINE
8
DC
6
CONTINUOUS
62
7
10
  0.12666771
20
 -0.14295000
30
  0.00000000
11
  0.12693229
21
 -0.14295000
31
  0.00000000
0
LINE
8
DC
6
CONTINUOUS
62
7
10
  0.12662679
20
 -0.14290000
30
  0.00000000
11
  0.12697321
21
 -0.14290000
31
  0.00000000
0
LINE
8
DC
6
CONTINUOUS
62
7
10
  0.12660635
20
 -0.14285000
30
  0.00000000
11
  0.12699365
21
 -0.14285000
31
  0.00000000
0
LINE
8
DC
6
CONTINUOUS
62
7
10
  0.12660000
20
 -0.14280000
30
  0.00000000
11
  0.12700000
21
 -0.14280000
31
  0.00000000
0
LINE
8
DC
6
CONTINUOUS
62
7
10
  0.12660635
20
 -0.14275000
30
  0.00000000
11
  0.12699365
21
 -0.14275000
31
  0.00000000
0
LINE
8
DC
6
CONTINUOUS
62
7
10
  0.12662679
20
 -0.14270000
30
  0.00000000
11
  0.12697321
21
 -0.14270000
31
  0.00000000
0
LINE
8
DC
6
CONTINUOUS
62
7
10
  0.12666771
20
 -0.14265000
30
  0.00000000
11
  0.12693229
21
 -0.14265000
31
  0.00000000
0
CIRCLE
8
DC
6
CONTINUOUS
62
7
10
  0.12680000
20
 -0.14280000
30
  0.00000000
40
  0.00020000
0
LINE
8
DC
6
CONTINUOUS
62
7
10
  0.12780000
20
 -0.14300000
30
  0.00000000
11
  0.12780000
21
 -0.14300000
31
  0.00000000
0
LINE
8
DC
6
CONTINUOUS
62
7
10
  0.12766771
20
 -0.14295000
30
  0.00000000
11
  0.12793229
21
 -0.14295000
31
  0.00000000
0
LINE
8
DC
6
CONTINUOUS
62
7
10
  0.12762679
20
 -0.14290000
30
  0.00000000
11
  0.12797321
21
 -0.14290000
31
  0.00000000
0
LINE
8
DC
6
CONTINUOUS
62
7
10
  0.12760635
20
 -0.14285000
30
  0.00000000
11
  0.12799365
21
 -0.14285000
31
  0.00000000
0
LINE
8
DC
6
CONTINUOUS
62
7
10
  0.12760000
20
 -0.14280000
30
  0.00000000
11
  0.12800000
21
 -0.14280000
31
  0.00000000
0
LINE
8
DC
6
CONTINUOUS
62
7
10
  0.12760635
20
 -0.14275000
30
  0.00000000
11
  0.12799365
21
 -0.14275000
31
  0.00000000
0
LINE
8
DC
6
CONTINUOUS
62
7
10
  0.12762679
20
 -0.14270000
30
  0.00000000
11
  0.12797321
21
 -0.14270000
31
  0.00000000
0
LINE
8
DC
6
CONTINUOUS
62
7
10
  0.12766771
20
 -0.14265000
30
  0.00000000
11
  0.12793229
21
 -0.14265000
31
  0.00000000
0
CIRCLE
8
DC
6
CONTINUOUS
62
7
10
  0.12780000
20
 -0.14280000
30
  0.00000000
40
  0.00020000
0
LINE
8
DC
6
CONTINUOUS
62
7
10
  0.12880000
20
 -0.14300000
30
  0.00000000
11
  0.12880000
21
 -0.14300000
31
  0.00000000
0
LINE
8
DC
6
CONTINUOUS
62
7
10
  0.12866771
20
 -0.14295000
30
  0.00000000
11
  0.12893229
21
 -0.14295000
31
  0.00000000
0
LINE
8
DC
6
CONTINUOUS
62
7
10
  0.12862679
20
 -0.14290000
30
  0.00000000
11
  0.12897321
21
 -0.14290000
31
  0.00000000
0
LINE
8
DC
6
CONTINUOUS
62
7
10
  0.12860635
20
 -0.14285000
30
  0.00000000
11
  0.12899365
21
 -0.14285000
31
  0.00000000
0
LINE
8
DC
6
CONTINUOUS
62
7
10
  0.12860000
20
 -0.14280000
30
  0.00000000
11
  0.12900000
21
 -0.14280000
31
  0.00000000
0
LINE
8
DC
6
CONTINUOUS
62
7
10
  0.12860635
20
 -0.14275000
30
  0.00000000
11
  0.12899365
21
 -0.14275000
31
  0.00000000
0
LINE
8
DC
6
CONTINUOUS
62
7
10
  0.12862679
20
 -0.14270000
30
  0.00000000
11
  0.12897321
21
 -0.14270000
31
  0.00000000
0
LINE
8
DC
6
CONTINUOUS
62
7
10
  0.12866771
20
 -0.14265000
30
  0.00000000
11
  0.12893229
21
 -0.14265000
31
  0.00000000
0
CIRCLE
8
DC
6
CONTINUOUS
62
7
10
  0.12880000
20
 -0.14280000
30
  0.00000000
40
  0.00020000
0
LINE
8
DC
6
CONTINUOUS
62
7
10
  0.12530000
20
 -0.14410000
30
  0.00000000
11
  0.12530000
21
 -0.14410000
31
  0.00000000
0
LINE
8
DC
6
CONTINUOUS
62
7
10
  0.12516771
20
 -0.14405000
30
  0.00000000
11
  0.12543229
21
 -0.14405000
31
  0.00000000
0
LINE
8
DC
6
CONTINUOUS
62
7
10
  0.12512679
20
 -0.14400000
30
  0.00000000
11
  0.12547321
21
 -0.14400000
31
  0.00000000
0
LINE
8
DC
6
CONTINUOUS
62
7
10
  0.12510635
20
 -0.14395000
30
  0.00000000
11
  0.12549365
21
 -0.14395000
31
  0.00000000
0
LINE
8
DC
6
CONTINUOUS
62
7
10
  0.12510000
20
 -0.14390000
30
  0.00000000
11
  0.12550000
21
 -0.14390000
31
  0.00000000
0
LINE
8
DC
6
CONTINUOUS
62
7
10
  0.12510635
20
 -0.14385000
30
  0.00000000
11
  0.12549365
21
 -0.14385000
31
  0.00000000
0
LINE
8
DC
6
CONTINUOUS
62
7
10
  0.12512679
20
 -0.14380000
30
  0.00000000
11
  0.12547321
21
 -0.14380000
31
  0.00000000
0
LINE
8
DC
6
CONTINUOUS
62
7
10
  0.12516771
20
 -0.14375000
30
  0.00000000
11
  0.12543229
21
 -0.14375000
31
  0.00000000
0
CIRCLE
8
DC
6
CONTINUOUS
62
7
10
  0.12530000
20
 -0.14390000
30
  0.00000000
40
  0.00020000
0
LINE
8
DC
6
CONTINUOUS
62
7
10
  0.12630000
20
 -0.14410000
30
  0.00000000
11
  0.12630000
21
 -0.14410000
31
  0.00000000
0
LINE
8
DC
6
CONTINUOUS
62
7
10
  0.12616771
20
 -0.14405000
30
  0.00000000
11
  0.12643229
21
 -0.14405000
31
  0.00000000
0
LINE
8
DC
6
CONTINUOUS
62
7
10
  0.12612679
20
 -0.14400000
30
  0.00000000
11
  0.12647321
21
 -0.14400000
31
  0.00000000
0
LINE
8
DC
6
CONTINUOUS
62
7
10
  0.12610635
20
 -0.14395000
30
  0.00000000
11
  0.12649365
21
 -0.14395000
31
  0.00000000
0
LINE
8
DC
6
CONTINUOUS
62
7
10
  0.12610000
20
 -0.14390000
30
  0.00000000
11
  0.12650000
21
 -0.14390000
31
  0.00000000
0
LINE
8
DC
6
CONTINUOUS
62
7
10
  0.12610635
20
 -0.14385000
30
  0.00000000
11
  0.12649365
21
 -0.14385000
31
  0.00000000
0
LINE
8
DC
6
CONTINUOUS
62
7
10
  0.12612679
20
 -0.14380000
30
  0.00000000
11
  0.12647321
21
 -0.14380000
31
  0.00000000
0
LINE
8
DC
6
CONTINUOUS
62
7
10
  0.12616771
20
 -0.14375000
30
  0.00000000
11
  0.12643229
21
 -0.14375000
31
  0.00000000
0
CIRCLE
8
DC
6
CONTINUOUS
62
7
10
  0.12630000
20
 -0.14390000
30
  0.00000000
40
  0.00020000
0
LINE
8
DC
6
CONTINUOUS
62
7
10
  0.12730000
20
 -0.14410000
30
  0.00000000
11
  0.12730000
21
 -0.14410000
31
  0.00000000
0
LINE
8
DC
6
CONTINUOUS
62
7
10
  0.12716771
20
 -0.14405000
30
  0.00000000
11
  0.12743229
21
 -0.14405000
31
  0.00000000
0
LINE
8
DC
6
CONTINUOUS
62
7
10
  0.12712679
20
 -0.14400000
30
  0.00000000
11
  0.12747321
21
 -0.14400000
31
  0.00000000
0
LINE
8
DC
6
CONTINUOUS
62
7
10
  0.12710635
20
 -0.14395000
30
  0.00000000
11
  0.12749365
21
 -0.14395000
31
  0.00000000
0
LINE
8
DC
6
CONTINUOUS
62
7
10
  0.12710000
20
 -0.14390000
30
  0.00000000
11
  0.12750000
21
 -0.14390000
31
  0.00000000
0
LINE
8
DC
6
CONTINUOUS
62
7
10
  0.12710635
20
 -0.14385000
30
  0.00000000
11
  0.12749365
21
 -0.14385000
31
  0.00000000
0
LINE
8
DC
6
CONTINUOUS
62
7
10
  0.12712679
20
 -0.14380000
30
  0.00000000
11
  0.12747321
21
 -0.14380000
31
  0.00000000
0
LINE
8
DC
6
CONTINUOUS
62
7
10
  0.12716771
20
 -0.14375000
30
  0.00000000
11
  0.12743229
21
 -0.14375000
31
  0.00000000
0
CIRCLE
8
DC
6
CONTINUOUS
62
7
10
  0.12730000
20
 -0.14390000
30
  0.00000000
40
  0.00020000
0
LINE
8
DC
6
CONTINUOUS
62
7
10
  0.12830000
20
 -0.14410000
30
  0.00000000
11
  0.12830000
21
 -0.14410000
31
  0.00000000
0
LINE
8
DC
6
CONTINUOUS
62
7
10
  0.12816771
20
 -0.14405000
30
  0.00000000
11
  0.12843229
21
 -0.14405000
31
  0.00000000
0
LINE
8
DC
6
CONTINUOUS
62
7
10
  0.12812679
20
 -0.14400000
30
  0.00000000
11
  0.12847321
21
 -0.14400000
31
  0.00000000
0
LINE
8
DC
6
CONTINUOUS
62
7
10
  0.12810635
20
 -0.14395000
30
  0.00000000
11
  0.12849365
21
 -0.14395000
31
  0.00000000
0
LINE
8
DC
6
CONTINUOUS
62
7
10
  0.12810000
20
 -0.14390000
30
  0.00000000
11
  0.12850000
21
 -0.14390000
31
  0.00000000
0
LINE
8
DC
6
CONTINUOUS
62
7
10
  0.12810635
20
 -0.14385000
30
  0.00000000
11
  0.12849365
21
 -0.14385000
31
  0.00000000
0
LINE
8
DC
6
CONTINUOUS
62
7
10
  0.12812679
20
 -0.14380000
30
  0.00000000
11
  0.12847321
21
 -0.14380000
31
  0.00000000
0
LINE
8
DC
6
CONTINUOUS
62
7
10
  0.12816771
20
 -0.14375000
30
  0.00000000
11
  0.12843229
21
 -0.14375000
31
  0.00000000
0
CIRCLE
8
DC
6
CONTINUOUS
62
7
10
  0.12830000
20
 -0.14390000
30
  0.00000000
40
  0.00020000
0
LINE
8
DC
6
CONTINUOUS
62
7
10
  0.12930000
20
 -0.14410000
30
  0.00000000
11
  0.12930000
21
 -0.14410000
31
  0.00000000
0
LINE
8
DC
6
CONTINUOUS
62
7
10
  0.12916771
20
 -0.14405000
30
  0.00000000
11
  0.12943229
21
 -0.14405000
31
  0.00000000
0
LINE
8
DC
6
CONTINUOUS
62
7
10
  0.12912679
20
 -0.14400000
30
  0.00000000
11
  0.12947321
21
 -0.14400000
31
  0.00000000
0
LINE
8
DC
6
CONTINUOUS
62
7
10
  0.12910635
20
 -0.14395000
30
  0.00000000
11
  0.12949365
21
 -0.14395000
31
  0.00000000
0
LINE
8
DC
6
CONTINUOUS
62
7
10
  0.12910000
20
 -0.14390000
30
  0.00000000
11
  0.12950000
21
 -0.14390000
31
  0.00000000
0
LINE
8
DC
6
CONTINUOUS
62
7
10
  0.12910635
20
 -0.14385000
30
  0.00000000
11
  0.12949365
21
 -0.14385000
31
  0.00000000
0
LINE
8
DC
6
CONTINUOUS
62
7
10
  0.12912679
20
 -0.14380000
30
  0.00000000
11
  0.12947321
21
 -0.14380000
31
  0.00000000
0
LINE
8
DC
6
CONTINUOUS
62
7
10
  0.12916771
20
 -0.14375000
30
  0.00000000
11
  0.12943229
21
 -0.14375000
31
  0.00000000
0
CIRCLE
8
DC
6
CONTINUOUS
62
7
10
  0.12930000
20
 -0.14390000
30
  0.00000000
40
  0.00020000
0
LINE
8
DC
6
CONTINUOUS
62
7
10
  0.11960000
20
 -0.13900000
30
  0.00000000
11
  0.13460000
21
 -0.13900000
31
  0.00000000
0
LINE
8
DC
6
CONTINUOUS
62
7
10
  0.13460000
20
 -0.13900000
30
  0.00000000
11
  0.13560000
21
 -0.14370000
31
  0.00000000
0
LINE
8
DC
6
CONTINUOUS
62
7
10
  0.13560000
20
 -0.14370000
30
  0.00000000
11
  0.17660000
21
 -0.14370000
31
  0.00000000
0
LINE
8
DC
6
CONTINUOUS
62
7
10
  0.11960000
20
 -0.14500000
30
  0.00000000
11
  0.11860000
21
 -0.14520000
31
  0.00000000
0
LINE
8
DC
6
CONTINUOUS
62
7
10
  0.10920000
20
 -0.14520000
30
  0.00000000
11
  0.11860000
21
 -0.14520000
31
  0.00000000
0
TEXT
8
DC
62
7
10
  0.11860000
20
 -0.14470000
30
  0.00000000
40
  0.00250000
41
  0.60000000
1
    5.00m
50
  0.00000000
72
2
73
0
11
  0.11860000
21
 -0.14470000
31
  0.00000000
0
TEXT
8
DC
62
7
10
  0.13660000
20
 -0.14730000
30
  0.00000000
40
  0.00216667
41
  0.60000000
1
Auelehm, Ton, stark schluffig, 
50
  0.00000000
72
0
73
1
11
  0.13660000
21
 -0.14730000
31
  0.00000000
0
TEXT
8
DC
62
7
10
  0.13660000
20
 -0.15040000
30
  0.00000000
40
  0.00216667
41
  0.60000000
1
schwach feinsandig
50
  0.00000000
72
0
73
1
11
  0.13660000
21
 -0.15040000
31
  0.00000000
0
TEXT
8
DC
62
7
10
  0.13660000
20
 -0.15350000
30
  0.00000000
40
  0.00216667
41
  0.60000000
1
weich
50
  0.00000000
72
0
73
1
11
  0.13660000
21
 -0.15350000
31
  0.00000000
0
TEXT
8
DC
62
7
10
  0.13660000
20
 -0.15660000
30
  0.00000000
40
  0.00216667
41
  0.60000000
1
feucht
50
  0.00000000
72
0
73
1
11
  0.13660000
21
 -0.15660000
31
  0.00000000
0
TEXT
8
DC
62
7
10
  0.13660000
20
 -0.15970000
30
  0.00000000
40
  0.00216667
41
  0.60000000
1
schwarzbraun
50
  0.00000000
72
0
73
1
11
  0.13660000
21
 -0.15970000
31
  0.00000000
0
CIRCLE
8
DC
6
CONTINUOUS
62
7
10
  0.18290000
20
 -0.15170000
30
  0.00000000
40
  0.00530000
0
TEXT
8
DC
62
7
10
  0.18090000
20
 -0.15370000
30
  0.00000000
40
  0.00250000
41
  0.60000000
1
TL
50
  0.00000000
72
0
73
1
11
  0.18090000
21
 -0.15370000
31
  0.00000000
0
LINE
8
DC
6
CONTINUOUS
62
7
10
  0.17040000
20
 -0.14860000
30
  0.00000000
11
  0.17660000
21
 -0.14860000
31
  0.00000000
0
LINE
8
DC
6
CONTINUOUS
62
7
10
  0.17660000
20
 -0.14860000
30
  0.00000000
11
  0.17660000
21
 -0.15480000
31
  0.00000000
0
LINE
8
DC
6
CONTINUOUS
62
7
10
  0.17660000
20
 -0.15480000
30
  0.00000000
11
  0.17040000
21
 -0.15480000
31
  0.00000000
0
LINE
8
DC
6
CONTINUOUS
62
7
10
  0.17040000
20
 -0.15480000
30
  0.00000000
11
  0.17040000
21
 -0.14860000
31
  0.00000000
0
TEXT
8
DC
62
7
10
  0.17350000
20
 -0.15370000
30
  0.00000000
40
  0.00250000
41
  0.60000000
1
4
50
  0.00000000
72
1
73
1
11
  0.17350000
21
 -0.15370000
31
  0.00000000
0
LINE
8
DC
6
CONTINUOUS
62
7
10
  0.11960000
20
 -0.14500000
30
  0.00000000
11
  0.13460000
21
 -0.14500000
31
  0.00000000
0
LINE
8
DC
6
CONTINUOUS
62
7
10
  0.13460000
20
 -0.14500000
30
  0.00000000
11
  0.13560000
21
 -0.15970000
31
  0.00000000
0
LINE
8
DC
6
CONTINUOUS
62
7
10
  0.13560000
20
 -0.15970000
30
  0.00000000
11
  0.17660000
21
 -0.15970000
31
  0.00000000
0
TEXT
8
DC
62
7
10
  0.11960000
20
 -0.14870000
30
  0.00000000
40
  0.00250000
41
  0.60000000
1
Endtiefe
50
  0.00000000
72
2
73
1
11
  0.11960000
21
 -0.14870000
31
  0.00000000
0
TEXT
8
DC
62
7
10
  0.12460000
20
 -0.16070000
30
  0.00000000
40
  0.00250000
41
  0.60000000
1
.
50
  0.00000000
72
1
73
1
11
  0.12460000
21
 -0.16070000
31
  0.00000000
0
TEXT
8
DC
62
7
10
  0.12460000
20
 -0.16470000
30
  0.00000000
40
  0.00250000
41
  0.60000000
1
Station 0+021.500
50
  0.00000000
72
1
73
1
11
  0.12460000
21
 -0.16470000
31
  0.00000000
0
LINE
8
DC
6
CONTINUOUS
62
7
10
  0.11960000
20
 -0.04500000
30
  0.00000000
11
  0.12960000
21
 -0.04500000
31
  0.00000000
0
LINE
8
DC
6
CONTINUOUS
62
7
10
  0.12960000
20
 -0.04500000
30
  0.00000000
11
  0.12960000
21
 -0.14500000
31
  0.00000000
0
LINE
8
DC
6
CONTINUOUS
62
7
10
  0.12960000
20
 -0.14500000
30
  0.00000000
11
  0.11960000
21
 -0.14500000
31
  0.00000000
0
LINE
8
DC
6
CONTINUOUS
62
7
10
  0.11960000
20
 -0.14500000
30
  0.00000000
11
  0.11960000
21
 -0.04500000
31
  0.00000000
0
TEXT
8
DC
62
7
10
  0.12460000
20
 -0.03600000
30
  0.00000000
40
  0.00500000
41
  0.60000000
1
BS 1/22
50
  0.00000000
72
1
73
0
11
  0.12460000
21
 -0.03600000
31
  0.00000000
0
TEXT
8
DC
62
7
10
  0.12460000
20
 -0.04100000
30
  0.00000000
40
  0.00250000
41
  0.60000000
1
Ansatzpunkt:GOK
50
  0.00000000
72
1
73
0
11
  0.12460000
21
 -0.04100000
31
  0.00000000
0
LINE
8
DC
6
CONTINUOUS
62
7
10
  0.03560000
20
 -0.04500000
30
  0.00000000
11
  0.05200000
21
 -0.04500000
31
  0.00000000
0
LINE
8
DC
6
CONTINUOUS
62
7
10
  0.03700000
20
 -0.04500000
30
  0.00000000
11
  0.03560000
21
 -0.04210000
31
  0.00000000
0
LINE
8
DC
6
CONTINUOUS
62
7
10
  0.03560000
20
 -0.04210000
30
  0.00000000
11
  0.03850000
21
 -0.04210000
31
  0.00000000
0
LINE
8
DC
6
CONTINUOUS
62
7
10
  0.03850000
20
 -0.04210000
30
  0.00000000
11
  0.03700000
21
 -0.04500000
31
  0.00000000
0
TEXT
8
DC
62
7
10
  0.03980000
20
 -0.04300000
30
  0.00000000
40
  0.00250000
41
  0.60000000
1
   0.00m
50
  0.00000000
72
0
73
0
11
  0.03980000
21
 -0.04300000
31
  0.00000000
0
LINE
8
DC
6
CONTINUOUS
62
7
10
  0.03560000
20
 -0.06500000
30
  0.00000000
11
  0.05200000
21
 -0.06500000
31
  0.00000000
0
LINE
8
DC
6
CONTINUOUS
62
7
10
  0.03700000
20
 -0.06500000
30
  0.00000000
11
  0.03560000
21
 -0.06210000
31
  0.00000000
0
LINE
8
DC
6
CONTINUOUS
62
7
10
  0.03560000
20
 -0.06210000
30
  0.00000000
11
  0.03850000
21
 -0.06210000
31
  0.00000000
0
LINE
8
DC
6
CONTINUOUS
62
7
10
  0.03850000
20
 -0.06210000
30
  0.00000000
11
  0.03700000
21
 -0.06500000
31
  0.00000000
0
TEXT
8
DC
62
7
10
  0.03980000
20
 -0.06300000
30
  0.00000000
40
  0.00250000
41
  0.60000000
1
  -1.00m
50
  0.00000000
72
0
73
0
11
  0.03980000
21
 -0.06300000
31
  0.00000000
0
LINE
8
DC
6
CONTINUOUS
62
7
10
  0.03560000
20
 -0.08500000
30
  0.00000000
11
  0.05200000
21
 -0.08500000
31
  0.00000000
0
LINE
8
DC
6
CONTINUOUS
62
7
10
  0.03700000
20
 -0.08500000
30
  0.00000000
11
  0.03560000
21
 -0.08210000
31
  0.00000000
0
LINE
8
DC
6
CONTINUOUS
62
7
10
  0.03560000
20
 -0.08210000
30
  0.00000000
11
  0.03850000
21
 -0.08210000
31
  0.00000000
0
LINE
8
DC
6
CONTINUOUS
62
7
10
  0.03850000
20
 -0.08210000
30
  0.00000000
11
  0.03700000
21
 -0.08500000
31
  0.00000000
0
TEXT
8
DC
62
7
10
  0.03980000
20
 -0.08300000
30
  0.00000000
40
  0.00250000
41
  0.60000000
1
  -2.00m
50
  0.00000000
72
0
73
0
11
  0.03980000
21
 -0.08300000
31
  0.00000000
0
LINE
8
DC
6
CONTINUOUS
62
7
10
  0.03560000
20
 -0.10500000
30
  0.00000000
11
  0.05200000
21
 -0.10500000
31
  0.00000000
0
LINE
8
DC
6
CONTINUOUS
62
7
10
  0.03700000
20
 -0.10500000
30
  0.00000000
11
  0.03560000
21
 -0.10210000
31
  0.00000000
0
LINE
8
DC
6
CONTINUOUS
62
7
10
  0.03560000
20
 -0.10210000
30
  0.00000000
11
  0.03850000
21
 -0.10210000
31
  0.00000000
0
LINE
8
DC
6
CONTINUOUS
62
7
10
  0.03850000
20
 -0.10210000
30
  0.00000000
11
  0.03700000
21
 -0.10500000
31
  0.00000000
0
TEXT
8
DC
62
7
10
  0.03980000
20
 -0.10300000
30
  0.00000000
40
  0.00250000
41
  0.60000000
1
  -3.00m
50
  0.00000000
72
0
73
0
11
  0.03980000
21
 -0.10300000
31
  0.00000000
0
LINE
8
DC
6
CONTINUOUS
62
7
10
  0.03560000
20
 -0.12500000
30
  0.00000000
11
  0.05200000
21
 -0.12500000
31
  0.00000000
0
LINE
8
DC
6
CONTINUOUS
62
7
10
  0.03700000
20
 -0.12500000
30
  0.00000000
11
  0.03560000
21
 -0.12210000
31
  0.00000000
0
LINE
8
DC
6
CONTINUOUS
62
7
10
  0.03560000
20
 -0.12210000
30
  0.00000000
11
  0.03850000
21
 -0.12210000
31
  0.00000000
0
LINE
8
DC
6
CONTINUOUS
62
7
10
  0.03850000
20
 -0.12210000
30
  0.00000000
11
  0.03700000
21
 -0.12500000
31
  0.00000000
0
TEXT
8
DC
62
7
10
  0.03980000
20
 -0.12300000
30
  0.00000000
40
  0.00250000
41
  0.60000000
1
  -4.00m
50
  0.00000000
72
0
73
0
11
  0.03980000
21
 -0.12300000
31
  0.00000000
0
LINE
8
DC
6
CONTINUOUS
62
7
10
  0.03560000
20
 -0.14500000
30
  0.00000000
11
  0.05200000
21
 -0.14500000
31
  0.00000000
0
LINE
8
DC
6
CONTINUOUS
62
7
10
  0.03700000
20
 -0.14500000
30
  0.00000000
11
  0.03560000
21
 -0.14210000
31
  0.00000000
0
LINE
8
DC
6
CONTINUOUS
62
7
10
  0.03560000
20
 -0.14210000
30
  0.00000000
11
  0.03850000
21
 -0.14210000
31
  0.00000000
0
LINE
8
DC
6
CONTINUOUS
62
7
10
  0.03850000
20
 -0.14210000
30
  0.00000000
11
  0.03700000
21
 -0.14500000
31
  0.00000000
0
TEXT
8
DC
62
7
10
  0.03980000
20
 -0.14300000
30
  0.00000000
40
  0.00250000
41
  0.60000000
1
  -5.00m
50
  0.00000000
72
0
73
0
11
  0.03980000
21
 -0.14300000
31
  0.00000000
0
LINE
8
DC
6
CONTINUOUS
62
7
10
  0.03560000
20
 -0.16500000
30
  0.00000000
11
  0.05200000
21
 -0.16500000
31
  0.00000000
0
LINE
8
DC
6
CONTINUOUS
62
7
10
  0.03700000
20
 -0.16500000
30
  0.00000000
11
  0.03560000
21
 -0.16210000
31
  0.00000000
0
LINE
8
DC
6
CONTINUOUS
62
7
10
  0.03560000
20
 -0.16210000
30
  0.00000000
11
  0.03850000
21
 -0.16210000
31
  0.00000000
0
LINE
8
DC
6
CONTINUOUS
62
7
10
  0.03850000
20
 -0.16210000
30
  0.00000000
11
  0.03700000
21
 -0.16500000
31
  0.00000000
0
TEXT
8
DC
62
7
10
  0.03980000
20
 -0.16300000
30
  0.00000000
40
  0.00250000
41
  0.60000000
1
  -6.00m
50
  0.00000000
72
0
73
0
11
  0.03980000
21
 -0.16300000
31
  0.00000000
0
ENDSEC
0
EOF
