0
SECTION
2
HEADER
9
$EXTMIN
10
  0.0000
20
  0.0000
30
  0.0000
9
$EXTMAX
10
  0.2090
20
  0.2960
30
  0.0000
9
$LIMMIN
10
  0.0000
20
  0.0000
9
$LIMMAX
10
  0.2090
20
  0.2960
0
ENDSEC
0
SECTION
2
TABLES
0
TABLE
2
LTYPE
70
5
0
LTYPE
2
CONTINUOUS
70
64
3
CONTINUOUS
72
65
73
2
40
0
0
LTYPE
2
GESTRICHELT
70
64
3
GESTRICHELT
72
65
73
2
40
0.00125
49
0.000875
49
-0.000375
0
LTYPE
2
PUNKT
70
64
3
PUNKT
72
65
73
2
40
0.000625
49
0.000125
49
-0.0005
0
LTYPE
2
STRICHPUNKT
70
64
3
STRICHPUNKT
72
65
73
4
40
0.00175
49
0.000875
49
-0.000375
49
0.000125
49
-0.000375
0
LTYPE
2
GETRENNT
70
64
3
GETRENNT
72
65
73
6
40
0.00225
49
0.000875
49
-0.000375
49
0.000125
49
-0.000375
49
0.000125
49
-0.000375
0
ENDTAB
0
TABLE
2
LAYER
70
2
0
LAYER
2
Rahmen
70
0
62
7
6
CONTINUOUS
0
LAYER
2
DC
70
0
62
7
6
CONTINUOUS
0
ENDTAB
0
ENDSEC
0
SECTION
2
ENTITIES
0
LINE
8
Rahmen
6
CONTINUOUS
62
7
10
  0.00020000
20
 -0.00020000
30
  0.00000000
11
  0.20880000
21
 -0.00020000
31
  0.00000000
0
LINE
8
Rahmen
6
CONTINUOUS
62
7
10
  0.20880000
20
 -0.00020000
30
  0.00000000
11
  0.20880000
21
 -0.29580000
31
  0.00000000
0
LINE
8
Rahmen
6
CONTINUOUS
62
7
10
  0.20880000
20
 -0.29580000
30
  0.00000000
11
  0.00020000
21
 -0.29580000
31
  0.00000000
0
LINE
8
Rahmen
6
CONTINUOUS
62
7
10
  0.00020000
20
 -0.29580000
30
  0.00000000
11
  0.00020000
21
 -0.00020000
31
  0.00000000
0
LINE
8
Rahmen
6
CONTINUOUS
62
7
10
  0.00020000
20
 -0.14790000
30
  0.00000000
11
  0.01020000
21
 -0.14790000
31
  0.00000000
0
SOLID
8
Rahmen
62
255
10
  0.20430000
20
 -0.29530000
30
  0.00000000
11
  0.20830000
21
 -0.29530000
31
  0.00000000
12
  0.20430000
22
 -0.29130000
32
  0.00000000
13
  0.20830000
23
 -0.29130000
33
  0.00000000
0
LINE
8
Rahmen
6
CONTINUOUS
62
7
10
  0.20430000
20
 -0.29530000
30
  0.00000000
11
  0.20830000
21
 -0.29530000
31
  0.00000000
0
LINE
8
Rahmen
6
CONTINUOUS
62
7
10
  0.20830000
20
 -0.29530000
30
  0.00000000
11
  0.20830000
21
 -0.29130000
31
  0.00000000
0
LINE
8
Rahmen
6
CONTINUOUS
62
7
10
  0.20830000
20
 -0.29130000
30
  0.00000000
11
  0.20430000
21
 -0.29130000
31
  0.00000000
0
LINE
8
Rahmen
6
CONTINUOUS
62
7
10
  0.20430000
20
 -0.29130000
30
  0.00000000
11
  0.20430000
21
 -0.29530000
31
  0.00000000
0
TEXT
8
Rahmen
62
7
10
  0.20630000
20
 -0.29450000
30
  0.00000000
40
  0.00191667
41
  0.60000000
1
DC
50
  0.00000000
72
1
73
1
11
  0.20630000
21
 -0.29450000
31
  0.00000000
0
LINE
8
Rahmen
6
CONTINUOUS
62
7
10
  0.02000000
20
 -0.00500000
30
  0.00000000
11
  0.20400000
21
 -0.00500000
31
  0.00000000
0
LINE
8
Rahmen
6
CONTINUOUS
62
7
10
  0.20400000
20
 -0.00500000
30
  0.00000000
11
  0.20400000
21
 -0.29100000
31
  0.00000000
0
LINE
8
Rahmen
6
CONTINUOUS
62
7
10
  0.20400000
20
 -0.29100000
30
  0.00000000
11
  0.02000000
21
 -0.29100000
31
  0.00000000
0
LINE
8
Rahmen
6
CONTINUOUS
62
7
10
  0.02000000
20
 -0.29100000
30
  0.00000000
11
  0.02000000
21
 -0.00500000
31
  0.00000000
0
LINE
8
Rahmen
6
CONTINUOUS
62
7
10
  0.02000000
20
 -0.00500000
30
  0.00000000
11
  0.09000000
21
 -0.00500000
31
  0.00000000
0
LINE
8
Rahmen
6
CONTINUOUS
62
7
10
  0.02000000
20
 -0.01000000
30
  0.00000000
11
  0.09000000
21
 -0.01000000
31
  0.00000000
0
LINE
8
Rahmen
6
CONTINUOUS
62
7
10
  0.02000000
20
 -0.00500000
30
  0.00000000
11
  0.02000000
21
 -0.01000000
31
  0.00000000
0
LINE
8
Rahmen
6
CONTINUOUS
62
7
10
  0.09000000
20
 -0.00500000
30
  0.00000000
11
  0.09000000
21
 -0.01000000
31
  0.00000000
0
TEXT
8
Rahmen
62
7
10
  0.02100000
20
 -0.00970000
30
  0.00000000
40
  0.00300000
41
  0.60000000
1
Ingenieurbüro TBV GmbH
50
  0.00000000
72
0
73
1
11
  0.02100000
21
 -0.00970000
31
  0.00000000
0
LINE
8
Rahmen
6
CONTINUOUS
62
7
10
  0.09000000
20
 -0.00500000
30
  0.00000000
11
  0.20400000
21
 -0.00500000
31
  0.00000000
0
LINE
8
Rahmen
6
CONTINUOUS
62
7
10
  0.09000000
20
 -0.01000000
30
  0.00000000
11
  0.20400000
21
 -0.01000000
31
  0.00000000
0
LINE
8
Rahmen
6
CONTINUOUS
62
7
10
  0.09000000
20
 -0.00500000
30
  0.00000000
11
  0.09000000
21
 -0.01000000
31
  0.00000000
0
LINE
8
Rahmen
6
CONTINUOUS
62
7
10
  0.20400000
20
 -0.00500000
30
  0.00000000
11
  0.20400000
21
 -0.01000000
31
  0.00000000
0
TEXT
8
Rahmen
62
7
10
  0.09100000
20
 -0.00970000
30
  0.00000000
40
  0.00300000
41
  0.60000000
1
Projekt     :
50
  0.00000000
72
0
73
1
11
  0.09100000
21
 -0.00970000
31
  0.00000000
0
TEXT
8
Rahmen
62
7
10
  0.11100000
20
 -0.00970000
30
  0.00000000
40
  0.00300000
41
  0.60000000
1
Neuverlegung VBL SW-Kanal Söhesten-Stößwitz
50
  0.00000000
72
0
73
1
11
  0.11100000
21
 -0.00970000
31
  0.00000000
0
LINE
8
Rahmen
6
CONTINUOUS
62
7
10
  0.02000000
20
 -0.01000000
30
  0.00000000
11
  0.09000000
21
 -0.01000000
31
  0.00000000
0
LINE
8
Rahmen
6
CONTINUOUS
62
7
10
  0.02000000
20
 -0.01500000
30
  0.00000000
11
  0.09000000
21
 -0.01500000
31
  0.00000000
0
LINE
8
Rahmen
6
CONTINUOUS
62
7
10
  0.02000000
20
 -0.01000000
30
  0.00000000
11
  0.02000000
21
 -0.01500000
31
  0.00000000
0
LINE
8
Rahmen
6
CONTINUOUS
62
7
10
  0.09000000
20
 -0.01000000
30
  0.00000000
11
  0.09000000
21
 -0.01500000
31
  0.00000000
0
TEXT
8
Rahmen
62
7
10
  0.02100000
20
 -0.01470000
30
  0.00000000
40
  0.00300000
41
  0.60000000
1
Baenschstraße 6
50
  0.00000000
72
0
73
1
11
  0.02100000
21
 -0.01470000
31
  0.00000000
0
LINE
8
Rahmen
6
CONTINUOUS
62
7
10
  0.09000000
20
 -0.01000000
30
  0.00000000
11
  0.20400000
21
 -0.01000000
31
  0.00000000
0
LINE
8
Rahmen
6
CONTINUOUS
62
7
10
  0.09000000
20
 -0.01500000
30
  0.00000000
11
  0.20400000
21
 -0.01500000
31
  0.00000000
0
LINE
8
Rahmen
6
CONTINUOUS
62
7
10
  0.09000000
20
 -0.01000000
30
  0.00000000
11
  0.09000000
21
 -0.01500000
31
  0.00000000
0
LINE
8
Rahmen
6
CONTINUOUS
62
7
10
  0.20400000
20
 -0.01000000
30
  0.00000000
11
  0.20400000
21
 -0.01500000
31
  0.00000000
0
TEXT
8
Rahmen
62
7
10
  0.09100000
20
 -0.01470000
30
  0.00000000
40
  0.00300000
41
  0.60000000
1
Projektnr.:
50
  0.00000000
72
0
73
1
11
  0.09100000
21
 -0.01470000
31
  0.00000000
0
TEXT
8
Rahmen
62
7
10
  0.11100000
20
 -0.01470000
30
  0.00000000
40
  0.00300000
41
  0.60000000
1
22/12068.3
50
  0.00000000
72
0
73
1
11
  0.11100000
21
 -0.01470000
31
  0.00000000
0
LINE
8
Rahmen
6
CONTINUOUS
62
7
10
  0.02000000
20
 -0.01500000
30
  0.00000000
11
  0.09000000
21
 -0.01500000
31
  0.00000000
0
LINE
8
Rahmen
6
CONTINUOUS
62
7
10
  0.02000000
20
 -0.02000000
30
  0.00000000
11
  0.09000000
21
 -0.02000000
31
  0.00000000
0
LINE
8
Rahmen
6
CONTINUOUS
62
7
10
  0.02000000
20
 -0.01500000
30
  0.00000000
11
  0.02000000
21
 -0.02000000
31
  0.00000000
0
LINE
8
Rahmen
6
CONTINUOUS
62
7
10
  0.09000000
20
 -0.01500000
30
  0.00000000
11
  0.09000000
21
 -0.02000000
31
  0.00000000
0
TEXT
8
Rahmen
62
7
10
  0.02100000
20
 -0.01970000
30
  0.00000000
40
  0.00300000
41
  0.60000000
1
06712 Zeitz
50
  0.00000000
72
0
73
1
11
  0.02100000
21
 -0.01970000
31
  0.00000000
0
LINE
8
Rahmen
6
CONTINUOUS
62
7
10
  0.09000000
20
 -0.01500000
30
  0.00000000
11
  0.20400000
21
 -0.01500000
31
  0.00000000
0
LINE
8
Rahmen
6
CONTINUOUS
62
7
10
  0.09000000
20
 -0.02000000
30
  0.00000000
11
  0.20400000
21
 -0.02000000
31
  0.00000000
0
LINE
8
Rahmen
6
CONTINUOUS
62
7
10
  0.09000000
20
 -0.01500000
30
  0.00000000
11
  0.09000000
21
 -0.02000000
31
  0.00000000
0
LINE
8
Rahmen
6
CONTINUOUS
62
7
10
  0.20400000
20
 -0.01500000
30
  0.00000000
11
  0.20400000
21
 -0.02000000
31
  0.00000000
0
TEXT
8
Rahmen
62
7
10
  0.09100000
20
 -0.01970000
30
  0.00000000
40
  0.00300000
41
  0.60000000
1
Anlage     :
50
  0.00000000
72
0
73
1
11
  0.09100000
21
 -0.01970000
31
  0.00000000
0
TEXT
8
Rahmen
62
7
10
  0.11100000
20
 -0.01970000
30
  0.00000000
40
  0.00300000
41
  0.60000000
1
Bereich 3: VS Söhesten-Göthewitz
50
  0.00000000
72
0
73
1
11
  0.11100000
21
 -0.01970000
31
  0.00000000
0
LINE
8
Rahmen
6
CONTINUOUS
62
7
10
  0.02000000
20
 -0.02000000
30
  0.00000000
11
  0.09000000
21
 -0.02000000
31
  0.00000000
0
LINE
8
Rahmen
6
CONTINUOUS
62
7
10
  0.02000000
20
 -0.02500000
30
  0.00000000
11
  0.09000000
21
 -0.02500000
31
  0.00000000
0
LINE
8
Rahmen
6
CONTINUOUS
62
7
10
  0.02000000
20
 -0.02000000
30
  0.00000000
11
  0.02000000
21
 -0.02500000
31
  0.00000000
0
LINE
8
Rahmen
6
CONTINUOUS
62
7
10
  0.09000000
20
 -0.02000000
30
  0.00000000
11
  0.09000000
21
 -0.02500000
31
  0.00000000
0
TEXT
8
Rahmen
62
7
10
  0.02100000
20
 -0.02470000
30
  0.00000000
40
  0.00300000
41
  0.60000000
1
Tel: 03441 215737
50
  0.00000000
72
0
73
1
11
  0.02100000
21
 -0.02470000
31
  0.00000000
0
LINE
8
Rahmen
6
CONTINUOUS
62
7
10
  0.09000000
20
 -0.02000000
30
  0.00000000
11
  0.20400000
21
 -0.02000000
31
  0.00000000
0
LINE
8
Rahmen
6
CONTINUOUS
62
7
10
  0.09000000
20
 -0.02500000
30
  0.00000000
11
  0.20400000
21
 -0.02500000
31
  0.00000000
0
LINE
8
Rahmen
6
CONTINUOUS
62
7
10
  0.09000000
20
 -0.02000000
30
  0.00000000
11
  0.09000000
21
 -0.02500000
31
  0.00000000
0
LINE
8
Rahmen
6
CONTINUOUS
62
7
10
  0.20400000
20
 -0.02000000
30
  0.00000000
11
  0.20400000
21
 -0.02500000
31
  0.00000000
0
TEXT
8
Rahmen
62
7
10
  0.09100000
20
 -0.02470000
30
  0.00000000
40
  0.00300000
41
  0.60000000
1
Maßstab  :
50
  0.00000000
72
0
73
1
11
  0.09100000
21
 -0.02470000
31
  0.00000000
0
TEXT
8
Rahmen
62
7
10
  0.11100000
20
 -0.02470000
30
  0.00000000
40
  0.00300000
41
  0.60000000
1
1: 50
50
  0.00000000
72
0
73
1
11
  0.11100000
21
 -0.02470000
31
  0.00000000
0
TEXT
8
Rahmen
62
7
10
  0.04500000
20
 -0.28070000
30
  0.00000000
40
  0.00300000
41
  0.60000000
1
Höhe Einfahrt Wirtschaftsweg Göthewitz = 0+000.000
50
  0.00000000
72
0
73
1
11
  0.04500000
21
 -0.28070000
31
  0.00000000
0
TEXT
8
Rahmen
62
7
10
  0.02100000
20
 -0.27570000
30
  0.00000000
40
  0.00300000
41
  0.60000000
1
Bemerkung
50
  0.00000000
72
0
73
1
11
  0.02100000
21
 -0.27570000
31
  0.00000000
0
TEXT
8
Rahmen
62
7
10
  0.04500000
20
 -0.27570000
30
  0.00000000
40
  0.00300000
41
  0.60000000
1
Stationierung: Asphaltschnitt an der Umgehungsstraße Hohenmölsen-Starsiedel
50
  0.00000000
72
0
73
1
11
  0.04500000
21
 -0.27570000
31
  0.00000000
0
LINE
8
Rahmen
6
CONTINUOUS
62
7
10
  0.02000000
20
 -0.00500000
30
  0.00000000
11
  0.09000000
21
 -0.00500000
31
  0.00000000
0
LINE
8
Rahmen
6
CONTINUOUS
62
7
10
  0.02000000
20
 -0.01000000
30
  0.00000000
11
  0.09000000
21
 -0.01000000
31
  0.00000000
0
LINE
8
Rahmen
6
CONTINUOUS
62
7
10
  0.02000000
20
 -0.00500000
30
  0.00000000
11
  0.02000000
21
 -0.01000000
31
  0.00000000
0
LINE
8
Rahmen
6
CONTINUOUS
62
7
10
  0.09000000
20
 -0.00500000
30
  0.00000000
11
  0.09000000
21
 -0.01000000
31
  0.00000000
0
LINE
8
Rahmen
6
CONTINUOUS
62
7
10
  0.09000000
20
 -0.00500000
30
  0.00000000
11
  0.20400000
21
 -0.00500000
31
  0.00000000
0
LINE
8
Rahmen
6
CONTINUOUS
62
7
10
  0.09000000
20
 -0.01000000
30
  0.00000000
11
  0.20400000
21
 -0.01000000
31
  0.00000000
0
LINE
8
Rahmen
6
CONTINUOUS
62
7
10
  0.09000000
20
 -0.00500000
30
  0.00000000
11
  0.09000000
21
 -0.01000000
31
  0.00000000
0
LINE
8
Rahmen
6
CONTINUOUS
62
7
10
  0.20400000
20
 -0.00500000
30
  0.00000000
11
  0.20400000
21
 -0.01000000
31
  0.00000000
0
LINE
8
Rahmen
6
CONTINUOUS
62
7
10
  0.02000000
20
 -0.01000000
30
  0.00000000
11
  0.09000000
21
 -0.01000000
31
  0.00000000
0
LINE
8
Rahmen
6
CONTINUOUS
62
7
10
  0.02000000
20
 -0.01500000
30
  0.00000000
11
  0.09000000
21
 -0.01500000
31
  0.00000000
0
LINE
8
Rahmen
6
CONTINUOUS
62
7
10
  0.02000000
20
 -0.01000000
30
  0.00000000
11
  0.02000000
21
 -0.01500000
31
  0.00000000
0
LINE
8
Rahmen
6
CONTINUOUS
62
7
10
  0.09000000
20
 -0.01000000
30
  0.00000000
11
  0.09000000
21
 -0.01500000
31
  0.00000000
0
LINE
8
Rahmen
6
CONTINUOUS
62
7
10
  0.09000000
20
 -0.01000000
30
  0.00000000
11
  0.20400000
21
 -0.01000000
31
  0.00000000
0
LINE
8
Rahmen
6
CONTINUOUS
62
7
10
  0.09000000
20
 -0.01500000
30
  0.00000000
11
  0.20400000
21
 -0.01500000
31
  0.00000000
0
LINE
8
Rahmen
6
CONTINUOUS
62
7
10
  0.09000000
20
 -0.01000000
30
  0.00000000
11
  0.09000000
21
 -0.01500000
31
  0.00000000
0
LINE
8
Rahmen
6
CONTINUOUS
62
7
10
  0.20400000
20
 -0.01000000
30
  0.00000000
11
  0.20400000
21
 -0.01500000
31
  0.00000000
0
LINE
8
Rahmen
6
CONTINUOUS
62
7
10
  0.02000000
20
 -0.01500000
30
  0.00000000
11
  0.09000000
21
 -0.01500000
31
  0.00000000
0
LINE
8
Rahmen
6
CONTINUOUS
62
7
10
  0.02000000
20
 -0.02000000
30
  0.00000000
11
  0.09000000
21
 -0.02000000
31
  0.00000000
0
LINE
8
Rahmen
6
CONTINUOUS
62
7
10
  0.02000000
20
 -0.01500000
30
  0.00000000
11
  0.02000000
21
 -0.02000000
31
  0.00000000
0
LINE
8
Rahmen
6
CONTINUOUS
62
7
10
  0.09000000
20
 -0.01500000
30
  0.00000000
11
  0.09000000
21
 -0.02000000
31
  0.00000000
0
LINE
8
Rahmen
6
CONTINUOUS
62
7
10
  0.09000000
20
 -0.01500000
30
  0.00000000
11
  0.20400000
21
 -0.01500000
31
  0.00000000
0
LINE
8
Rahmen
6
CONTINUOUS
62
7
10
  0.09000000
20
 -0.02000000
30
  0.00000000
11
  0.20400000
21
 -0.02000000
31
  0.00000000
0
LINE
8
Rahmen
6
CONTINUOUS
62
7
10
  0.09000000
20
 -0.01500000
30
  0.00000000
11
  0.09000000
21
 -0.02000000
31
  0.00000000
0
LINE
8
Rahmen
6
CONTINUOUS
62
7
10
  0.20400000
20
 -0.01500000
30
  0.00000000
11
  0.20400000
21
 -0.02000000
31
  0.00000000
0
LINE
8
Rahmen
6
CONTINUOUS
62
7
10
  0.02000000
20
 -0.02000000
30
  0.00000000
11
  0.09000000
21
 -0.02000000
31
  0.00000000
0
LINE
8
Rahmen
6
CONTINUOUS
62
7
10
  0.02000000
20
 -0.02500000
30
  0.00000000
11
  0.09000000
21
 -0.02500000
31
  0.00000000
0
LINE
8
Rahmen
6
CONTINUOUS
62
7
10
  0.02000000
20
 -0.02000000
30
  0.00000000
11
  0.02000000
21
 -0.02500000
31
  0.00000000
0
LINE
8
Rahmen
6
CONTINUOUS
62
7
10
  0.09000000
20
 -0.02000000
30
  0.00000000
11
  0.09000000
21
 -0.02500000
31
  0.00000000
0
LINE
8
Rahmen
6
CONTINUOUS
62
7
10
  0.09000000
20
 -0.02000000
30
  0.00000000
11
  0.20400000
21
 -0.02000000
31
  0.00000000
0
LINE
8
Rahmen
6
CONTINUOUS
62
7
10
  0.09000000
20
 -0.02500000
30
  0.00000000
11
  0.20400000
21
 -0.02500000
31
  0.00000000
0
LINE
8
Rahmen
6
CONTINUOUS
62
7
10
  0.09000000
20
 -0.02000000
30
  0.00000000
11
  0.09000000
21
 -0.02500000
31
  0.00000000
0
LINE
8
Rahmen
6
CONTINUOUS
62
7
10
  0.20400000
20
 -0.02000000
30
  0.00000000
11
  0.20400000
21
 -0.02500000
31
  0.00000000
0
LINE
8
Rahmen
6
CONTINUOUS
62
7
10
  0.02000000
20
 -0.27100000
30
  0.00000000
11
  0.20400000
21
 -0.27100000
31
  0.00000000
0
LINE
8
Rahmen
6
CONTINUOUS
62
7
10
  0.02000000
20
 -0.00500000
30
  0.00000000
11
  0.20400000
21
 -0.00500000
31
  0.00000000
0
LINE
8
Rahmen
6
CONTINUOUS
62
7
10
  0.20400000
20
 -0.00500000
30
  0.00000000
11
  0.20400000
21
 -0.29100000
31
  0.00000000
0
LINE
8
Rahmen
6
CONTINUOUS
62
7
10
  0.20400000
20
 -0.29100000
30
  0.00000000
11
  0.02000000
21
 -0.29100000
31
  0.00000000
0
LINE
8
Rahmen
6
CONTINUOUS
62
7
10
  0.02000000
20
 -0.29100000
30
  0.00000000
11
  0.02000000
21
 -0.00500000
31
  0.00000000
0
TEXT
8
DC
62
7
10
  0.09820000
20
 -0.14690000
30
  0.00000000
40
  0.00250000
41
  0.60000000
1
Kein Wasser
50
  0.00000000
72
2
73
0
11
  0.09820000
21
 -0.14690000
31
  0.00000000
0
TEXT
8
DC
62
7
10
  0.09820000
20
 -0.15100000
30
  0.00000000
40
  0.00250000
41
  0.60000000
1
(23.11.2022)
50
  0.00000000
72
2
73
0
11
  0.09820000
21
 -0.15100000
31
  0.00000000
0
LINE
8
DC
6
CONTINUOUS
62
7
10
  0.11960000
20
 -0.04500000
30
  0.00000000
11
  0.11860000
21
 -0.04500000
31
  0.00000000
0
LINE
8
DC
6
CONTINUOUS
62
7
10
  0.10920000
20
 -0.04500000
30
  0.00000000
11
  0.11860000
21
 -0.04500000
31
  0.00000000
0
TEXT
8
DC
62
7
10
  0.11860000
20
 -0.04450000
30
  0.00000000
40
  0.00250000
41
  0.60000000
1
    0.00m
50
  0.00000000
72
2
73
0
11
  0.11860000
21
 -0.04450000
31
  0.00000000
0
LINE
8
DC
6
CONTINUOUS
62
7
10
  0.13070000
20
 -0.04630000
30
  0.00000000
11
  0.13070000
21
 -0.04630000
31
  0.00000000
0
LINE
8
DC
6
CONTINUOUS
62
7
10
  0.13053417
20
 -0.04625000
30
  0.00000000
11
  0.13086583
21
 -0.04625000
31
  0.00000000
0
LINE
8
DC
6
CONTINUOUS
62
7
10
  0.13047639
20
 -0.04620000
30
  0.00000000
11
  0.13092361
21
 -0.04620000
31
  0.00000000
0
LINE
8
DC
6
CONTINUOUS
62
7
10
  0.13044019
20
 -0.04615000
30
  0.00000000
11
  0.13095981
21
 -0.04615000
31
  0.00000000
0
LINE
8
DC
6
CONTINUOUS
62
7
10
  0.13041716
20
 -0.04610000
30
  0.00000000
11
  0.13098284
21
 -0.04610000
31
  0.00000000
0
LINE
8
DC
6
CONTINUOUS
62
7
10
  0.13040420
20
 -0.04605000
30
  0.00000000
11
  0.13099580
21
 -0.04605000
31
  0.00000000
0
LINE
8
DC
6
CONTINUOUS
62
7
10
  0.13040000
20
 -0.04600000
30
  0.00000000
11
  0.13100000
21
 -0.04600000
31
  0.00000000
0
LINE
8
DC
6
CONTINUOUS
62
7
10
  0.13040420
20
 -0.04595000
30
  0.00000000
11
  0.13099580
21
 -0.04595000
31
  0.00000000
0
LINE
8
DC
6
CONTINUOUS
62
7
10
  0.13041716
20
 -0.04590000
30
  0.00000000
11
  0.13098284
21
 -0.04590000
31
  0.00000000
0
LINE
8
DC
6
CONTINUOUS
62
7
10
  0.13044019
20
 -0.04585000
30
  0.00000000
11
  0.13095981
21
 -0.04585000
31
  0.00000000
0
LINE
8
DC
6
CONTINUOUS
62
7
10
  0.13047639
20
 -0.04580000
30
  0.00000000
11
  0.13092361
21
 -0.04580000
31
  0.00000000
0
LINE
8
DC
6
CONTINUOUS
62
7
10
  0.13053417
20
 -0.04575000
30
  0.00000000
11
  0.13086583
21
 -0.04575000
31
  0.00000000
0
CIRCLE
8
DC
6
CONTINUOUS
62
7
10
  0.13070000
20
 -0.04600000
30
  0.00000000
40
  0.00030000
0
LINE
8
DC
6
CONTINUOUS
62
7
10
  0.13070000
20
 -0.04830000
30
  0.00000000
11
  0.13070000
21
 -0.04830000
31
  0.00000000
0
LINE
8
DC
6
CONTINUOUS
62
7
10
  0.13053417
20
 -0.04825000
30
  0.00000000
11
  0.13086583
21
 -0.04825000
31
  0.00000000
0
LINE
8
DC
6
CONTINUOUS
62
7
10
  0.13047639
20
 -0.04820000
30
  0.00000000
11
  0.13092361
21
 -0.04820000
31
  0.00000000
0
LINE
8
DC
6
CONTINUOUS
62
7
10
  0.13044019
20
 -0.04815000
30
  0.00000000
11
  0.13095981
21
 -0.04815000
31
  0.00000000
0
LINE
8
DC
6
CONTINUOUS
62
7
10
  0.13041716
20
 -0.04810000
30
  0.00000000
11
  0.13098284
21
 -0.04810000
31
  0.00000000
0
LINE
8
DC
6
CONTINUOUS
62
7
10
  0.13040420
20
 -0.04805000
30
  0.00000000
11
  0.13099580
21
 -0.04805000
31
  0.00000000
0
LINE
8
DC
6
CONTINUOUS
62
7
10
  0.13040000
20
 -0.04800000
30
  0.00000000
11
  0.13100000
21
 -0.04800000
31
  0.00000000
0
LINE
8
DC
6
CONTINUOUS
62
7
10
  0.13040420
20
 -0.04795000
30
  0.00000000
11
  0.13099580
21
 -0.04795000
31
  0.00000000
0
LINE
8
DC
6
CONTINUOUS
62
7
10
  0.13041716
20
 -0.04790000
30
  0.00000000
11
  0.13098284
21
 -0.04790000
31
  0.00000000
0
LINE
8
DC
6
CONTINUOUS
62
7
10
  0.13044019
20
 -0.04785000
30
  0.00000000
11
  0.13095981
21
 -0.04785000
31
  0.00000000
0
LINE
8
DC
6
CONTINUOUS
62
7
10
  0.13047639
20
 -0.04780000
30
  0.00000000
11
  0.13092361
21
 -0.04780000
31
  0.00000000
0
LINE
8
DC
6
CONTINUOUS
62
7
10
  0.13053417
20
 -0.04775000
30
  0.00000000
11
  0.13086583
21
 -0.04775000
31
  0.00000000
0
CIRCLE
8
DC
6
CONTINUOUS
62
7
10
  0.13070000
20
 -0.04800000
30
  0.00000000
40
  0.00030000
0
LINE
8
DC
6
CONTINUOUS
62
7
10
  0.13070000
20
 -0.05030000
30
  0.00000000
11
  0.13070000
21
 -0.05030000
31
  0.00000000
0
LINE
8
DC
6
CONTINUOUS
62
7
10
  0.13053417
20
 -0.05025000
30
  0.00000000
11
  0.13086583
21
 -0.05025000
31
  0.00000000
0
LINE
8
DC
6
CONTINUOUS
62
7
10
  0.13047639
20
 -0.05020000
30
  0.00000000
11
  0.13092361
21
 -0.05020000
31
  0.00000000
0
LINE
8
DC
6
CONTINUOUS
62
7
10
  0.13044019
20
 -0.05015000
30
  0.00000000
11
  0.13095981
21
 -0.05015000
31
  0.00000000
0
LINE
8
DC
6
CONTINUOUS
62
7
10
  0.13041716
20
 -0.05010000
30
  0.00000000
11
  0.13098284
21
 -0.05010000
31
  0.00000000
0
LINE
8
DC
6
CONTINUOUS
62
7
10
  0.13040420
20
 -0.05005000
30
  0.00000000
11
  0.13099580
21
 -0.05005000
31
  0.00000000
0
LINE
8
DC
6
CONTINUOUS
62
7
10
  0.13040000
20
 -0.05000000
30
  0.00000000
11
  0.13100000
21
 -0.05000000
31
  0.00000000
0
LINE
8
DC
6
CONTINUOUS
62
7
10
  0.13040420
20
 -0.04995000
30
  0.00000000
11
  0.13099580
21
 -0.04995000
31
  0.00000000
0
LINE
8
DC
6
CONTINUOUS
62
7
10
  0.13041716
20
 -0.04990000
30
  0.00000000
11
  0.13098284
21
 -0.04990000
31
  0.00000000
0
LINE
8
DC
6
CONTINUOUS
62
7
10
  0.13044019
20
 -0.04985000
30
  0.00000000
11
  0.13095981
21
 -0.04985000
31
  0.00000000
0
LINE
8
DC
6
CONTINUOUS
62
7
10
  0.13047639
20
 -0.04980000
30
  0.00000000
11
  0.13092361
21
 -0.04980000
31
  0.00000000
0
LINE
8
DC
6
CONTINUOUS
62
7
10
  0.13053417
20
 -0.04975000
30
  0.00000000
11
  0.13086583
21
 -0.04975000
31
  0.00000000
0
CIRCLE
8
DC
6
CONTINUOUS
62
7
10
  0.13070000
20
 -0.05000000
30
  0.00000000
40
  0.00030000
0
LINE
8
DC
6
CONTINUOUS
62
7
10
  0.13070000
20
 -0.05230000
30
  0.00000000
11
  0.13070000
21
 -0.05230000
31
  0.00000000
0
LINE
8
DC
6
CONTINUOUS
62
7
10
  0.13053417
20
 -0.05225000
30
  0.00000000
11
  0.13086583
21
 -0.05225000
31
  0.00000000
0
LINE
8
DC
6
CONTINUOUS
62
7
10
  0.13047639
20
 -0.05220000
30
  0.00000000
11
  0.13092361
21
 -0.05220000
31
  0.00000000
0
LINE
8
DC
6
CONTINUOUS
62
7
10
  0.13044019
20
 -0.05215000
30
  0.00000000
11
  0.13095981
21
 -0.05215000
31
  0.00000000
0
LINE
8
DC
6
CONTINUOUS
62
7
10
  0.13041716
20
 -0.05210000
30
  0.00000000
11
  0.13098284
21
 -0.05210000
31
  0.00000000
0
LINE
8
DC
6
CONTINUOUS
62
7
10
  0.13040420
20
 -0.05205000
30
  0.00000000
11
  0.13099580
21
 -0.05205000
31
  0.00000000
0
LINE
8
DC
6
CONTINUOUS
62
7
10
  0.13040000
20
 -0.05200000
30
  0.00000000
11
  0.13100000
21
 -0.05200000
31
  0.00000000
0
LINE
8
DC
6
CONTINUOUS
62
7
10
  0.13040420
20
 -0.05195000
30
  0.00000000
11
  0.13099580
21
 -0.05195000
31
  0.00000000
0
LINE
8
DC
6
CONTINUOUS
62
7
10
  0.13041716
20
 -0.05190000
30
  0.00000000
11
  0.13098284
21
 -0.05190000
31
  0.00000000
0
LINE
8
DC
6
CONTINUOUS
62
7
10
  0.13044019
20
 -0.05185000
30
  0.00000000
11
  0.13095981
21
 -0.05185000
31
  0.00000000
0
LINE
8
DC
6
CONTINUOUS
62
7
10
  0.13047639
20
 -0.05180000
30
  0.00000000
11
  0.13092361
21
 -0.05180000
31
  0.00000000
0
LINE
8
DC
6
CONTINUOUS
62
7
10
  0.13053417
20
 -0.05175000
30
  0.00000000
11
  0.13086583
21
 -0.05175000
31
  0.00000000
0
CIRCLE
8
DC
6
CONTINUOUS
62
7
10
  0.13070000
20
 -0.05200000
30
  0.00000000
40
  0.00030000
0
LINE
8
DC
6
CONTINUOUS
62
7
10
  0.13070000
20
 -0.05430000
30
  0.00000000
11
  0.13070000
21
 -0.05430000
31
  0.00000000
0
LINE
8
DC
6
CONTINUOUS
62
7
10
  0.13053417
20
 -0.05425000
30
  0.00000000
11
  0.13086583
21
 -0.05425000
31
  0.00000000
0
LINE
8
DC
6
CONTINUOUS
62
7
10
  0.13047639
20
 -0.05420000
30
  0.00000000
11
  0.13092361
21
 -0.05420000
31
  0.00000000
0
LINE
8
DC
6
CONTINUOUS
62
7
10
  0.13044019
20
 -0.05415000
30
  0.00000000
11
  0.13095981
21
 -0.05415000
31
  0.00000000
0
LINE
8
DC
6
CONTINUOUS
62
7
10
  0.13041716
20
 -0.05410000
30
  0.00000000
11
  0.13098284
21
 -0.05410000
31
  0.00000000
0
LINE
8
DC
6
CONTINUOUS
62
7
10
  0.13040420
20
 -0.05405000
30
  0.00000000
11
  0.13099580
21
 -0.05405000
31
  0.00000000
0
LINE
8
DC
6
CONTINUOUS
62
7
10
  0.13040000
20
 -0.05400000
30
  0.00000000
11
  0.13100000
21
 -0.05400000
31
  0.00000000
0
LINE
8
DC
6
CONTINUOUS
62
7
10
  0.13040420
20
 -0.05395000
30
  0.00000000
11
  0.13099580
21
 -0.05395000
31
  0.00000000
0
LINE
8
DC
6
CONTINUOUS
62
7
10
  0.13041716
20
 -0.05390000
30
  0.00000000
11
  0.13098284
21
 -0.05390000
31
  0.00000000
0
LINE
8
DC
6
CONTINUOUS
62
7
10
  0.13044019
20
 -0.05385000
30
  0.00000000
11
  0.13095981
21
 -0.05385000
31
  0.00000000
0
LINE
8
DC
6
CONTINUOUS
62
7
10
  0.13047639
20
 -0.05380000
30
  0.00000000
11
  0.13092361
21
 -0.05380000
31
  0.00000000
0
LINE
8
DC
6
CONTINUOUS
62
7
10
  0.13053417
20
 -0.05375000
30
  0.00000000
11
  0.13086583
21
 -0.05375000
31
  0.00000000
0
CIRCLE
8
DC
6
CONTINUOUS
62
7
10
  0.13070000
20
 -0.05400000
30
  0.00000000
40
  0.00030000
0
LINE
8
DC
6
CONTINUOUS
62
7
10
  0.13170000
20
 -0.04630000
30
  0.00000000
11
  0.13170000
21
 -0.04630000
31
  0.00000000
0
LINE
8
DC
6
CONTINUOUS
62
7
10
  0.13153417
20
 -0.04625000
30
  0.00000000
11
  0.13186583
21
 -0.04625000
31
  0.00000000
0
LINE
8
DC
6
CONTINUOUS
62
7
10
  0.13147639
20
 -0.04620000
30
  0.00000000
11
  0.13192361
21
 -0.04620000
31
  0.00000000
0
LINE
8
DC
6
CONTINUOUS
62
7
10
  0.13144019
20
 -0.04615000
30
  0.00000000
11
  0.13195981
21
 -0.04615000
31
  0.00000000
0
LINE
8
DC
6
CONTINUOUS
62
7
10
  0.13141716
20
 -0.04610000
30
  0.00000000
11
  0.13198284
21
 -0.04610000
31
  0.00000000
0
LINE
8
DC
6
CONTINUOUS
62
7
10
  0.13140420
20
 -0.04605000
30
  0.00000000
11
  0.13199580
21
 -0.04605000
31
  0.00000000
0
LINE
8
DC
6
CONTINUOUS
62
7
10
  0.13140000
20
 -0.04600000
30
  0.00000000
11
  0.13200000
21
 -0.04600000
31
  0.00000000
0
LINE
8
DC
6
CONTINUOUS
62
7
10
  0.13140420
20
 -0.04595000
30
  0.00000000
11
  0.13199580
21
 -0.04595000
31
  0.00000000
0
LINE
8
DC
6
CONTINUOUS
62
7
10
  0.13141716
20
 -0.04590000
30
  0.00000000
11
  0.13198284
21
 -0.04590000
31
  0.00000000
0
LINE
8
DC
6
CONTINUOUS
62
7
10
  0.13144019
20
 -0.04585000
30
  0.00000000
11
  0.13195981
21
 -0.04585000
31
  0.00000000
0
LINE
8
DC
6
CONTINUOUS
62
7
10
  0.13147639
20
 -0.04580000
30
  0.00000000
11
  0.13192361
21
 -0.04580000
31
  0.00000000
0
LINE
8
DC
6
CONTINUOUS
62
7
10
  0.13153417
20
 -0.04575000
30
  0.00000000
11
  0.13186583
21
 -0.04575000
31
  0.00000000
0
CIRCLE
8
DC
6
CONTINUOUS
62
7
10
  0.13170000
20
 -0.04600000
30
  0.00000000
40
  0.00030000
0
LINE
8
DC
6
CONTINUOUS
62
7
10
  0.13170000
20
 -0.04830000
30
  0.00000000
11
  0.13170000
21
 -0.04830000
31
  0.00000000
0
LINE
8
DC
6
CONTINUOUS
62
7
10
  0.13153417
20
 -0.04825000
30
  0.00000000
11
  0.13186583
21
 -0.04825000
31
  0.00000000
0
LINE
8
DC
6
CONTINUOUS
62
7
10
  0.13147639
20
 -0.04820000
30
  0.00000000
11
  0.13192361
21
 -0.04820000
31
  0.00000000
0
LINE
8
DC
6
CONTINUOUS
62
7
10
  0.13144019
20
 -0.04815000
30
  0.00000000
11
  0.13195981
21
 -0.04815000
31
  0.00000000
0
LINE
8
DC
6
CONTINUOUS
62
7
10
  0.13141716
20
 -0.04810000
30
  0.00000000
11
  0.13198284
21
 -0.04810000
31
  0.00000000
0
LINE
8
DC
6
CONTINUOUS
62
7
10
  0.13140420
20
 -0.04805000
30
  0.00000000
11
  0.13199580
21
 -0.04805000
31
  0.00000000
0
LINE
8
DC
6
CONTINUOUS
62
7
10
  0.13140000
20
 -0.04800000
30
  0.00000000
11
  0.13200000
21
 -0.04800000
31
  0.00000000
0
LINE
8
DC
6
CONTINUOUS
62
7
10
  0.13140420
20
 -0.04795000
30
  0.00000000
11
  0.13199580
21
 -0.04795000
31
  0.00000000
0
LINE
8
DC
6
CONTINUOUS
62
7
10
  0.13141716
20
 -0.04790000
30
  0.00000000
11
  0.13198284
21
 -0.04790000
31
  0.00000000
0
LINE
8
DC
6
CONTINUOUS
62
7
10
  0.13144019
20
 -0.04785000
30
  0.00000000
11
  0.13195981
21
 -0.04785000
31
  0.00000000
0
LINE
8
DC
6
CONTINUOUS
62
7
10
  0.13147639
20
 -0.04780000
30
  0.00000000
11
  0.13192361
21
 -0.04780000
31
  0.00000000
0
LINE
8
DC
6
CONTINUOUS
62
7
10
  0.13153417
20
 -0.04775000
30
  0.00000000
11
  0.13186583
21
 -0.04775000
31
  0.00000000
0
CIRCLE
8
DC
6
CONTINUOUS
62
7
10
  0.13170000
20
 -0.04800000
30
  0.00000000
40
  0.00030000
0
LINE
8
DC
6
CONTINUOUS
62
7
10
  0.13170000
20
 -0.05030000
30
  0.00000000
11
  0.13170000
21
 -0.05030000
31
  0.00000000
0
LINE
8
DC
6
CONTINUOUS
62
7
10
  0.13153417
20
 -0.05025000
30
  0.00000000
11
  0.13186583
21
 -0.05025000
31
  0.00000000
0
LINE
8
DC
6
CONTINUOUS
62
7
10
  0.13147639
20
 -0.05020000
30
  0.00000000
11
  0.13192361
21
 -0.05020000
31
  0.00000000
0
LINE
8
DC
6
CONTINUOUS
62
7
10
  0.13144019
20
 -0.05015000
30
  0.00000000
11
  0.13195981
21
 -0.05015000
31
  0.00000000
0
LINE
8
DC
6
CONTINUOUS
62
7
10
  0.13141716
20
 -0.05010000
30
  0.00000000
11
  0.13198284
21
 -0.05010000
31
  0.00000000
0
LINE
8
DC
6
CONTINUOUS
62
7
10
  0.13140420
20
 -0.05005000
30
  0.00000000
11
  0.13199580
21
 -0.05005000
31
  0.00000000
0
LINE
8
DC
6
CONTINUOUS
62
7
10
  0.13140000
20
 -0.05000000
30
  0.00000000
11
  0.13200000
21
 -0.05000000
31
  0.00000000
0
LINE
8
DC
6
CONTINUOUS
62
7
10
  0.13140420
20
 -0.04995000
30
  0.00000000
11
  0.13199580
21
 -0.04995000
31
  0.00000000
0
LINE
8
DC
6
CONTINUOUS
62
7
10
  0.13141716
20
 -0.04990000
30
  0.00000000
11
  0.13198284
21
 -0.04990000
31
  0.00000000
0
LINE
8
DC
6
CONTINUOUS
62
7
10
  0.13144019
20
 -0.04985000
30
  0.00000000
11
  0.13195981
21
 -0.04985000
31
  0.00000000
0
LINE
8
DC
6
CONTINUOUS
62
7
10
  0.13147639
20
 -0.04980000
30
  0.00000000
11
  0.13192361
21
 -0.04980000
31
  0.00000000
0
LINE
8
DC
6
CONTINUOUS
62
7
10
  0.13153417
20
 -0.04975000
30
  0.00000000
11
  0.13186583
21
 -0.04975000
31
  0.00000000
0
CIRCLE
8
DC
6
CONTINUOUS
62
7
10
  0.13170000
20
 -0.05000000
30
  0.00000000
40
  0.00030000
0
LINE
8
DC
6
CONTINUOUS
62
7
10
  0.13170000
20
 -0.05230000
30
  0.00000000
11
  0.13170000
21
 -0.05230000
31
  0.00000000
0
LINE
8
DC
6
CONTINUOUS
62
7
10
  0.13153417
20
 -0.05225000
30
  0.00000000
11
  0.13186583
21
 -0.05225000
31
  0.00000000
0
LINE
8
DC
6
CONTINUOUS
62
7
10
  0.13147639
20
 -0.05220000
30
  0.00000000
11
  0.13192361
21
 -0.05220000
31
  0.00000000
0
LINE
8
DC
6
CONTINUOUS
62
7
10
  0.13144019
20
 -0.05215000
30
  0.00000000
11
  0.13195981
21
 -0.05215000
31
  0.00000000
0
LINE
8
DC
6
CONTINUOUS
62
7
10
  0.13141716
20
 -0.05210000
30
  0.00000000
11
  0.13198284
21
 -0.05210000
31
  0.00000000
0
LINE
8
DC
6
CONTINUOUS
62
7
10
  0.13140420
20
 -0.05205000
30
  0.00000000
11
  0.13199580
21
 -0.05205000
31
  0.00000000
0
LINE
8
DC
6
CONTINUOUS
62
7
10
  0.13140000
20
 -0.05200000
30
  0.00000000
11
  0.13200000
21
 -0.05200000
31
  0.00000000
0
LINE
8
DC
6
CONTINUOUS
62
7
10
  0.13140420
20
 -0.05195000
30
  0.00000000
11
  0.13199580
21
 -0.05195000
31
  0.00000000
0
LINE
8
DC
6
CONTINUOUS
62
7
10
  0.13141716
20
 -0.05190000
30
  0.00000000
11
  0.13198284
21
 -0.05190000
31
  0.00000000
0
LINE
8
DC
6
CONTINUOUS
62
7
10
  0.13144019
20
 -0.05185000
30
  0.00000000
11
  0.13195981
21
 -0.05185000
31
  0.00000000
0
LINE
8
DC
6
CONTINUOUS
62
7
10
  0.13147639
20
 -0.05180000
30
  0.00000000
11
  0.13192361
21
 -0.05180000
31
  0.00000000
0
LINE
8
DC
6
CONTINUOUS
62
7
10
  0.13153417
20
 -0.05175000
30
  0.00000000
11
  0.13186583
21
 -0.05175000
31
  0.00000000
0
CIRCLE
8
DC
6
CONTINUOUS
62
7
10
  0.13170000
20
 -0.05200000
30
  0.00000000
40
  0.00030000
0
LINE
8
DC
6
CONTINUOUS
62
7
10
  0.13170000
20
 -0.05430000
30
  0.00000000
11
  0.13170000
21
 -0.05430000
31
  0.00000000
0
LINE
8
DC
6
CONTINUOUS
62
7
10
  0.13153417
20
 -0.05425000
30
  0.00000000
11
  0.13186583
21
 -0.05425000
31
  0.00000000
0
LINE
8
DC
6
CONTINUOUS
62
7
10
  0.13147639
20
 -0.05420000
30
  0.00000000
11
  0.13192361
21
 -0.05420000
31
  0.00000000
0
LINE
8
DC
6
CONTINUOUS
62
7
10
  0.13144019
20
 -0.05415000
30
  0.00000000
11
  0.13195981
21
 -0.05415000
31
  0.00000000
0
LINE
8
DC
6
CONTINUOUS
62
7
10
  0.13141716
20
 -0.05410000
30
  0.00000000
11
  0.13198284
21
 -0.05410000
31
  0.00000000
0
LINE
8
DC
6
CONTINUOUS
62
7
10
  0.13140420
20
 -0.05405000
30
  0.00000000
11
  0.13199580
21
 -0.05405000
31
  0.00000000
0
LINE
8
DC
6
CONTINUOUS
62
7
10
  0.13140000
20
 -0.05400000
30
  0.00000000
11
  0.13200000
21
 -0.05400000
31
  0.00000000
0
LINE
8
DC
6
CONTINUOUS
62
7
10
  0.13140420
20
 -0.05395000
30
  0.00000000
11
  0.13199580
21
 -0.05395000
31
  0.00000000
0
LINE
8
DC
6
CONTINUOUS
62
7
10
  0.13141716
20
 -0.05390000
30
  0.00000000
11
  0.13198284
21
 -0.05390000
31
  0.00000000
0
LINE
8
DC
6
CONTINUOUS
62
7
10
  0.13144019
20
 -0.05385000
30
  0.00000000
11
  0.13195981
21
 -0.05385000
31
  0.00000000
0
LINE
8
DC
6
CONTINUOUS
62
7
10
  0.13147639
20
 -0.05380000
30
  0.00000000
11
  0.13192361
21
 -0.05380000
31
  0.00000000
0
LINE
8
DC
6
CONTINUOUS
62
7
10
  0.13153417
20
 -0.05375000
30
  0.00000000
11
  0.13186583
21
 -0.05375000
31
  0.00000000
0
CIRCLE
8
DC
6
CONTINUOUS
62
7
10
  0.13170000
20
 -0.05400000
30
  0.00000000
40
  0.00030000
0
SOLID
8
DC
62
255
10
  0.11960000
20
 -0.04500000
30
  0.00000000
11
  0.12470000
21
 -0.04500000
31
  0.00000000
12
  0.11960000
22
 -0.05510000
32
  0.00000000
13
  0.12470000
23
 -0.05510000
33
  0.00000000
0
LINE
8
DC
6
CONTINUOUS
62
7
10
  0.11960000
20
 -0.04500000
30
  0.00000000
11
  0.12470000
21
 -0.04500000
31
  0.00000000
0
LINE
8
DC
6
CONTINUOUS
62
7
10
  0.12470000
20
 -0.04500000
30
  0.00000000
11
  0.12470000
21
 -0.05510000
31
  0.00000000
0
LINE
8
DC
6
CONTINUOUS
62
7
10
  0.12470000
20
 -0.05510000
30
  0.00000000
11
  0.11960000
21
 -0.05510000
31
  0.00000000
0
LINE
8
DC
6
CONTINUOUS
62
7
10
  0.11960000
20
 -0.05510000
30
  0.00000000
11
  0.11960000
21
 -0.04500000
31
  0.00000000
0
SOLID
8
DC
62
2
10
  0.12470000
20
 -0.04500000
30
  0.00000000
11
  0.12970000
21
 -0.04500000
31
  0.00000000
12
  0.12470000
22
 -0.05510000
32
  0.00000000
13
  0.12970000
23
 -0.05510000
33
  0.00000000
0
LINE
8
DC
6
CONTINUOUS
62
7
10
  0.12470000
20
 -0.04500000
30
  0.00000000
11
  0.12970000
21
 -0.04500000
31
  0.00000000
0
LINE
8
DC
6
CONTINUOUS
62
7
10
  0.12970000
20
 -0.04500000
30
  0.00000000
11
  0.12970000
21
 -0.05510000
31
  0.00000000
0
LINE
8
DC
6
CONTINUOUS
62
7
10
  0.12970000
20
 -0.05510000
30
  0.00000000
11
  0.12470000
21
 -0.05510000
31
  0.00000000
0
LINE
8
DC
6
CONTINUOUS
62
7
10
  0.12470000
20
 -0.05510000
30
  0.00000000
11
  0.12470000
21
 -0.04500000
31
  0.00000000
0
TEXT
8
DC
62
7
10
  0.12210000
20
 -0.04520000
30
  0.00000000
40
  0.00325000
41
  0.60000000
1
A
50
  0.00000000
72
1
73
3
11
  0.12210000
21
 -0.04520000
31
  0.00000000
0
CIRCLE
8
DC
6
CONTINUOUS
62
7
10
  0.12310000
20
 -0.05230000
30
  0.00000000
40
  0.00050000
0
CIRCLE
8
DC
6
CONTINUOUS
62
7
10
  0.12110000
20
 -0.05090000
30
  0.00000000
40
  0.00050000
0
LINE
8
DC
6
CONTINUOUS
62
7
10
  0.12610000
20
 -0.04620000
30
  0.00000000
11
  0.12610000
21
 -0.04620000
31
  0.00000000
0
LINE
8
DC
6
CONTINUOUS
62
7
10
  0.12593417
20
 -0.04615000
30
  0.00000000
11
  0.12626583
21
 -0.04615000
31
  0.00000000
0
LINE
8
DC
6
CONTINUOUS
62
7
10
  0.12587639
20
 -0.04610000
30
  0.00000000
11
  0.12632361
21
 -0.04610000
31
  0.00000000
0
LINE
8
DC
6
CONTINUOUS
62
7
10
  0.12584019
20
 -0.04605000
30
  0.00000000
11
  0.12635981
21
 -0.04605000
31
  0.00000000
0
LINE
8
DC
6
CONTINUOUS
62
7
10
  0.12581716
20
 -0.04600000
30
  0.00000000
11
  0.12638284
21
 -0.04600000
31
  0.00000000
0
LINE
8
DC
6
CONTINUOUS
62
7
10
  0.12580420
20
 -0.04595000
30
  0.00000000
11
  0.12639580
21
 -0.04595000
31
  0.00000000
0
LINE
8
DC
6
CONTINUOUS
62
7
10
  0.12580000
20
 -0.04590000
30
  0.00000000
11
  0.12640000
21
 -0.04590000
31
  0.00000000
0
LINE
8
DC
6
CONTINUOUS
62
7
10
  0.12580420
20
 -0.04585000
30
  0.00000000
11
  0.12639580
21
 -0.04585000
31
  0.00000000
0
LINE
8
DC
6
CONTINUOUS
62
7
10
  0.12581716
20
 -0.04580000
30
  0.00000000
11
  0.12638284
21
 -0.04580000
31
  0.00000000
0
LINE
8
DC
6
CONTINUOUS
62
7
10
  0.12584019
20
 -0.04575000
30
  0.00000000
11
  0.12635981
21
 -0.04575000
31
  0.00000000
0
LINE
8
DC
6
CONTINUOUS
62
7
10
  0.12587639
20
 -0.04570000
30
  0.00000000
11
  0.12632361
21
 -0.04570000
31
  0.00000000
0
LINE
8
DC
6
CONTINUOUS
62
7
10
  0.12593417
20
 -0.04565000
30
  0.00000000
11
  0.12626583
21
 -0.04565000
31
  0.00000000
0
CIRCLE
8
DC
6
CONTINUOUS
62
7
10
  0.12610000
20
 -0.04590000
30
  0.00000000
40
  0.00030000
0
LINE
8
DC
6
CONTINUOUS
62
7
10
  0.12810000
20
 -0.04750000
30
  0.00000000
11
  0.12810000
21
 -0.04750000
31
  0.00000000
0
LINE
8
DC
6
CONTINUOUS
62
7
10
  0.12796771
20
 -0.04745000
30
  0.00000000
11
  0.12823229
21
 -0.04745000
31
  0.00000000
0
LINE
8
DC
6
CONTINUOUS
62
7
10
  0.12792679
20
 -0.04740000
30
  0.00000000
11
  0.12827321
21
 -0.04740000
31
  0.00000000
0
LINE
8
DC
6
CONTINUOUS
62
7
10
  0.12790635
20
 -0.04735000
30
  0.00000000
11
  0.12829365
21
 -0.04735000
31
  0.00000000
0
LINE
8
DC
6
CONTINUOUS
62
7
10
  0.12790000
20
 -0.04730000
30
  0.00000000
11
  0.12830000
21
 -0.04730000
31
  0.00000000
0
LINE
8
DC
6
CONTINUOUS
62
7
10
  0.12790635
20
 -0.04725000
30
  0.00000000
11
  0.12829365
21
 -0.04725000
31
  0.00000000
0
LINE
8
DC
6
CONTINUOUS
62
7
10
  0.12792679
20
 -0.04720000
30
  0.00000000
11
  0.12827321
21
 -0.04720000
31
  0.00000000
0
LINE
8
DC
6
CONTINUOUS
62
7
10
  0.12796771
20
 -0.04715000
30
  0.00000000
11
  0.12823229
21
 -0.04715000
31
  0.00000000
0
CIRCLE
8
DC
6
CONTINUOUS
62
7
10
  0.12810000
20
 -0.04730000
30
  0.00000000
40
  0.00020000
0
LINE
8
DC
6
CONTINUOUS
62
7
10
  0.12610000
20
 -0.04730000
30
  0.00000000
11
  0.12620000
21
 -0.04730000
31
  0.00000000
0
LINE
8
DC
6
CONTINUOUS
62
7
10
  0.12810000
20
 -0.04590000
30
  0.00000000
11
  0.12820000
21
 -0.04590000
31
  0.00000000
0
TEXT
8
DC
62
7
10
  0.12710000
20
 -0.04850000
30
  0.00000000
40
  0.00325000
41
  0.60000000
1
A
50
  0.00000000
72
1
73
3
11
  0.12710000
21
 -0.04850000
31
  0.00000000
0
CIRCLE
8
DC
6
CONTINUOUS
62
7
10
  0.12610000
20
 -0.05420000
30
  0.00000000
40
  0.00050000
0
LINE
8
DC
6
CONTINUOUS
62
7
10
  0.11960000
20
 -0.04500000
30
  0.00000000
11
  0.17660000
21
 -0.04500000
31
  0.00000000
0
LINE
8
DC
6
CONTINUOUS
62
7
10
  0.11960000
20
 -0.05500000
30
  0.00000000
11
  0.11860000
21
 -0.05500000
31
  0.00000000
0
LINE
8
DC
6
CONTINUOUS
62
7
10
  0.10920000
20
 -0.05500000
30
  0.00000000
11
  0.11860000
21
 -0.05500000
31
  0.00000000
0
TEXT
8
DC
62
7
10
  0.11860000
20
 -0.05450000
30
  0.00000000
40
  0.00250000
41
  0.60000000
1
    0.50m
50
  0.00000000
72
2
73
0
11
  0.11860000
21
 -0.05450000
31
  0.00000000
0
TEXT
8
DC
62
7
10
  0.13660000
20
 -0.04860000
30
  0.00000000
40
  0.00216667
41
  0.60000000
1
Auffüllung, Fein- bis Mittelkies,
50
  0.00000000
72
0
73
1
11
  0.13660000
21
 -0.04860000
31
  0.00000000
0
TEXT
8
DC
62
7
10
  0.13660000
20
 -0.05170000
30
  0.00000000
40
  0.00216667
41
  0.60000000
1
stark sandig, Ziegelsplitter
50
  0.00000000
72
0
73
1
11
  0.13660000
21
 -0.05170000
31
  0.00000000
0
TEXT
8
DC
62
7
10
  0.13660000
20
 -0.05480000
30
  0.00000000
40
  0.00216667
41
  0.60000000
1
mitteldicht
50
  0.00000000
72
0
73
1
11
  0.13660000
21
 -0.05480000
31
  0.00000000
0
TEXT
8
DC
62
7
10
  0.13660000
20
 -0.05790000
30
  0.00000000
40
  0.00216667
41
  0.60000000
1
erdfeucht
50
  0.00000000
72
0
73
1
11
  0.13660000
21
 -0.05790000
31
  0.00000000
0
TEXT
8
DC
62
7
10
  0.13660000
20
 -0.06100000
30
  0.00000000
40
  0.00216667
41
  0.60000000
1
braungrau
50
  0.00000000
72
0
73
1
11
  0.13660000
21
 -0.06100000
31
  0.00000000
0
CIRCLE
8
DC
6
CONTINUOUS
62
7
10
  0.18290000
20
 -0.05300000
30
  0.00000000
40
  0.00530000
0
TEXT
8
DC
62
7
10
  0.17930000
20
 -0.05500000
30
  0.00000000
40
  0.00250000
41
  0.60000000
1
[GW]
50
  0.00000000
72
0
73
1
11
  0.17930000
21
 -0.05500000
31
  0.00000000
0
LINE
8
DC
6
CONTINUOUS
62
7
10
  0.17040000
20
 -0.04990000
30
  0.00000000
11
  0.17660000
21
 -0.04990000
31
  0.00000000
0
LINE
8
DC
6
CONTINUOUS
62
7
10
  0.17660000
20
 -0.04990000
30
  0.00000000
11
  0.17660000
21
 -0.05610000
31
  0.00000000
0
LINE
8
DC
6
CONTINUOUS
62
7
10
  0.17660000
20
 -0.05610000
30
  0.00000000
11
  0.17040000
21
 -0.05610000
31
  0.00000000
0
LINE
8
DC
6
CONTINUOUS
62
7
10
  0.17040000
20
 -0.05610000
30
  0.00000000
11
  0.17040000
21
 -0.04990000
31
  0.00000000
0
TEXT
8
DC
62
7
10
  0.17350000
20
 -0.05500000
30
  0.00000000
40
  0.00250000
41
  0.60000000
1
3
50
  0.00000000
72
1
73
1
11
  0.17350000
21
 -0.05500000
31
  0.00000000
0
LINE
8
DC
6
CONTINUOUS
62
7
10
  0.13120000
20
 -0.05500000
30
  0.00000000
11
  0.13120000
21
 -0.05530000
31
  0.00000000
0
LINE
8
DC
6
CONTINUOUS
62
7
10
  0.13120000
20
 -0.05530000
30
  0.00000000
11
  0.13150000
21
 -0.05560000
31
  0.00000000
0
LINE
8
DC
6
CONTINUOUS
62
7
10
  0.13150000
20
 -0.05560000
30
  0.00000000
11
  0.13180000
21
 -0.05590000
31
  0.00000000
0
LINE
8
DC
6
CONTINUOUS
62
7
10
  0.13180000
20
 -0.05590000
30
  0.00000000
11
  0.13190000
21
 -0.05620000
31
  0.00000000
0
LINE
8
DC
6
CONTINUOUS
62
7
10
  0.13190000
20
 -0.05620000
30
  0.00000000
11
  0.13180000
21
 -0.05650000
31
  0.00000000
0
LINE
8
DC
6
CONTINUOUS
62
7
10
  0.13180000
20
 -0.05650000
30
  0.00000000
11
  0.13150000
21
 -0.05680000
31
  0.00000000
0
LINE
8
DC
6
CONTINUOUS
62
7
10
  0.13150000
20
 -0.05680000
30
  0.00000000
11
  0.13120000
21
 -0.05710000
31
  0.00000000
0
LINE
8
DC
6
CONTINUOUS
62
7
10
  0.13120000
20
 -0.05710000
30
  0.00000000
11
  0.13090000
21
 -0.05740000
31
  0.00000000
0
LINE
8
DC
6
CONTINUOUS
62
7
10
  0.13090000
20
 -0.05740000
30
  0.00000000
11
  0.13060000
21
 -0.05770000
31
  0.00000000
0
LINE
8
DC
6
CONTINUOUS
62
7
10
  0.13060000
20
 -0.05770000
30
  0.00000000
11
  0.13050000
21
 -0.05800000
31
  0.00000000
0
LINE
8
DC
6
CONTINUOUS
62
7
10
  0.13050000
20
 -0.05800000
30
  0.00000000
11
  0.13060000
21
 -0.05830000
31
  0.00000000
0
LINE
8
DC
6
CONTINUOUS
62
7
10
  0.13060000
20
 -0.05830000
30
  0.00000000
11
  0.13090000
21
 -0.05860000
31
  0.00000000
0
LINE
8
DC
6
CONTINUOUS
62
7
10
  0.13090000
20
 -0.05860000
30
  0.00000000
11
  0.13120000
21
 -0.05890000
31
  0.00000000
0
LINE
8
DC
6
CONTINUOUS
62
7
10
  0.13120000
20
 -0.05890000
30
  0.00000000
11
  0.13150000
21
 -0.05920000
31
  0.00000000
0
LINE
8
DC
6
CONTINUOUS
62
7
10
  0.13150000
20
 -0.05920000
30
  0.00000000
11
  0.13180000
21
 -0.05950000
31
  0.00000000
0
LINE
8
DC
6
CONTINUOUS
62
7
10
  0.13180000
20
 -0.05950000
30
  0.00000000
11
  0.13190000
21
 -0.05980000
31
  0.00000000
0
LINE
8
DC
6
CONTINUOUS
62
7
10
  0.13190000
20
 -0.05980000
30
  0.00000000
11
  0.13180000
21
 -0.06010000
31
  0.00000000
0
LINE
8
DC
6
CONTINUOUS
62
7
10
  0.13180000
20
 -0.06010000
30
  0.00000000
11
  0.13150000
21
 -0.06040000
31
  0.00000000
0
LINE
8
DC
6
CONTINUOUS
62
7
10
  0.13150000
20
 -0.06040000
30
  0.00000000
11
  0.13120000
21
 -0.06070000
31
  0.00000000
0
LINE
8
DC
6
CONTINUOUS
62
7
10
  0.13120000
20
 -0.06070000
30
  0.00000000
11
  0.13090000
21
 -0.06100000
31
  0.00000000
0
LINE
8
DC
6
CONTINUOUS
62
7
10
  0.13090000
20
 -0.06100000
30
  0.00000000
11
  0.13060000
21
 -0.06130000
31
  0.00000000
0
LINE
8
DC
6
CONTINUOUS
62
7
10
  0.13060000
20
 -0.06130000
30
  0.00000000
11
  0.13050000
21
 -0.06160000
31
  0.00000000
0
LINE
8
DC
6
CONTINUOUS
62
7
10
  0.13050000
20
 -0.06160000
30
  0.00000000
11
  0.13060000
21
 -0.06190000
31
  0.00000000
0
LINE
8
DC
6
CONTINUOUS
62
7
10
  0.13060000
20
 -0.06190000
30
  0.00000000
11
  0.13090000
21
 -0.06220000
31
  0.00000000
0
LINE
8
DC
6
CONTINUOUS
62
7
10
  0.13090000
20
 -0.06220000
30
  0.00000000
11
  0.13120000
21
 -0.06250000
31
  0.00000000
0
LINE
8
DC
6
CONTINUOUS
62
7
10
  0.13120000
20
 -0.06250000
30
  0.00000000
11
  0.13150000
21
 -0.06280000
31
  0.00000000
0
LINE
8
DC
6
CONTINUOUS
62
7
10
  0.13150000
20
 -0.06280000
30
  0.00000000
11
  0.13180000
21
 -0.06310000
31
  0.00000000
0
LINE
8
DC
6
CONTINUOUS
62
7
10
  0.13180000
20
 -0.06310000
30
  0.00000000
11
  0.13190000
21
 -0.06340000
31
  0.00000000
0
LINE
8
DC
6
CONTINUOUS
62
7
10
  0.13190000
20
 -0.06340000
30
  0.00000000
11
  0.13180000
21
 -0.06370000
31
  0.00000000
0
LINE
8
DC
6
CONTINUOUS
62
7
10
  0.13180000
20
 -0.06370000
30
  0.00000000
11
  0.13150000
21
 -0.06400000
31
  0.00000000
0
LINE
8
DC
6
CONTINUOUS
62
7
10
  0.13150000
20
 -0.06400000
30
  0.00000000
11
  0.13120000
21
 -0.06430000
31
  0.00000000
0
LINE
8
DC
6
CONTINUOUS
62
7
10
  0.13120000
20
 -0.06430000
30
  0.00000000
11
  0.13090000
21
 -0.06460000
31
  0.00000000
0
LINE
8
DC
6
CONTINUOUS
62
7
10
  0.13090000
20
 -0.06460000
30
  0.00000000
11
  0.13060000
21
 -0.06490000
31
  0.00000000
0
LINE
8
DC
6
CONTINUOUS
62
7
10
  0.13060000
20
 -0.06490000
30
  0.00000000
11
  0.13050000
21
 -0.06520000
31
  0.00000000
0
LINE
8
DC
6
CONTINUOUS
62
7
10
  0.13050000
20
 -0.06520000
30
  0.00000000
11
  0.13060000
21
 -0.06550000
31
  0.00000000
0
LINE
8
DC
6
CONTINUOUS
62
7
10
  0.13060000
20
 -0.06550000
30
  0.00000000
11
  0.13090000
21
 -0.06580000
31
  0.00000000
0
LINE
8
DC
6
CONTINUOUS
62
7
10
  0.13090000
20
 -0.06580000
30
  0.00000000
11
  0.13120000
21
 -0.06610000
31
  0.00000000
0
LINE
8
DC
6
CONTINUOUS
62
7
10
  0.13120000
20
 -0.06610000
30
  0.00000000
11
  0.13150000
21
 -0.06640000
31
  0.00000000
0
LINE
8
DC
6
CONTINUOUS
62
7
10
  0.13150000
20
 -0.06640000
30
  0.00000000
11
  0.13180000
21
 -0.06670000
31
  0.00000000
0
LINE
8
DC
6
CONTINUOUS
62
7
10
  0.13180000
20
 -0.06670000
30
  0.00000000
11
  0.13190000
21
 -0.06700000
31
  0.00000000
0
LINE
8
DC
6
CONTINUOUS
62
7
10
  0.13190000
20
 -0.06700000
30
  0.00000000
11
  0.13180000
21
 -0.06730000
31
  0.00000000
0
LINE
8
DC
6
CONTINUOUS
62
7
10
  0.13180000
20
 -0.06730000
30
  0.00000000
11
  0.13150000
21
 -0.06760000
31
  0.00000000
0
LINE
8
DC
6
CONTINUOUS
62
7
10
  0.13150000
20
 -0.06760000
30
  0.00000000
11
  0.13120000
21
 -0.06790000
31
  0.00000000
0
LINE
8
DC
6
CONTINUOUS
62
7
10
  0.13120000
20
 -0.06790000
30
  0.00000000
11
  0.13090000
21
 -0.06820000
31
  0.00000000
0
LINE
8
DC
6
CONTINUOUS
62
7
10
  0.13090000
20
 -0.06820000
30
  0.00000000
11
  0.13060000
21
 -0.06850000
31
  0.00000000
0
LINE
8
DC
6
CONTINUOUS
62
7
10
  0.13060000
20
 -0.06850000
30
  0.00000000
11
  0.13050000
21
 -0.06880000
31
  0.00000000
0
LINE
8
DC
6
CONTINUOUS
62
7
10
  0.13050000
20
 -0.06880000
30
  0.00000000
11
  0.13060000
21
 -0.06910000
31
  0.00000000
0
LINE
8
DC
6
CONTINUOUS
62
7
10
  0.13060000
20
 -0.06910000
30
  0.00000000
11
  0.13090000
21
 -0.06940000
31
  0.00000000
0
LINE
8
DC
6
CONTINUOUS
62
7
10
  0.13090000
20
 -0.06940000
30
  0.00000000
11
  0.13120000
21
 -0.06970000
31
  0.00000000
0
LINE
8
DC
6
CONTINUOUS
62
7
10
  0.13120000
20
 -0.06970000
30
  0.00000000
11
  0.13150000
21
 -0.07000000
31
  0.00000000
0
LINE
8
DC
6
CONTINUOUS
62
7
10
  0.13150000
20
 -0.07000000
30
  0.00000000
11
  0.13180000
21
 -0.07030000
31
  0.00000000
0
LINE
8
DC
6
CONTINUOUS
62
7
10
  0.13180000
20
 -0.07030000
30
  0.00000000
11
  0.13190000
21
 -0.07060000
31
  0.00000000
0
LINE
8
DC
6
CONTINUOUS
62
7
10
  0.13190000
20
 -0.07060000
30
  0.00000000
11
  0.13180000
21
 -0.07090000
31
  0.00000000
0
LINE
8
DC
6
CONTINUOUS
62
7
10
  0.13180000
20
 -0.07090000
30
  0.00000000
11
  0.13150000
21
 -0.07120000
31
  0.00000000
0
LINE
8
DC
6
CONTINUOUS
62
7
10
  0.13150000
20
 -0.07120000
30
  0.00000000
11
  0.13120000
21
 -0.07150000
31
  0.00000000
0
LINE
8
DC
6
CONTINUOUS
62
7
10
  0.13120000
20
 -0.07150000
30
  0.00000000
11
  0.13090000
21
 -0.07180000
31
  0.00000000
0
LINE
8
DC
6
CONTINUOUS
62
7
10
  0.13090000
20
 -0.07180000
30
  0.00000000
11
  0.13060000
21
 -0.07210000
31
  0.00000000
0
LINE
8
DC
6
CONTINUOUS
62
7
10
  0.13060000
20
 -0.07210000
30
  0.00000000
11
  0.13050000
21
 -0.07240000
31
  0.00000000
0
LINE
8
DC
6
CONTINUOUS
62
7
10
  0.13050000
20
 -0.07240000
30
  0.00000000
11
  0.13060000
21
 -0.07270000
31
  0.00000000
0
LINE
8
DC
6
CONTINUOUS
62
7
10
  0.13060000
20
 -0.07270000
30
  0.00000000
11
  0.13090000
21
 -0.07300000
31
  0.00000000
0
LINE
8
DC
6
CONTINUOUS
62
7
10
  0.13090000
20
 -0.07300000
30
  0.00000000
11
  0.13120000
21
 -0.07330000
31
  0.00000000
0
LINE
8
DC
6
CONTINUOUS
62
7
10
  0.13120000
20
 -0.07330000
30
  0.00000000
11
  0.13150000
21
 -0.07360000
31
  0.00000000
0
LINE
8
DC
6
CONTINUOUS
62
7
10
  0.13150000
20
 -0.07360000
30
  0.00000000
11
  0.13180000
21
 -0.07390000
31
  0.00000000
0
LINE
8
DC
6
CONTINUOUS
62
7
10
  0.13180000
20
 -0.07390000
30
  0.00000000
11
  0.13190000
21
 -0.07420000
31
  0.00000000
0
LINE
8
DC
6
CONTINUOUS
62
7
10
  0.13190000
20
 -0.07420000
30
  0.00000000
11
  0.13180000
21
 -0.07450000
31
  0.00000000
0
LINE
8
DC
6
CONTINUOUS
62
7
10
  0.13180000
20
 -0.07450000
30
  0.00000000
11
  0.13150000
21
 -0.07480000
31
  0.00000000
0
LINE
8
DC
6
CONTINUOUS
62
7
10
  0.13150000
20
 -0.07480000
30
  0.00000000
11
  0.13120000
21
 -0.07510000
31
  0.00000000
0
LINE
8
DC
6
CONTINUOUS
62
7
10
  0.13120000
20
 -0.07510000
30
  0.00000000
11
  0.13090000
21
 -0.07540000
31
  0.00000000
0
LINE
8
DC
6
CONTINUOUS
62
7
10
  0.13090000
20
 -0.07540000
30
  0.00000000
11
  0.13060000
21
 -0.07570000
31
  0.00000000
0
LINE
8
DC
6
CONTINUOUS
62
7
10
  0.13060000
20
 -0.07570000
30
  0.00000000
11
  0.13050000
21
 -0.07600000
31
  0.00000000
0
LINE
8
DC
6
CONTINUOUS
62
7
10
  0.13050000
20
 -0.07600000
30
  0.00000000
11
  0.13060000
21
 -0.07630000
31
  0.00000000
0
LINE
8
DC
6
CONTINUOUS
62
7
10
  0.13060000
20
 -0.07630000
30
  0.00000000
11
  0.13090000
21
 -0.07660000
31
  0.00000000
0
LINE
8
DC
6
CONTINUOUS
62
7
10
  0.13090000
20
 -0.07660000
30
  0.00000000
11
  0.13120000
21
 -0.07690000
31
  0.00000000
0
LINE
8
DC
6
CONTINUOUS
62
7
10
  0.13120000
20
 -0.07690000
30
  0.00000000
11
  0.13150000
21
 -0.07720000
31
  0.00000000
0
LINE
8
DC
6
CONTINUOUS
62
7
10
  0.13150000
20
 -0.07720000
30
  0.00000000
11
  0.13180000
21
 -0.07750000
31
  0.00000000
0
LINE
8
DC
6
CONTINUOUS
62
7
10
  0.13180000
20
 -0.07750000
30
  0.00000000
11
  0.13190000
21
 -0.07780000
31
  0.00000000
0
LINE
8
DC
6
CONTINUOUS
62
7
10
  0.13190000
20
 -0.07780000
30
  0.00000000
11
  0.13180000
21
 -0.07810000
31
  0.00000000
0
LINE
8
DC
6
CONTINUOUS
62
7
10
  0.13180000
20
 -0.07810000
30
  0.00000000
11
  0.13150000
21
 -0.07840000
31
  0.00000000
0
LINE
8
DC
6
CONTINUOUS
62
7
10
  0.13150000
20
 -0.07840000
30
  0.00000000
11
  0.13120000
21
 -0.07870000
31
  0.00000000
0
LINE
8
DC
6
CONTINUOUS
62
7
10
  0.13120000
20
 -0.07870000
30
  0.00000000
11
  0.13090000
21
 -0.07900000
31
  0.00000000
0
LINE
8
DC
6
CONTINUOUS
62
7
10
  0.13090000
20
 -0.07900000
30
  0.00000000
11
  0.13060000
21
 -0.07930000
31
  0.00000000
0
LINE
8
DC
6
CONTINUOUS
62
7
10
  0.13060000
20
 -0.07930000
30
  0.00000000
11
  0.13050000
21
 -0.07960000
31
  0.00000000
0
LINE
8
DC
6
CONTINUOUS
62
7
10
  0.13050000
20
 -0.07960000
30
  0.00000000
11
  0.13060000
21
 -0.07990000
31
  0.00000000
0
LINE
8
DC
6
CONTINUOUS
62
7
10
  0.13060000
20
 -0.07990000
30
  0.00000000
11
  0.13090000
21
 -0.08020000
31
  0.00000000
0
LINE
8
DC
6
CONTINUOUS
62
7
10
  0.13090000
20
 -0.08020000
30
  0.00000000
11
  0.13120000
21
 -0.08050000
31
  0.00000000
0
LINE
8
DC
6
CONTINUOUS
62
7
10
  0.13120000
20
 -0.08050000
30
  0.00000000
11
  0.13150000
21
 -0.08080000
31
  0.00000000
0
LINE
8
DC
6
CONTINUOUS
62
7
10
  0.13150000
20
 -0.08080000
30
  0.00000000
11
  0.13180000
21
 -0.08110000
31
  0.00000000
0
LINE
8
DC
6
CONTINUOUS
62
7
10
  0.13180000
20
 -0.08110000
30
  0.00000000
11
  0.13190000
21
 -0.08140000
31
  0.00000000
0
LINE
8
DC
6
CONTINUOUS
62
7
10
  0.13190000
20
 -0.08140000
30
  0.00000000
11
  0.13180000
21
 -0.08170000
31
  0.00000000
0
LINE
8
DC
6
CONTINUOUS
62
7
10
  0.13180000
20
 -0.08170000
30
  0.00000000
11
  0.13150000
21
 -0.08200000
31
  0.00000000
0
LINE
8
DC
6
CONTINUOUS
62
7
10
  0.13150000
20
 -0.08200000
30
  0.00000000
11
  0.13120000
21
 -0.08230000
31
  0.00000000
0
LINE
8
DC
6
CONTINUOUS
62
7
10
  0.13120000
20
 -0.08230000
30
  0.00000000
11
  0.13090000
21
 -0.08260000
31
  0.00000000
0
LINE
8
DC
6
CONTINUOUS
62
7
10
  0.13090000
20
 -0.08260000
30
  0.00000000
11
  0.13060000
21
 -0.08290000
31
  0.00000000
0
LINE
8
DC
6
CONTINUOUS
62
7
10
  0.13060000
20
 -0.08290000
30
  0.00000000
11
  0.13050000
21
 -0.08300000
31
  0.00000000
0
LINE
8
DC
6
GESTRICHELT
62
7
10
  0.13280000
20
 -0.05500000
30
  0.00000000
11
  0.13280000
21
 -0.08300000
31
  0.00000000
0
SOLID
8
DC
62
255
10
  0.11960000
20
 -0.05500000
30
  0.00000000
11
  0.12470000
21
 -0.05500000
31
  0.00000000
12
  0.11960000
22
 -0.08310000
32
  0.00000000
13
  0.12470000
23
 -0.08310000
33
  0.00000000
0
LINE
8
DC
6
CONTINUOUS
62
7
10
  0.11960000
20
 -0.05500000
30
  0.00000000
11
  0.12470000
21
 -0.05500000
31
  0.00000000
0
LINE
8
DC
6
CONTINUOUS
62
7
10
  0.12470000
20
 -0.05500000
30
  0.00000000
11
  0.12470000
21
 -0.08310000
31
  0.00000000
0
LINE
8
DC
6
CONTINUOUS
62
7
10
  0.12470000
20
 -0.08310000
30
  0.00000000
11
  0.11960000
21
 -0.08310000
31
  0.00000000
0
LINE
8
DC
6
CONTINUOUS
62
7
10
  0.11960000
20
 -0.08310000
30
  0.00000000
11
  0.11960000
21
 -0.05500000
31
  0.00000000
0
SOLID
8
DC
62
200
10
  0.12470000
20
 -0.05500000
30
  0.00000000
11
  0.12970000
21
 -0.05500000
31
  0.00000000
12
  0.12470000
22
 -0.08310000
32
  0.00000000
13
  0.12970000
23
 -0.08310000
33
  0.00000000
0
LINE
8
DC
6
CONTINUOUS
62
7
10
  0.12470000
20
 -0.05500000
30
  0.00000000
11
  0.12970000
21
 -0.05500000
31
  0.00000000
0
LINE
8
DC
6
CONTINUOUS
62
7
10
  0.12970000
20
 -0.05500000
30
  0.00000000
11
  0.12970000
21
 -0.08310000
31
  0.00000000
0
LINE
8
DC
6
CONTINUOUS
62
7
10
  0.12970000
20
 -0.08310000
30
  0.00000000
11
  0.12470000
21
 -0.08310000
31
  0.00000000
0
LINE
8
DC
6
CONTINUOUS
62
7
10
  0.12470000
20
 -0.08310000
30
  0.00000000
11
  0.12470000
21
 -0.05500000
31
  0.00000000
0
TEXT
8
DC
62
7
10
  0.12210000
20
 -0.05520000
30
  0.00000000
40
  0.00325000
41
  0.60000000
1
A
50
  0.00000000
72
1
73
3
11
  0.12210000
21
 -0.05520000
31
  0.00000000
0
LINE
8
DC
6
CONTINUOUS
62
7
10
  0.12010000
20
 -0.06080000
30
  0.00000000
11
  0.12310000
21
 -0.06080000
31
  0.00000000
0
LINE
8
DC
6
CONTINUOUS
62
7
10
  0.12110000
20
 -0.06240000
30
  0.00000000
11
  0.12410000
21
 -0.06240000
31
  0.00000000
0
TEXT
8
DC
62
7
10
  0.12210000
20
 -0.06350000
30
  0.00000000
40
  0.00325000
41
  0.60000000
1
A
50
  0.00000000
72
1
73
3
11
  0.12210000
21
 -0.06350000
31
  0.00000000
0
LINE
8
DC
6
CONTINUOUS
62
7
10
  0.12010000
20
 -0.06910000
30
  0.00000000
11
  0.12310000
21
 -0.06910000
31
  0.00000000
0
LINE
8
DC
6
CONTINUOUS
62
7
10
  0.12110000
20
 -0.07070000
30
  0.00000000
11
  0.12410000
21
 -0.07070000
31
  0.00000000
0
TEXT
8
DC
62
7
10
  0.12210000
20
 -0.07180000
30
  0.00000000
40
  0.00325000
41
  0.60000000
1
A
50
  0.00000000
72
1
73
3
11
  0.12210000
21
 -0.07180000
31
  0.00000000
0
LINE
8
DC
6
CONTINUOUS
62
7
10
  0.12010000
20
 -0.07740000
30
  0.00000000
11
  0.12310000
21
 -0.07740000
31
  0.00000000
0
LINE
8
DC
6
CONTINUOUS
62
7
10
  0.12110000
20
 -0.07900000
30
  0.00000000
11
  0.12410000
21
 -0.07900000
31
  0.00000000
0
TEXT
8
DC
62
7
10
  0.12210000
20
 -0.07960000
30
  0.00000000
40
  0.00241667
41
  0.60000000
1
A
50
  0.00000000
72
1
73
3
11
  0.12210000
21
 -0.07960000
31
  0.00000000
0
LINE
8
DC
6
CONTINUOUS
62
7
10
  0.12620000
20
 -0.05710000
30
  0.00000000
11
  0.12620000
21
 -0.05710000
31
  0.00000000
0
LINE
8
DC
6
CONTINUOUS
62
7
10
  0.12598206
20
 -0.05705000
30
  0.00000000
11
  0.12641794
21
 -0.05705000
31
  0.00000000
0
LINE
8
DC
6
CONTINUOUS
62
7
10
  0.12590000
20
 -0.05700000
30
  0.00000000
11
  0.12650000
21
 -0.05700000
31
  0.00000000
0
LINE
8
DC
6
CONTINUOUS
62
7
10
  0.12584293
20
 -0.05695000
30
  0.00000000
11
  0.12655707
21
 -0.05695000
31
  0.00000000
0
LINE
8
DC
6
CONTINUOUS
62
7
10
  0.12580000
20
 -0.05690000
30
  0.00000000
11
  0.12660000
21
 -0.05690000
31
  0.00000000
0
LINE
8
DC
6
CONTINUOUS
62
7
10
  0.12576699
20
 -0.05685000
30
  0.00000000
11
  0.12663301
21
 -0.05685000
31
  0.00000000
0
LINE
8
DC
6
CONTINUOUS
62
7
10
  0.12574174
20
 -0.05680000
30
  0.00000000
11
  0.12665826
21
 -0.05680000
31
  0.00000000
0
LINE
8
DC
6
CONTINUOUS
62
7
10
  0.12572303
20
 -0.05675000
30
  0.00000000
11
  0.12667697
21
 -0.05675000
31
  0.00000000
0
LINE
8
DC
6
CONTINUOUS
62
7
10
  0.12571010
20
 -0.05670000
30
  0.00000000
11
  0.12668990
21
 -0.05670000
31
  0.00000000
0
LINE
8
DC
6
CONTINUOUS
62
7
10
  0.12570251
20
 -0.05665000
30
  0.00000000
11
  0.12669749
21
 -0.05665000
31
  0.00000000
0
LINE
8
DC
6
CONTINUOUS
62
7
10
  0.12570000
20
 -0.05660000
30
  0.00000000
11
  0.12670000
21
 -0.05660000
31
  0.00000000
0
LINE
8
DC
6
CONTINUOUS
62
7
10
  0.12570251
20
 -0.05655000
30
  0.00000000
11
  0.12669749
21
 -0.05655000
31
  0.00000000
0
LINE
8
DC
6
CONTINUOUS
62
7
10
  0.12571010
20
 -0.05650000
30
  0.00000000
11
  0.12668990
21
 -0.05650000
31
  0.00000000
0
LINE
8
DC
6
CONTINUOUS
62
7
10
  0.12572303
20
 -0.05645000
30
  0.00000000
11
  0.12667697
21
 -0.05645000
31
  0.00000000
0
LINE
8
DC
6
CONTINUOUS
62
7
10
  0.12574174
20
 -0.05640000
30
  0.00000000
11
  0.12665826
21
 -0.05640000
31
  0.00000000
0
LINE
8
DC
6
CONTINUOUS
62
7
10
  0.12576699
20
 -0.05635000
30
  0.00000000
11
  0.12663301
21
 -0.05635000
31
  0.00000000
0
LINE
8
DC
6
CONTINUOUS
62
7
10
  0.12580000
20
 -0.05630000
30
  0.00000000
11
  0.12660000
21
 -0.05630000
31
  0.00000000
0
LINE
8
DC
6
CONTINUOUS
62
7
10
  0.12584293
20
 -0.05625000
30
  0.00000000
11
  0.12655707
21
 -0.05625000
31
  0.00000000
0
LINE
8
DC
6
CONTINUOUS
62
7
10
  0.12590000
20
 -0.05620000
30
  0.00000000
11
  0.12650000
21
 -0.05620000
31
  0.00000000
0
LINE
8
DC
6
CONTINUOUS
62
7
10
  0.12598206
20
 -0.05615000
30
  0.00000000
11
  0.12641794
21
 -0.05615000
31
  0.00000000
0
CIRCLE
8
DC
6
CONTINUOUS
62
7
10
  0.12620000
20
 -0.05660000
30
  0.00000000
40
  0.00050000
0
LINE
8
DC
6
CONTINUOUS
62
7
10
  0.12780000
20
 -0.05710000
30
  0.00000000
11
  0.12780000
21
 -0.05710000
31
  0.00000000
0
LINE
8
DC
6
CONTINUOUS
62
7
10
  0.12758206
20
 -0.05705000
30
  0.00000000
11
  0.12801794
21
 -0.05705000
31
  0.00000000
0
LINE
8
DC
6
CONTINUOUS
62
7
10
  0.12750000
20
 -0.05700000
30
  0.00000000
11
  0.12810000
21
 -0.05700000
31
  0.00000000
0
LINE
8
DC
6
CONTINUOUS
62
7
10
  0.12744293
20
 -0.05695000
30
  0.00000000
11
  0.12815707
21
 -0.05695000
31
  0.00000000
0
LINE
8
DC
6
CONTINUOUS
62
7
10
  0.12740000
20
 -0.05690000
30
  0.00000000
11
  0.12820000
21
 -0.05690000
31
  0.00000000
0
LINE
8
DC
6
CONTINUOUS
62
7
10
  0.12736699
20
 -0.05685000
30
  0.00000000
11
  0.12823301
21
 -0.05685000
31
  0.00000000
0
LINE
8
DC
6
CONTINUOUS
62
7
10
  0.12734174
20
 -0.05680000
30
  0.00000000
11
  0.12825826
21
 -0.05680000
31
  0.00000000
0
LINE
8
DC
6
CONTINUOUS
62
7
10
  0.12732303
20
 -0.05675000
30
  0.00000000
11
  0.12827697
21
 -0.05675000
31
  0.00000000
0
LINE
8
DC
6
CONTINUOUS
62
7
10
  0.12731010
20
 -0.05670000
30
  0.00000000
11
  0.12828990
21
 -0.05670000
31
  0.00000000
0
LINE
8
DC
6
CONTINUOUS
62
7
10
  0.12730251
20
 -0.05665000
30
  0.00000000
11
  0.12829749
21
 -0.05665000
31
  0.00000000
0
LINE
8
DC
6
CONTINUOUS
62
7
10
  0.12730000
20
 -0.05660000
30
  0.00000000
11
  0.12830000
21
 -0.05660000
31
  0.00000000
0
LINE
8
DC
6
CONTINUOUS
62
7
10
  0.12730251
20
 -0.05655000
30
  0.00000000
11
  0.12829749
21
 -0.05655000
31
  0.00000000
0
LINE
8
DC
6
CONTINUOUS
62
7
10
  0.12731010
20
 -0.05650000
30
  0.00000000
11
  0.12828990
21
 -0.05650000
31
  0.00000000
0
LINE
8
DC
6
CONTINUOUS
62
7
10
  0.12732303
20
 -0.05645000
30
  0.00000000
11
  0.12827697
21
 -0.05645000
31
  0.00000000
0
LINE
8
DC
6
CONTINUOUS
62
7
10
  0.12734174
20
 -0.05640000
30
  0.00000000
11
  0.12825826
21
 -0.05640000
31
  0.00000000
0
LINE
8
DC
6
CONTINUOUS
62
7
10
  0.12736699
20
 -0.05635000
30
  0.00000000
11
  0.12823301
21
 -0.05635000
31
  0.00000000
0
LINE
8
DC
6
CONTINUOUS
62
7
10
  0.12740000
20
 -0.05630000
30
  0.00000000
11
  0.12820000
21
 -0.05630000
31
  0.00000000
0
LINE
8
DC
6
CONTINUOUS
62
7
10
  0.12744293
20
 -0.05625000
30
  0.00000000
11
  0.12815707
21
 -0.05625000
31
  0.00000000
0
LINE
8
DC
6
CONTINUOUS
62
7
10
  0.12750000
20
 -0.05620000
30
  0.00000000
11
  0.12810000
21
 -0.05620000
31
  0.00000000
0
LINE
8
DC
6
CONTINUOUS
62
7
10
  0.12758206
20
 -0.05615000
30
  0.00000000
11
  0.12801794
21
 -0.05615000
31
  0.00000000
0
CIRCLE
8
DC
6
CONTINUOUS
62
7
10
  0.12780000
20
 -0.05660000
30
  0.00000000
40
  0.00050000
0
LINE
8
DC
6
CONTINUOUS
62
7
10
  0.12560000
20
 -0.05710000
30
  0.00000000
11
  0.12860000
21
 -0.05710000
31
  0.00000000
0
LINE
8
DC
6
CONTINUOUS
62
7
10
  0.12480000
20
 -0.05900000
30
  0.00000000
11
  0.12480000
21
 -0.05900000
31
  0.00000000
0
LINE
8
DC
6
CONTINUOUS
62
7
10
  0.12466771
20
 -0.05895000
30
  0.00000000
11
  0.12493229
21
 -0.05895000
31
  0.00000000
0
LINE
8
DC
6
CONTINUOUS
62
7
10
  0.12462679
20
 -0.05890000
30
  0.00000000
11
  0.12497321
21
 -0.05890000
31
  0.00000000
0
LINE
8
DC
6
CONTINUOUS
62
7
10
  0.12460635
20
 -0.05885000
30
  0.00000000
11
  0.12499365
21
 -0.05885000
31
  0.00000000
0
LINE
8
DC
6
CONTINUOUS
62
7
10
  0.12460000
20
 -0.05880000
30
  0.00000000
11
  0.12500000
21
 -0.05880000
31
  0.00000000
0
LINE
8
DC
6
CONTINUOUS
62
7
10
  0.12460635
20
 -0.05875000
30
  0.00000000
11
  0.12499365
21
 -0.05875000
31
  0.00000000
0
LINE
8
DC
6
CONTINUOUS
62
7
10
  0.12462679
20
 -0.05870000
30
  0.00000000
11
  0.12497321
21
 -0.05870000
31
  0.00000000
0
LINE
8
DC
6
CONTINUOUS
62
7
10
  0.12466771
20
 -0.05865000
30
  0.00000000
11
  0.12493229
21
 -0.05865000
31
  0.00000000
0
CIRCLE
8
DC
6
CONTINUOUS
62
7
10
  0.12480000
20
 -0.05880000
30
  0.00000000
40
  0.00020000
0
LINE
8
DC
6
CONTINUOUS
62
7
10
  0.12580000
20
 -0.05900000
30
  0.00000000
11
  0.12580000
21
 -0.05900000
31
  0.00000000
0
LINE
8
DC
6
CONTINUOUS
62
7
10
  0.12566771
20
 -0.05895000
30
  0.00000000
11
  0.12593229
21
 -0.05895000
31
  0.00000000
0
LINE
8
DC
6
CONTINUOUS
62
7
10
  0.12562679
20
 -0.05890000
30
  0.00000000
11
  0.12597321
21
 -0.05890000
31
  0.00000000
0
LINE
8
DC
6
CONTINUOUS
62
7
10
  0.12560635
20
 -0.05885000
30
  0.00000000
11
  0.12599365
21
 -0.05885000
31
  0.00000000
0
LINE
8
DC
6
CONTINUOUS
62
7
10
  0.12560000
20
 -0.05880000
30
  0.00000000
11
  0.12600000
21
 -0.05880000
31
  0.00000000
0
LINE
8
DC
6
CONTINUOUS
62
7
10
  0.12560635
20
 -0.05875000
30
  0.00000000
11
  0.12599365
21
 -0.05875000
31
  0.00000000
0
LINE
8
DC
6
CONTINUOUS
62
7
10
  0.12562679
20
 -0.05870000
30
  0.00000000
11
  0.12597321
21
 -0.05870000
31
  0.00000000
0
LINE
8
DC
6
CONTINUOUS
62
7
10
  0.12566771
20
 -0.05865000
30
  0.00000000
11
  0.12593229
21
 -0.05865000
31
  0.00000000
0
CIRCLE
8
DC
6
CONTINUOUS
62
7
10
  0.12580000
20
 -0.05880000
30
  0.00000000
40
  0.00020000
0
LINE
8
DC
6
CONTINUOUS
62
7
10
  0.12680000
20
 -0.05900000
30
  0.00000000
11
  0.12680000
21
 -0.05900000
31
  0.00000000
0
LINE
8
DC
6
CONTINUOUS
62
7
10
  0.12666771
20
 -0.05895000
30
  0.00000000
11
  0.12693229
21
 -0.05895000
31
  0.00000000
0
LINE
8
DC
6
CONTINUOUS
62
7
10
  0.12662679
20
 -0.05890000
30
  0.00000000
11
  0.12697321
21
 -0.05890000
31
  0.00000000
0
LINE
8
DC
6
CONTINUOUS
62
7
10
  0.12660635
20
 -0.05885000
30
  0.00000000
11
  0.12699365
21
 -0.05885000
31
  0.00000000
0
LINE
8
DC
6
CONTINUOUS
62
7
10
  0.12660000
20
 -0.05880000
30
  0.00000000
11
  0.12700000
21
 -0.05880000
31
  0.00000000
0
LINE
8
DC
6
CONTINUOUS
62
7
10
  0.12660635
20
 -0.05875000
30
  0.00000000
11
  0.12699365
21
 -0.05875000
31
  0.00000000
0
LINE
8
DC
6
CONTINUOUS
62
7
10
  0.12662679
20
 -0.05870000
30
  0.00000000
11
  0.12697321
21
 -0.05870000
31
  0.00000000
0
LINE
8
DC
6
CONTINUOUS
62
7
10
  0.12666771
20
 -0.05865000
30
  0.00000000
11
  0.12693229
21
 -0.05865000
31
  0.00000000
0
CIRCLE
8
DC
6
CONTINUOUS
62
7
10
  0.12680000
20
 -0.05880000
30
  0.00000000
40
  0.00020000
0
LINE
8
DC
6
CONTINUOUS
62
7
10
  0.12780000
20
 -0.05900000
30
  0.00000000
11
  0.12780000
21
 -0.05900000
31
  0.00000000
0
LINE
8
DC
6
CONTINUOUS
62
7
10
  0.12766771
20
 -0.05895000
30
  0.00000000
11
  0.12793229
21
 -0.05895000
31
  0.00000000
0
LINE
8
DC
6
CONTINUOUS
62
7
10
  0.12762679
20
 -0.05890000
30
  0.00000000
11
  0.12797321
21
 -0.05890000
31
  0.00000000
0
LINE
8
DC
6
CONTINUOUS
62
7
10
  0.12760635
20
 -0.05885000
30
  0.00000000
11
  0.12799365
21
 -0.05885000
31
  0.00000000
0
LINE
8
DC
6
CONTINUOUS
62
7
10
  0.12760000
20
 -0.05880000
30
  0.00000000
11
  0.12800000
21
 -0.05880000
31
  0.00000000
0
LINE
8
DC
6
CONTINUOUS
62
7
10
  0.12760635
20
 -0.05875000
30
  0.00000000
11
  0.12799365
21
 -0.05875000
31
  0.00000000
0
LINE
8
DC
6
CONTINUOUS
62
7
10
  0.12762679
20
 -0.05870000
30
  0.00000000
11
  0.12797321
21
 -0.05870000
31
  0.00000000
0
LINE
8
DC
6
CONTINUOUS
62
7
10
  0.12766771
20
 -0.05865000
30
  0.00000000
11
  0.12793229
21
 -0.05865000
31
  0.00000000
0
CIRCLE
8
DC
6
CONTINUOUS
62
7
10
  0.12780000
20
 -0.05880000
30
  0.00000000
40
  0.00020000
0
LINE
8
DC
6
CONTINUOUS
62
7
10
  0.12880000
20
 -0.05900000
30
  0.00000000
11
  0.12880000
21
 -0.05900000
31
  0.00000000
0
LINE
8
DC
6
CONTINUOUS
62
7
10
  0.12866771
20
 -0.05895000
30
  0.00000000
11
  0.12893229
21
 -0.05895000
31
  0.00000000
0
LINE
8
DC
6
CONTINUOUS
62
7
10
  0.12862679
20
 -0.05890000
30
  0.00000000
11
  0.12897321
21
 -0.05890000
31
  0.00000000
0
LINE
8
DC
6
CONTINUOUS
62
7
10
  0.12860635
20
 -0.05885000
30
  0.00000000
11
  0.12899365
21
 -0.05885000
31
  0.00000000
0
LINE
8
DC
6
CONTINUOUS
62
7
10
  0.12860000
20
 -0.05880000
30
  0.00000000
11
  0.12900000
21
 -0.05880000
31
  0.00000000
0
LINE
8
DC
6
CONTINUOUS
62
7
10
  0.12860635
20
 -0.05875000
30
  0.00000000
11
  0.12899365
21
 -0.05875000
31
  0.00000000
0
LINE
8
DC
6
CONTINUOUS
62
7
10
  0.12862679
20
 -0.05870000
30
  0.00000000
11
  0.12897321
21
 -0.05870000
31
  0.00000000
0
LINE
8
DC
6
CONTINUOUS
62
7
10
  0.12866771
20
 -0.05865000
30
  0.00000000
11
  0.12893229
21
 -0.05865000
31
  0.00000000
0
CIRCLE
8
DC
6
CONTINUOUS
62
7
10
  0.12880000
20
 -0.05880000
30
  0.00000000
40
  0.00020000
0
LINE
8
DC
6
CONTINUOUS
62
7
10
  0.12480000
20
 -0.06120000
30
  0.00000000
11
  0.12480000
21
 -0.06120000
31
  0.00000000
0
LINE
8
DC
6
CONTINUOUS
62
7
10
  0.12466771
20
 -0.06115000
30
  0.00000000
11
  0.12493229
21
 -0.06115000
31
  0.00000000
0
LINE
8
DC
6
CONTINUOUS
62
7
10
  0.12462679
20
 -0.06110000
30
  0.00000000
11
  0.12497321
21
 -0.06110000
31
  0.00000000
0
LINE
8
DC
6
CONTINUOUS
62
7
10
  0.12460635
20
 -0.06105000
30
  0.00000000
11
  0.12499365
21
 -0.06105000
31
  0.00000000
0
LINE
8
DC
6
CONTINUOUS
62
7
10
  0.12460000
20
 -0.06100000
30
  0.00000000
11
  0.12500000
21
 -0.06100000
31
  0.00000000
0
LINE
8
DC
6
CONTINUOUS
62
7
10
  0.12460635
20
 -0.06095000
30
  0.00000000
11
  0.12499365
21
 -0.06095000
31
  0.00000000
0
LINE
8
DC
6
CONTINUOUS
62
7
10
  0.12462679
20
 -0.06090000
30
  0.00000000
11
  0.12497321
21
 -0.06090000
31
  0.00000000
0
LINE
8
DC
6
CONTINUOUS
62
7
10
  0.12466771
20
 -0.06085000
30
  0.00000000
11
  0.12493229
21
 -0.06085000
31
  0.00000000
0
CIRCLE
8
DC
6
CONTINUOUS
62
7
10
  0.12480000
20
 -0.06100000
30
  0.00000000
40
  0.00020000
0
LINE
8
DC
6
CONTINUOUS
62
7
10
  0.12580000
20
 -0.06120000
30
  0.00000000
11
  0.12580000
21
 -0.06120000
31
  0.00000000
0
LINE
8
DC
6
CONTINUOUS
62
7
10
  0.12566771
20
 -0.06115000
30
  0.00000000
11
  0.12593229
21
 -0.06115000
31
  0.00000000
0
LINE
8
DC
6
CONTINUOUS
62
7
10
  0.12562679
20
 -0.06110000
30
  0.00000000
11
  0.12597321
21
 -0.06110000
31
  0.00000000
0
LINE
8
DC
6
CONTINUOUS
62
7
10
  0.12560635
20
 -0.06105000
30
  0.00000000
11
  0.12599365
21
 -0.06105000
31
  0.00000000
0
LINE
8
DC
6
CONTINUOUS
62
7
10
  0.12560000
20
 -0.06100000
30
  0.00000000
11
  0.12600000
21
 -0.06100000
31
  0.00000000
0
LINE
8
DC
6
CONTINUOUS
62
7
10
  0.12560635
20
 -0.06095000
30
  0.00000000
11
  0.12599365
21
 -0.06095000
31
  0.00000000
0
LINE
8
DC
6
CONTINUOUS
62
7
10
  0.12562679
20
 -0.06090000
30
  0.00000000
11
  0.12597321
21
 -0.06090000
31
  0.00000000
0
LINE
8
DC
6
CONTINUOUS
62
7
10
  0.12566771
20
 -0.06085000
30
  0.00000000
11
  0.12593229
21
 -0.06085000
31
  0.00000000
0
CIRCLE
8
DC
6
CONTINUOUS
62
7
10
  0.12580000
20
 -0.06100000
30
  0.00000000
40
  0.00020000
0
LINE
8
DC
6
CONTINUOUS
62
7
10
  0.12680000
20
 -0.06120000
30
  0.00000000
11
  0.12680000
21
 -0.06120000
31
  0.00000000
0
LINE
8
DC
6
CONTINUOUS
62
7
10
  0.12666771
20
 -0.06115000
30
  0.00000000
11
  0.12693229
21
 -0.06115000
31
  0.00000000
0
LINE
8
DC
6
CONTINUOUS
62
7
10
  0.12662679
20
 -0.06110000
30
  0.00000000
11
  0.12697321
21
 -0.06110000
31
  0.00000000
0
LINE
8
DC
6
CONTINUOUS
62
7
10
  0.12660635
20
 -0.06105000
30
  0.00000000
11
  0.12699365
21
 -0.06105000
31
  0.00000000
0
LINE
8
DC
6
CONTINUOUS
62
7
10
  0.12660000
20
 -0.06100000
30
  0.00000000
11
  0.12700000
21
 -0.06100000
31
  0.00000000
0
LINE
8
DC
6
CONTINUOUS
62
7
10
  0.12660635
20
 -0.06095000
30
  0.00000000
11
  0.12699365
21
 -0.06095000
31
  0.00000000
0
LINE
8
DC
6
CONTINUOUS
62
7
10
  0.12662679
20
 -0.06090000
30
  0.00000000
11
  0.12697321
21
 -0.06090000
31
  0.00000000
0
LINE
8
DC
6
CONTINUOUS
62
7
10
  0.12666771
20
 -0.06085000
30
  0.00000000
11
  0.12693229
21
 -0.06085000
31
  0.00000000
0
CIRCLE
8
DC
6
CONTINUOUS
62
7
10
  0.12680000
20
 -0.06100000
30
  0.00000000
40
  0.00020000
0
LINE
8
DC
6
CONTINUOUS
62
7
10
  0.12780000
20
 -0.06120000
30
  0.00000000
11
  0.12780000
21
 -0.06120000
31
  0.00000000
0
LINE
8
DC
6
CONTINUOUS
62
7
10
  0.12766771
20
 -0.06115000
30
  0.00000000
11
  0.12793229
21
 -0.06115000
31
  0.00000000
0
LINE
8
DC
6
CONTINUOUS
62
7
10
  0.12762679
20
 -0.06110000
30
  0.00000000
11
  0.12797321
21
 -0.06110000
31
  0.00000000
0
LINE
8
DC
6
CONTINUOUS
62
7
10
  0.12760635
20
 -0.06105000
30
  0.00000000
11
  0.12799365
21
 -0.06105000
31
  0.00000000
0
LINE
8
DC
6
CONTINUOUS
62
7
10
  0.12760000
20
 -0.06100000
30
  0.00000000
11
  0.12800000
21
 -0.06100000
31
  0.00000000
0
LINE
8
DC
6
CONTINUOUS
62
7
10
  0.12760635
20
 -0.06095000
30
  0.00000000
11
  0.12799365
21
 -0.06095000
31
  0.00000000
0
LINE
8
DC
6
CONTINUOUS
62
7
10
  0.12762679
20
 -0.06090000
30
  0.00000000
11
  0.12797321
21
 -0.06090000
31
  0.00000000
0
LINE
8
DC
6
CONTINUOUS
62
7
10
  0.12766771
20
 -0.06085000
30
  0.00000000
11
  0.12793229
21
 -0.06085000
31
  0.00000000
0
CIRCLE
8
DC
6
CONTINUOUS
62
7
10
  0.12780000
20
 -0.06100000
30
  0.00000000
40
  0.00020000
0
LINE
8
DC
6
CONTINUOUS
62
7
10
  0.12880000
20
 -0.06120000
30
  0.00000000
11
  0.12880000
21
 -0.06120000
31
  0.00000000
0
LINE
8
DC
6
CONTINUOUS
62
7
10
  0.12866771
20
 -0.06115000
30
  0.00000000
11
  0.12893229
21
 -0.06115000
31
  0.00000000
0
LINE
8
DC
6
CONTINUOUS
62
7
10
  0.12862679
20
 -0.06110000
30
  0.00000000
11
  0.12897321
21
 -0.06110000
31
  0.00000000
0
LINE
8
DC
6
CONTINUOUS
62
7
10
  0.12860635
20
 -0.06105000
30
  0.00000000
11
  0.12899365
21
 -0.06105000
31
  0.00000000
0
LINE
8
DC
6
CONTINUOUS
62
7
10
  0.12860000
20
 -0.06100000
30
  0.00000000
11
  0.12900000
21
 -0.06100000
31
  0.00000000
0
LINE
8
DC
6
CONTINUOUS
62
7
10
  0.12860635
20
 -0.06095000
30
  0.00000000
11
  0.12899365
21
 -0.06095000
31
  0.00000000
0
LINE
8
DC
6
CONTINUOUS
62
7
10
  0.12862679
20
 -0.06090000
30
  0.00000000
11
  0.12897321
21
 -0.06090000
31
  0.00000000
0
LINE
8
DC
6
CONTINUOUS
62
7
10
  0.12866771
20
 -0.06085000
30
  0.00000000
11
  0.12893229
21
 -0.06085000
31
  0.00000000
0
CIRCLE
8
DC
6
CONTINUOUS
62
7
10
  0.12880000
20
 -0.06100000
30
  0.00000000
40
  0.00020000
0
LINE
8
DC
6
CONTINUOUS
62
7
10
  0.12530000
20
 -0.06010000
30
  0.00000000
11
  0.12530000
21
 -0.06010000
31
  0.00000000
0
LINE
8
DC
6
CONTINUOUS
62
7
10
  0.12516771
20
 -0.06005000
30
  0.00000000
11
  0.12543229
21
 -0.06005000
31
  0.00000000
0
LINE
8
DC
6
CONTINUOUS
62
7
10
  0.12512679
20
 -0.06000000
30
  0.00000000
11
  0.12547321
21
 -0.06000000
31
  0.00000000
0
LINE
8
DC
6
CONTINUOUS
62
7
10
  0.12510635
20
 -0.05995000
30
  0.00000000
11
  0.12549365
21
 -0.05995000
31
  0.00000000
0
LINE
8
DC
6
CONTINUOUS
62
7
10
  0.12510000
20
 -0.05990000
30
  0.00000000
11
  0.12550000
21
 -0.05990000
31
  0.00000000
0
LINE
8
DC
6
CONTINUOUS
62
7
10
  0.12510635
20
 -0.05985000
30
  0.00000000
11
  0.12549365
21
 -0.05985000
31
  0.00000000
0
LINE
8
DC
6
CONTINUOUS
62
7
10
  0.12512679
20
 -0.05980000
30
  0.00000000
11
  0.12547321
21
 -0.05980000
31
  0.00000000
0
LINE
8
DC
6
CONTINUOUS
62
7
10
  0.12516771
20
 -0.05975000
30
  0.00000000
11
  0.12543229
21
 -0.05975000
31
  0.00000000
0
CIRCLE
8
DC
6
CONTINUOUS
62
7
10
  0.12530000
20
 -0.05990000
30
  0.00000000
40
  0.00020000
0
LINE
8
DC
6
CONTINUOUS
62
7
10
  0.12630000
20
 -0.06010000
30
  0.00000000
11
  0.12630000
21
 -0.06010000
31
  0.00000000
0
LINE
8
DC
6
CONTINUOUS
62
7
10
  0.12616771
20
 -0.06005000
30
  0.00000000
11
  0.12643229
21
 -0.06005000
31
  0.00000000
0
LINE
8
DC
6
CONTINUOUS
62
7
10
  0.12612679
20
 -0.06000000
30
  0.00000000
11
  0.12647321
21
 -0.06000000
31
  0.00000000
0
LINE
8
DC
6
CONTINUOUS
62
7
10
  0.12610635
20
 -0.05995000
30
  0.00000000
11
  0.12649365
21
 -0.05995000
31
  0.00000000
0
LINE
8
DC
6
CONTINUOUS
62
7
10
  0.12610000
20
 -0.05990000
30
  0.00000000
11
  0.12650000
21
 -0.05990000
31
  0.00000000
0
LINE
8
DC
6
CONTINUOUS
62
7
10
  0.12610635
20
 -0.05985000
30
  0.00000000
11
  0.12649365
21
 -0.05985000
31
  0.00000000
0
LINE
8
DC
6
CONTINUOUS
62
7
10
  0.12612679
20
 -0.05980000
30
  0.00000000
11
  0.12647321
21
 -0.05980000
31
  0.00000000
0
LINE
8
DC
6
CONTINUOUS
62
7
10
  0.12616771
20
 -0.05975000
30
  0.00000000
11
  0.12643229
21
 -0.05975000
31
  0.00000000
0
CIRCLE
8
DC
6
CONTINUOUS
62
7
10
  0.12630000
20
 -0.05990000
30
  0.00000000
40
  0.00020000
0
LINE
8
DC
6
CONTINUOUS
62
7
10
  0.12730000
20
 -0.06010000
30
  0.00000000
11
  0.12730000
21
 -0.06010000
31
  0.00000000
0
LINE
8
DC
6
CONTINUOUS
62
7
10
  0.12716771
20
 -0.06005000
30
  0.00000000
11
  0.12743229
21
 -0.06005000
31
  0.00000000
0
LINE
8
DC
6
CONTINUOUS
62
7
10
  0.12712679
20
 -0.06000000
30
  0.00000000
11
  0.12747321
21
 -0.06000000
31
  0.00000000
0
LINE
8
DC
6
CONTINUOUS
62
7
10
  0.12710635
20
 -0.05995000
30
  0.00000000
11
  0.12749365
21
 -0.05995000
31
  0.00000000
0
LINE
8
DC
6
CONTINUOUS
62
7
10
  0.12710000
20
 -0.05990000
30
  0.00000000
11
  0.12750000
21
 -0.05990000
31
  0.00000000
0
LINE
8
DC
6
CONTINUOUS
62
7
10
  0.12710635
20
 -0.05985000
30
  0.00000000
11
  0.12749365
21
 -0.05985000
31
  0.00000000
0
LINE
8
DC
6
CONTINUOUS
62
7
10
  0.12712679
20
 -0.05980000
30
  0.00000000
11
  0.12747321
21
 -0.05980000
31
  0.00000000
0
LINE
8
DC
6
CONTINUOUS
62
7
10
  0.12716771
20
 -0.05975000
30
  0.00000000
11
  0.12743229
21
 -0.05975000
31
  0.00000000
0
CIRCLE
8
DC
6
CONTINUOUS
62
7
10
  0.12730000
20
 -0.05990000
30
  0.00000000
40
  0.00020000
0
LINE
8
DC
6
CONTINUOUS
62
7
10
  0.12830000
20
 -0.06010000
30
  0.00000000
11
  0.12830000
21
 -0.06010000
31
  0.00000000
0
LINE
8
DC
6
CONTINUOUS
62
7
10
  0.12816771
20
 -0.06005000
30
  0.00000000
11
  0.12843229
21
 -0.06005000
31
  0.00000000
0
LINE
8
DC
6
CONTINUOUS
62
7
10
  0.12812679
20
 -0.06000000
30
  0.00000000
11
  0.12847321
21
 -0.06000000
31
  0.00000000
0
LINE
8
DC
6
CONTINUOUS
62
7
10
  0.12810635
20
 -0.05995000
30
  0.00000000
11
  0.12849365
21
 -0.05995000
31
  0.00000000
0
LINE
8
DC
6
CONTINUOUS
62
7
10
  0.12810000
20
 -0.05990000
30
  0.00000000
11
  0.12850000
21
 -0.05990000
31
  0.00000000
0
LINE
8
DC
6
CONTINUOUS
62
7
10
  0.12810635
20
 -0.05985000
30
  0.00000000
11
  0.12849365
21
 -0.05985000
31
  0.00000000
0
LINE
8
DC
6
CONTINUOUS
62
7
10
  0.12812679
20
 -0.05980000
30
  0.00000000
11
  0.12847321
21
 -0.05980000
31
  0.00000000
0
LINE
8
DC
6
CONTINUOUS
62
7
10
  0.12816771
20
 -0.05975000
30
  0.00000000
11
  0.12843229
21
 -0.05975000
31
  0.00000000
0
CIRCLE
8
DC
6
CONTINUOUS
62
7
10
  0.12830000
20
 -0.05990000
30
  0.00000000
40
  0.00020000
0
LINE
8
DC
6
CONTINUOUS
62
7
10
  0.12930000
20
 -0.06010000
30
  0.00000000
11
  0.12930000
21
 -0.06010000
31
  0.00000000
0
LINE
8
DC
6
CONTINUOUS
62
7
10
  0.12916771
20
 -0.06005000
30
  0.00000000
11
  0.12943229
21
 -0.06005000
31
  0.00000000
0
LINE
8
DC
6
CONTINUOUS
62
7
10
  0.12912679
20
 -0.06000000
30
  0.00000000
11
  0.12947321
21
 -0.06000000
31
  0.00000000
0
LINE
8
DC
6
CONTINUOUS
62
7
10
  0.12910635
20
 -0.05995000
30
  0.00000000
11
  0.12949365
21
 -0.05995000
31
  0.00000000
0
LINE
8
DC
6
CONTINUOUS
62
7
10
  0.12910000
20
 -0.05990000
30
  0.00000000
11
  0.12950000
21
 -0.05990000
31
  0.00000000
0
LINE
8
DC
6
CONTINUOUS
62
7
10
  0.12910635
20
 -0.05985000
30
  0.00000000
11
  0.12949365
21
 -0.05985000
31
  0.00000000
0
LINE
8
DC
6
CONTINUOUS
62
7
10
  0.12912679
20
 -0.05980000
30
  0.00000000
11
  0.12947321
21
 -0.05980000
31
  0.00000000
0
LINE
8
DC
6
CONTINUOUS
62
7
10
  0.12916771
20
 -0.05975000
30
  0.00000000
11
  0.12943229
21
 -0.05975000
31
  0.00000000
0
CIRCLE
8
DC
6
CONTINUOUS
62
7
10
  0.12930000
20
 -0.05990000
30
  0.00000000
40
  0.00020000
0
TEXT
8
DC
62
7
10
  0.12710000
20
 -0.06180000
30
  0.00000000
40
  0.00325000
41
  0.60000000
1
A
50
  0.00000000
72
1
73
3
11
  0.12710000
21
 -0.06180000
31
  0.00000000
0
LINE
8
DC
6
CONTINUOUS
62
7
10
  0.12510000
20
 -0.06740000
30
  0.00000000
11
  0.12810000
21
 -0.06740000
31
  0.00000000
0
LINE
8
DC
6
CONTINUOUS
62
7
10
  0.12610000
20
 -0.06900000
30
  0.00000000
11
  0.12910000
21
 -0.06900000
31
  0.00000000
0
LINE
8
DC
6
CONTINUOUS
62
7
10
  0.12620000
20
 -0.07200000
30
  0.00000000
11
  0.12620000
21
 -0.07200000
31
  0.00000000
0
LINE
8
DC
6
CONTINUOUS
62
7
10
  0.12598206
20
 -0.07195000
30
  0.00000000
11
  0.12641794
21
 -0.07195000
31
  0.00000000
0
LINE
8
DC
6
CONTINUOUS
62
7
10
  0.12590000
20
 -0.07190000
30
  0.00000000
11
  0.12650000
21
 -0.07190000
31
  0.00000000
0
LINE
8
DC
6
CONTINUOUS
62
7
10
  0.12584293
20
 -0.07185000
30
  0.00000000
11
  0.12655707
21
 -0.07185000
31
  0.00000000
0
LINE
8
DC
6
CONTINUOUS
62
7
10
  0.12580000
20
 -0.07180000
30
  0.00000000
11
  0.12660000
21
 -0.07180000
31
  0.00000000
0
LINE
8
DC
6
CONTINUOUS
62
7
10
  0.12576699
20
 -0.07175000
30
  0.00000000
11
  0.12663301
21
 -0.07175000
31
  0.00000000
0
LINE
8
DC
6
CONTINUOUS
62
7
10
  0.12574174
20
 -0.07170000
30
  0.00000000
11
  0.12665826
21
 -0.07170000
31
  0.00000000
0
LINE
8
DC
6
CONTINUOUS
62
7
10
  0.12572303
20
 -0.07165000
30
  0.00000000
11
  0.12667697
21
 -0.07165000
31
  0.00000000
0
LINE
8
DC
6
CONTINUOUS
62
7
10
  0.12571010
20
 -0.07160000
30
  0.00000000
11
  0.12668990
21
 -0.07160000
31
  0.00000000
0
LINE
8
DC
6
CONTINUOUS
62
7
10
  0.12570251
20
 -0.07155000
30
  0.00000000
11
  0.12669749
21
 -0.07155000
31
  0.00000000
0
LINE
8
DC
6
CONTINUOUS
62
7
10
  0.12570000
20
 -0.07150000
30
  0.00000000
11
  0.12670000
21
 -0.07150000
31
  0.00000000
0
LINE
8
DC
6
CONTINUOUS
62
7
10
  0.12570251
20
 -0.07145000
30
  0.00000000
11
  0.12669749
21
 -0.07145000
31
  0.00000000
0
LINE
8
DC
6
CONTINUOUS
62
7
10
  0.12571010
20
 -0.07140000
30
  0.00000000
11
  0.12668990
21
 -0.07140000
31
  0.00000000
0
LINE
8
DC
6
CONTINUOUS
62
7
10
  0.12572303
20
 -0.07135000
30
  0.00000000
11
  0.12667697
21
 -0.07135000
31
  0.00000000
0
LINE
8
DC
6
CONTINUOUS
62
7
10
  0.12574174
20
 -0.07130000
30
  0.00000000
11
  0.12665826
21
 -0.07130000
31
  0.00000000
0
LINE
8
DC
6
CONTINUOUS
62
7
10
  0.12576699
20
 -0.07125000
30
  0.00000000
11
  0.12663301
21
 -0.07125000
31
  0.00000000
0
LINE
8
DC
6
CONTINUOUS
62
7
10
  0.12580000
20
 -0.07120000
30
  0.00000000
11
  0.12660000
21
 -0.07120000
31
  0.00000000
0
LINE
8
DC
6
CONTINUOUS
62
7
10
  0.12584293
20
 -0.07115000
30
  0.00000000
11
  0.12655707
21
 -0.07115000
31
  0.00000000
0
LINE
8
DC
6
CONTINUOUS
62
7
10
  0.12590000
20
 -0.07110000
30
  0.00000000
11
  0.12650000
21
 -0.07110000
31
  0.00000000
0
LINE
8
DC
6
CONTINUOUS
62
7
10
  0.12598206
20
 -0.07105000
30
  0.00000000
11
  0.12641794
21
 -0.07105000
31
  0.00000000
0
CIRCLE
8
DC
6
CONTINUOUS
62
7
10
  0.12620000
20
 -0.07150000
30
  0.00000000
40
  0.00050000
0
LINE
8
DC
6
CONTINUOUS
62
7
10
  0.12780000
20
 -0.07200000
30
  0.00000000
11
  0.12780000
21
 -0.07200000
31
  0.00000000
0
LINE
8
DC
6
CONTINUOUS
62
7
10
  0.12758206
20
 -0.07195000
30
  0.00000000
11
  0.12801794
21
 -0.07195000
31
  0.00000000
0
LINE
8
DC
6
CONTINUOUS
62
7
10
  0.12750000
20
 -0.07190000
30
  0.00000000
11
  0.12810000
21
 -0.07190000
31
  0.00000000
0
LINE
8
DC
6
CONTINUOUS
62
7
10
  0.12744293
20
 -0.07185000
30
  0.00000000
11
  0.12815707
21
 -0.07185000
31
  0.00000000
0
LINE
8
DC
6
CONTINUOUS
62
7
10
  0.12740000
20
 -0.07180000
30
  0.00000000
11
  0.12820000
21
 -0.07180000
31
  0.00000000
0
LINE
8
DC
6
CONTINUOUS
62
7
10
  0.12736699
20
 -0.07175000
30
  0.00000000
11
  0.12823301
21
 -0.07175000
31
  0.00000000
0
LINE
8
DC
6
CONTINUOUS
62
7
10
  0.12734174
20
 -0.07170000
30
  0.00000000
11
  0.12825826
21
 -0.07170000
31
  0.00000000
0
LINE
8
DC
6
CONTINUOUS
62
7
10
  0.12732303
20
 -0.07165000
30
  0.00000000
11
  0.12827697
21
 -0.07165000
31
  0.00000000
0
LINE
8
DC
6
CONTINUOUS
62
7
10
  0.12731010
20
 -0.07160000
30
  0.00000000
11
  0.12828990
21
 -0.07160000
31
  0.00000000
0
LINE
8
DC
6
CONTINUOUS
62
7
10
  0.12730251
20
 -0.07155000
30
  0.00000000
11
  0.12829749
21
 -0.07155000
31
  0.00000000
0
LINE
8
DC
6
CONTINUOUS
62
7
10
  0.12730000
20
 -0.07150000
30
  0.00000000
11
  0.12830000
21
 -0.07150000
31
  0.00000000
0
LINE
8
DC
6
CONTINUOUS
62
7
10
  0.12730251
20
 -0.07145000
30
  0.00000000
11
  0.12829749
21
 -0.07145000
31
  0.00000000
0
LINE
8
DC
6
CONTINUOUS
62
7
10
  0.12731010
20
 -0.07140000
30
  0.00000000
11
  0.12828990
21
 -0.07140000
31
  0.00000000
0
LINE
8
DC
6
CONTINUOUS
62
7
10
  0.12732303
20
 -0.07135000
30
  0.00000000
11
  0.12827697
21
 -0.07135000
31
  0.00000000
0
LINE
8
DC
6
CONTINUOUS
62
7
10
  0.12734174
20
 -0.07130000
30
  0.00000000
11
  0.12825826
21
 -0.07130000
31
  0.00000000
0
LINE
8
DC
6
CONTINUOUS
62
7
10
  0.12736699
20
 -0.07125000
30
  0.00000000
11
  0.12823301
21
 -0.07125000
31
  0.00000000
0
LINE
8
DC
6
CONTINUOUS
62
7
10
  0.12740000
20
 -0.07120000
30
  0.00000000
11
  0.12820000
21
 -0.07120000
31
  0.00000000
0
LINE
8
DC
6
CONTINUOUS
62
7
10
  0.12744293
20
 -0.07115000
30
  0.00000000
11
  0.12815707
21
 -0.07115000
31
  0.00000000
0
LINE
8
DC
6
CONTINUOUS
62
7
10
  0.12750000
20
 -0.07110000
30
  0.00000000
11
  0.12810000
21
 -0.07110000
31
  0.00000000
0
LINE
8
DC
6
CONTINUOUS
62
7
10
  0.12758206
20
 -0.07105000
30
  0.00000000
11
  0.12801794
21
 -0.07105000
31
  0.00000000
0
CIRCLE
8
DC
6
CONTINUOUS
62
7
10
  0.12780000
20
 -0.07150000
30
  0.00000000
40
  0.00050000
0
LINE
8
DC
6
CONTINUOUS
62
7
10
  0.12560000
20
 -0.07200000
30
  0.00000000
11
  0.12860000
21
 -0.07200000
31
  0.00000000
0
LINE
8
DC
6
CONTINUOUS
62
7
10
  0.12480000
20
 -0.07390000
30
  0.00000000
11
  0.12480000
21
 -0.07390000
31
  0.00000000
0
LINE
8
DC
6
CONTINUOUS
62
7
10
  0.12466771
20
 -0.07385000
30
  0.00000000
11
  0.12493229
21
 -0.07385000
31
  0.00000000
0
LINE
8
DC
6
CONTINUOUS
62
7
10
  0.12462679
20
 -0.07380000
30
  0.00000000
11
  0.12497321
21
 -0.07380000
31
  0.00000000
0
LINE
8
DC
6
CONTINUOUS
62
7
10
  0.12460635
20
 -0.07375000
30
  0.00000000
11
  0.12499365
21
 -0.07375000
31
  0.00000000
0
LINE
8
DC
6
CONTINUOUS
62
7
10
  0.12460000
20
 -0.07370000
30
  0.00000000
11
  0.12500000
21
 -0.07370000
31
  0.00000000
0
LINE
8
DC
6
CONTINUOUS
62
7
10
  0.12460635
20
 -0.07365000
30
  0.00000000
11
  0.12499365
21
 -0.07365000
31
  0.00000000
0
LINE
8
DC
6
CONTINUOUS
62
7
10
  0.12462679
20
 -0.07360000
30
  0.00000000
11
  0.12497321
21
 -0.07360000
31
  0.00000000
0
LINE
8
DC
6
CONTINUOUS
62
7
10
  0.12466771
20
 -0.07355000
30
  0.00000000
11
  0.12493229
21
 -0.07355000
31
  0.00000000
0
CIRCLE
8
DC
6
CONTINUOUS
62
7
10
  0.12480000
20
 -0.07370000
30
  0.00000000
40
  0.00020000
0
LINE
8
DC
6
CONTINUOUS
62
7
10
  0.12580000
20
 -0.07390000
30
  0.00000000
11
  0.12580000
21
 -0.07390000
31
  0.00000000
0
LINE
8
DC
6
CONTINUOUS
62
7
10
  0.12566771
20
 -0.07385000
30
  0.00000000
11
  0.12593229
21
 -0.07385000
31
  0.00000000
0
LINE
8
DC
6
CONTINUOUS
62
7
10
  0.12562679
20
 -0.07380000
30
  0.00000000
11
  0.12597321
21
 -0.07380000
31
  0.00000000
0
LINE
8
DC
6
CONTINUOUS
62
7
10
  0.12560635
20
 -0.07375000
30
  0.00000000
11
  0.12599365
21
 -0.07375000
31
  0.00000000
0
LINE
8
DC
6
CONTINUOUS
62
7
10
  0.12560000
20
 -0.07370000
30
  0.00000000
11
  0.12600000
21
 -0.07370000
31
  0.00000000
0
LINE
8
DC
6
CONTINUOUS
62
7
10
  0.12560635
20
 -0.07365000
30
  0.00000000
11
  0.12599365
21
 -0.07365000
31
  0.00000000
0
LINE
8
DC
6
CONTINUOUS
62
7
10
  0.12562679
20
 -0.07360000
30
  0.00000000
11
  0.12597321
21
 -0.07360000
31
  0.00000000
0
LINE
8
DC
6
CONTINUOUS
62
7
10
  0.12566771
20
 -0.07355000
30
  0.00000000
11
  0.12593229
21
 -0.07355000
31
  0.00000000
0
CIRCLE
8
DC
6
CONTINUOUS
62
7
10
  0.12580000
20
 -0.07370000
30
  0.00000000
40
  0.00020000
0
LINE
8
DC
6
CONTINUOUS
62
7
10
  0.12680000
20
 -0.07390000
30
  0.00000000
11
  0.12680000
21
 -0.07390000
31
  0.00000000
0
LINE
8
DC
6
CONTINUOUS
62
7
10
  0.12666771
20
 -0.07385000
30
  0.00000000
11
  0.12693229
21
 -0.07385000
31
  0.00000000
0
LINE
8
DC
6
CONTINUOUS
62
7
10
  0.12662679
20
 -0.07380000
30
  0.00000000
11
  0.12697321
21
 -0.07380000
31
  0.00000000
0
LINE
8
DC
6
CONTINUOUS
62
7
10
  0.12660635
20
 -0.07375000
30
  0.00000000
11
  0.12699365
21
 -0.07375000
31
  0.00000000
0
LINE
8
DC
6
CONTINUOUS
62
7
10
  0.12660000
20
 -0.07370000
30
  0.00000000
11
  0.12700000
21
 -0.07370000
31
  0.00000000
0
LINE
8
DC
6
CONTINUOUS
62
7
10
  0.12660635
20
 -0.07365000
30
  0.00000000
11
  0.12699365
21
 -0.07365000
31
  0.00000000
0
LINE
8
DC
6
CONTINUOUS
62
7
10
  0.12662679
20
 -0.07360000
30
  0.00000000
11
  0.12697321
21
 -0.07360000
31
  0.00000000
0
LINE
8
DC
6
CONTINUOUS
62
7
10
  0.12666771
20
 -0.07355000
30
  0.00000000
11
  0.12693229
21
 -0.07355000
31
  0.00000000
0
CIRCLE
8
DC
6
CONTINUOUS
62
7
10
  0.12680000
20
 -0.07370000
30
  0.00000000
40
  0.00020000
0
LINE
8
DC
6
CONTINUOUS
62
7
10
  0.12780000
20
 -0.07390000
30
  0.00000000
11
  0.12780000
21
 -0.07390000
31
  0.00000000
0
LINE
8
DC
6
CONTINUOUS
62
7
10
  0.12766771
20
 -0.07385000
30
  0.00000000
11
  0.12793229
21
 -0.07385000
31
  0.00000000
0
LINE
8
DC
6
CONTINUOUS
62
7
10
  0.12762679
20
 -0.07380000
30
  0.00000000
11
  0.12797321
21
 -0.07380000
31
  0.00000000
0
LINE
8
DC
6
CONTINUOUS
62
7
10
  0.12760635
20
 -0.07375000
30
  0.00000000
11
  0.12799365
21
 -0.07375000
31
  0.00000000
0
LINE
8
DC
6
CONTINUOUS
62
7
10
  0.12760000
20
 -0.07370000
30
  0.00000000
11
  0.12800000
21
 -0.07370000
31
  0.00000000
0
LINE
8
DC
6
CONTINUOUS
62
7
10
  0.12760635
20
 -0.07365000
30
  0.00000000
11
  0.12799365
21
 -0.07365000
31
  0.00000000
0
LINE
8
DC
6
CONTINUOUS
62
7
10
  0.12762679
20
 -0.07360000
30
  0.00000000
11
  0.12797321
21
 -0.07360000
31
  0.00000000
0
LINE
8
DC
6
CONTINUOUS
62
7
10
  0.12766771
20
 -0.07355000
30
  0.00000000
11
  0.12793229
21
 -0.07355000
31
  0.00000000
0
CIRCLE
8
DC
6
CONTINUOUS
62
7
10
  0.12780000
20
 -0.07370000
30
  0.00000000
40
  0.00020000
0
LINE
8
DC
6
CONTINUOUS
62
7
10
  0.12880000
20
 -0.07390000
30
  0.00000000
11
  0.12880000
21
 -0.07390000
31
  0.00000000
0
LINE
8
DC
6
CONTINUOUS
62
7
10
  0.12866771
20
 -0.07385000
30
  0.00000000
11
  0.12893229
21
 -0.07385000
31
  0.00000000
0
LINE
8
DC
6
CONTINUOUS
62
7
10
  0.12862679
20
 -0.07380000
30
  0.00000000
11
  0.12897321
21
 -0.07380000
31
  0.00000000
0
LINE
8
DC
6
CONTINUOUS
62
7
10
  0.12860635
20
 -0.07375000
30
  0.00000000
11
  0.12899365
21
 -0.07375000
31
  0.00000000
0
LINE
8
DC
6
CONTINUOUS
62
7
10
  0.12860000
20
 -0.07370000
30
  0.00000000
11
  0.12900000
21
 -0.07370000
31
  0.00000000
0
LINE
8
DC
6
CONTINUOUS
62
7
10
  0.12860635
20
 -0.07365000
30
  0.00000000
11
  0.12899365
21
 -0.07365000
31
  0.00000000
0
LINE
8
DC
6
CONTINUOUS
62
7
10
  0.12862679
20
 -0.07360000
30
  0.00000000
11
  0.12897321
21
 -0.07360000
31
  0.00000000
0
LINE
8
DC
6
CONTINUOUS
62
7
10
  0.12866771
20
 -0.07355000
30
  0.00000000
11
  0.12893229
21
 -0.07355000
31
  0.00000000
0
CIRCLE
8
DC
6
CONTINUOUS
62
7
10
  0.12880000
20
 -0.07370000
30
  0.00000000
40
  0.00020000
0
LINE
8
DC
6
CONTINUOUS
62
7
10
  0.12480000
20
 -0.07610000
30
  0.00000000
11
  0.12480000
21
 -0.07610000
31
  0.00000000
0
LINE
8
DC
6
CONTINUOUS
62
7
10
  0.12466771
20
 -0.07605000
30
  0.00000000
11
  0.12493229
21
 -0.07605000
31
  0.00000000
0
LINE
8
DC
6
CONTINUOUS
62
7
10
  0.12462679
20
 -0.07600000
30
  0.00000000
11
  0.12497321
21
 -0.07600000
31
  0.00000000
0
LINE
8
DC
6
CONTINUOUS
62
7
10
  0.12460635
20
 -0.07595000
30
  0.00000000
11
  0.12499365
21
 -0.07595000
31
  0.00000000
0
LINE
8
DC
6
CONTINUOUS
62
7
10
  0.12460000
20
 -0.07590000
30
  0.00000000
11
  0.12500000
21
 -0.07590000
31
  0.00000000
0
LINE
8
DC
6
CONTINUOUS
62
7
10
  0.12460635
20
 -0.07585000
30
  0.00000000
11
  0.12499365
21
 -0.07585000
31
  0.00000000
0
LINE
8
DC
6
CONTINUOUS
62
7
10
  0.12462679
20
 -0.07580000
30
  0.00000000
11
  0.12497321
21
 -0.07580000
31
  0.00000000
0
LINE
8
DC
6
CONTINUOUS
62
7
10
  0.12466771
20
 -0.07575000
30
  0.00000000
11
  0.12493229
21
 -0.07575000
31
  0.00000000
0
CIRCLE
8
DC
6
CONTINUOUS
62
7
10
  0.12480000
20
 -0.07590000
30
  0.00000000
40
  0.00020000
0
LINE
8
DC
6
CONTINUOUS
62
7
10
  0.12580000
20
 -0.07610000
30
  0.00000000
11
  0.12580000
21
 -0.07610000
31
  0.00000000
0
LINE
8
DC
6
CONTINUOUS
62
7
10
  0.12566771
20
 -0.07605000
30
  0.00000000
11
  0.12593229
21
 -0.07605000
31
  0.00000000
0
LINE
8
DC
6
CONTINUOUS
62
7
10
  0.12562679
20
 -0.07600000
30
  0.00000000
11
  0.12597321
21
 -0.07600000
31
  0.00000000
0
LINE
8
DC
6
CONTINUOUS
62
7
10
  0.12560635
20
 -0.07595000
30
  0.00000000
11
  0.12599365
21
 -0.07595000
31
  0.00000000
0
LINE
8
DC
6
CONTINUOUS
62
7
10
  0.12560000
20
 -0.07590000
30
  0.00000000
11
  0.12600000
21
 -0.07590000
31
  0.00000000
0
LINE
8
DC
6
CONTINUOUS
62
7
10
  0.12560635
20
 -0.07585000
30
  0.00000000
11
  0.12599365
21
 -0.07585000
31
  0.00000000
0
LINE
8
DC
6
CONTINUOUS
62
7
10
  0.12562679
20
 -0.07580000
30
  0.00000000
11
  0.12597321
21
 -0.07580000
31
  0.00000000
0
LINE
8
DC
6
CONTINUOUS
62
7
10
  0.12566771
20
 -0.07575000
30
  0.00000000
11
  0.12593229
21
 -0.07575000
31
  0.00000000
0
CIRCLE
8
DC
6
CONTINUOUS
62
7
10
  0.12580000
20
 -0.07590000
30
  0.00000000
40
  0.00020000
0
LINE
8
DC
6
CONTINUOUS
62
7
10
  0.12680000
20
 -0.07610000
30
  0.00000000
11
  0.12680000
21
 -0.07610000
31
  0.00000000
0
LINE
8
DC
6
CONTINUOUS
62
7
10
  0.12666771
20
 -0.07605000
30
  0.00000000
11
  0.12693229
21
 -0.07605000
31
  0.00000000
0
LINE
8
DC
6
CONTINUOUS
62
7
10
  0.12662679
20
 -0.07600000
30
  0.00000000
11
  0.12697321
21
 -0.07600000
31
  0.00000000
0
LINE
8
DC
6
CONTINUOUS
62
7
10
  0.12660635
20
 -0.07595000
30
  0.00000000
11
  0.12699365
21
 -0.07595000
31
  0.00000000
0
LINE
8
DC
6
CONTINUOUS
62
7
10
  0.12660000
20
 -0.07590000
30
  0.00000000
11
  0.12700000
21
 -0.07590000
31
  0.00000000
0
LINE
8
DC
6
CONTINUOUS
62
7
10
  0.12660635
20
 -0.07585000
30
  0.00000000
11
  0.12699365
21
 -0.07585000
31
  0.00000000
0
LINE
8
DC
6
CONTINUOUS
62
7
10
  0.12662679
20
 -0.07580000
30
  0.00000000
11
  0.12697321
21
 -0.07580000
31
  0.00000000
0
LINE
8
DC
6
CONTINUOUS
62
7
10
  0.12666771
20
 -0.07575000
30
  0.00000000
11
  0.12693229
21
 -0.07575000
31
  0.00000000
0
CIRCLE
8
DC
6
CONTINUOUS
62
7
10
  0.12680000
20
 -0.07590000
30
  0.00000000
40
  0.00020000
0
LINE
8
DC
6
CONTINUOUS
62
7
10
  0.12780000
20
 -0.07610000
30
  0.00000000
11
  0.12780000
21
 -0.07610000
31
  0.00000000
0
LINE
8
DC
6
CONTINUOUS
62
7
10
  0.12766771
20
 -0.07605000
30
  0.00000000
11
  0.12793229
21
 -0.07605000
31
  0.00000000
0
LINE
8
DC
6
CONTINUOUS
62
7
10
  0.12762679
20
 -0.07600000
30
  0.00000000
11
  0.12797321
21
 -0.07600000
31
  0.00000000
0
LINE
8
DC
6
CONTINUOUS
62
7
10
  0.12760635
20
 -0.07595000
30
  0.00000000
11
  0.12799365
21
 -0.07595000
31
  0.00000000
0
LINE
8
DC
6
CONTINUOUS
62
7
10
  0.12760000
20
 -0.07590000
30
  0.00000000
11
  0.12800000
21
 -0.07590000
31
  0.00000000
0
LINE
8
DC
6
CONTINUOUS
62
7
10
  0.12760635
20
 -0.07585000
30
  0.00000000
11
  0.12799365
21
 -0.07585000
31
  0.00000000
0
LINE
8
DC
6
CONTINUOUS
62
7
10
  0.12762679
20
 -0.07580000
30
  0.00000000
11
  0.12797321
21
 -0.07580000
31
  0.00000000
0
LINE
8
DC
6
CONTINUOUS
62
7
10
  0.12766771
20
 -0.07575000
30
  0.00000000
11
  0.12793229
21
 -0.07575000
31
  0.00000000
0
CIRCLE
8
DC
6
CONTINUOUS
62
7
10
  0.12780000
20
 -0.07590000
30
  0.00000000
40
  0.00020000
0
LINE
8
DC
6
CONTINUOUS
62
7
10
  0.12880000
20
 -0.07610000
30
  0.00000000
11
  0.12880000
21
 -0.07610000
31
  0.00000000
0
LINE
8
DC
6
CONTINUOUS
62
7
10
  0.12866771
20
 -0.07605000
30
  0.00000000
11
  0.12893229
21
 -0.07605000
31
  0.00000000
0
LINE
8
DC
6
CONTINUOUS
62
7
10
  0.12862679
20
 -0.07600000
30
  0.00000000
11
  0.12897321
21
 -0.07600000
31
  0.00000000
0
LINE
8
DC
6
CONTINUOUS
62
7
10
  0.12860635
20
 -0.07595000
30
  0.00000000
11
  0.12899365
21
 -0.07595000
31
  0.00000000
0
LINE
8
DC
6
CONTINUOUS
62
7
10
  0.12860000
20
 -0.07590000
30
  0.00000000
11
  0.12900000
21
 -0.07590000
31
  0.00000000
0
LINE
8
DC
6
CONTINUOUS
62
7
10
  0.12860635
20
 -0.07585000
30
  0.00000000
11
  0.12899365
21
 -0.07585000
31
  0.00000000
0
LINE
8
DC
6
CONTINUOUS
62
7
10
  0.12862679
20
 -0.07580000
30
  0.00000000
11
  0.12897321
21
 -0.07580000
31
  0.00000000
0
LINE
8
DC
6
CONTINUOUS
62
7
10
  0.12866771
20
 -0.07575000
30
  0.00000000
11
  0.12893229
21
 -0.07575000
31
  0.00000000
0
CIRCLE
8
DC
6
CONTINUOUS
62
7
10
  0.12880000
20
 -0.07590000
30
  0.00000000
40
  0.00020000
0
LINE
8
DC
6
CONTINUOUS
62
7
10
  0.12530000
20
 -0.07500000
30
  0.00000000
11
  0.12530000
21
 -0.07500000
31
  0.00000000
0
LINE
8
DC
6
CONTINUOUS
62
7
10
  0.12516771
20
 -0.07495000
30
  0.00000000
11
  0.12543229
21
 -0.07495000
31
  0.00000000
0
LINE
8
DC
6
CONTINUOUS
62
7
10
  0.12512679
20
 -0.07490000
30
  0.00000000
11
  0.12547321
21
 -0.07490000
31
  0.00000000
0
LINE
8
DC
6
CONTINUOUS
62
7
10
  0.12510635
20
 -0.07485000
30
  0.00000000
11
  0.12549365
21
 -0.07485000
31
  0.00000000
0
LINE
8
DC
6
CONTINUOUS
62
7
10
  0.12510000
20
 -0.07480000
30
  0.00000000
11
  0.12550000
21
 -0.07480000
31
  0.00000000
0
LINE
8
DC
6
CONTINUOUS
62
7
10
  0.12510635
20
 -0.07475000
30
  0.00000000
11
  0.12549365
21
 -0.07475000
31
  0.00000000
0
LINE
8
DC
6
CONTINUOUS
62
7
10
  0.12512679
20
 -0.07470000
30
  0.00000000
11
  0.12547321
21
 -0.07470000
31
  0.00000000
0
LINE
8
DC
6
CONTINUOUS
62
7
10
  0.12516771
20
 -0.07465000
30
  0.00000000
11
  0.12543229
21
 -0.07465000
31
  0.00000000
0
CIRCLE
8
DC
6
CONTINUOUS
62
7
10
  0.12530000
20
 -0.07480000
30
  0.00000000
40
  0.00020000
0
LINE
8
DC
6
CONTINUOUS
62
7
10
  0.12630000
20
 -0.07500000
30
  0.00000000
11
  0.12630000
21
 -0.07500000
31
  0.00000000
0
LINE
8
DC
6
CONTINUOUS
62
7
10
  0.12616771
20
 -0.07495000
30
  0.00000000
11
  0.12643229
21
 -0.07495000
31
  0.00000000
0
LINE
8
DC
6
CONTINUOUS
62
7
10
  0.12612679
20
 -0.07490000
30
  0.00000000
11
  0.12647321
21
 -0.07490000
31
  0.00000000
0
LINE
8
DC
6
CONTINUOUS
62
7
10
  0.12610635
20
 -0.07485000
30
  0.00000000
11
  0.12649365
21
 -0.07485000
31
  0.00000000
0
LINE
8
DC
6
CONTINUOUS
62
7
10
  0.12610000
20
 -0.07480000
30
  0.00000000
11
  0.12650000
21
 -0.07480000
31
  0.00000000
0
LINE
8
DC
6
CONTINUOUS
62
7
10
  0.12610635
20
 -0.07475000
30
  0.00000000
11
  0.12649365
21
 -0.07475000
31
  0.00000000
0
LINE
8
DC
6
CONTINUOUS
62
7
10
  0.12612679
20
 -0.07470000
30
  0.00000000
11
  0.12647321
21
 -0.07470000
31
  0.00000000
0
LINE
8
DC
6
CONTINUOUS
62
7
10
  0.12616771
20
 -0.07465000
30
  0.00000000
11
  0.12643229
21
 -0.07465000
31
  0.00000000
0
CIRCLE
8
DC
6
CONTINUOUS
62
7
10
  0.12630000
20
 -0.07480000
30
  0.00000000
40
  0.00020000
0
LINE
8
DC
6
CONTINUOUS
62
7
10
  0.12730000
20
 -0.07500000
30
  0.00000000
11
  0.12730000
21
 -0.07500000
31
  0.00000000
0
LINE
8
DC
6
CONTINUOUS
62
7
10
  0.12716771
20
 -0.07495000
30
  0.00000000
11
  0.12743229
21
 -0.07495000
31
  0.00000000
0
LINE
8
DC
6
CONTINUOUS
62
7
10
  0.12712679
20
 -0.07490000
30
  0.00000000
11
  0.12747321
21
 -0.07490000
31
  0.00000000
0
LINE
8
DC
6
CONTINUOUS
62
7
10
  0.12710635
20
 -0.07485000
30
  0.00000000
11
  0.12749365
21
 -0.07485000
31
  0.00000000
0
LINE
8
DC
6
CONTINUOUS
62
7
10
  0.12710000
20
 -0.07480000
30
  0.00000000
11
  0.12750000
21
 -0.07480000
31
  0.00000000
0
LINE
8
DC
6
CONTINUOUS
62
7
10
  0.12710635
20
 -0.07475000
30
  0.00000000
11
  0.12749365
21
 -0.07475000
31
  0.00000000
0
LINE
8
DC
6
CONTINUOUS
62
7
10
  0.12712679
20
 -0.07470000
30
  0.00000000
11
  0.12747321
21
 -0.07470000
31
  0.00000000
0
LINE
8
DC
6
CONTINUOUS
62
7
10
  0.12716771
20
 -0.07465000
30
  0.00000000
11
  0.12743229
21
 -0.07465000
31
  0.00000000
0
CIRCLE
8
DC
6
CONTINUOUS
62
7
10
  0.12730000
20
 -0.07480000
30
  0.00000000
40
  0.00020000
0
LINE
8
DC
6
CONTINUOUS
62
7
10
  0.12830000
20
 -0.07500000
30
  0.00000000
11
  0.12830000
21
 -0.07500000
31
  0.00000000
0
LINE
8
DC
6
CONTINUOUS
62
7
10
  0.12816771
20
 -0.07495000
30
  0.00000000
11
  0.12843229
21
 -0.07495000
31
  0.00000000
0
LINE
8
DC
6
CONTINUOUS
62
7
10
  0.12812679
20
 -0.07490000
30
  0.00000000
11
  0.12847321
21
 -0.07490000
31
  0.00000000
0
LINE
8
DC
6
CONTINUOUS
62
7
10
  0.12810635
20
 -0.07485000
30
  0.00000000
11
  0.12849365
21
 -0.07485000
31
  0.00000000
0
LINE
8
DC
6
CONTINUOUS
62
7
10
  0.12810000
20
 -0.07480000
30
  0.00000000
11
  0.12850000
21
 -0.07480000
31
  0.00000000
0
LINE
8
DC
6
CONTINUOUS
62
7
10
  0.12810635
20
 -0.07475000
30
  0.00000000
11
  0.12849365
21
 -0.07475000
31
  0.00000000
0
LINE
8
DC
6
CONTINUOUS
62
7
10
  0.12812679
20
 -0.07470000
30
  0.00000000
11
  0.12847321
21
 -0.07470000
31
  0.00000000
0
LINE
8
DC
6
CONTINUOUS
62
7
10
  0.12816771
20
 -0.07465000
30
  0.00000000
11
  0.12843229
21
 -0.07465000
31
  0.00000000
0
CIRCLE
8
DC
6
CONTINUOUS
62
7
10
  0.12830000
20
 -0.07480000
30
  0.00000000
40
  0.00020000
0
LINE
8
DC
6
CONTINUOUS
62
7
10
  0.12930000
20
 -0.07500000
30
  0.00000000
11
  0.12930000
21
 -0.07500000
31
  0.00000000
0
LINE
8
DC
6
CONTINUOUS
62
7
10
  0.12916771
20
 -0.07495000
30
  0.00000000
11
  0.12943229
21
 -0.07495000
31
  0.00000000
0
LINE
8
DC
6
CONTINUOUS
62
7
10
  0.12912679
20
 -0.07490000
30
  0.00000000
11
  0.12947321
21
 -0.07490000
31
  0.00000000
0
LINE
8
DC
6
CONTINUOUS
62
7
10
  0.12910635
20
 -0.07485000
30
  0.00000000
11
  0.12949365
21
 -0.07485000
31
  0.00000000
0
LINE
8
DC
6
CONTINUOUS
62
7
10
  0.12910000
20
 -0.07480000
30
  0.00000000
11
  0.12950000
21
 -0.07480000
31
  0.00000000
0
LINE
8
DC
6
CONTINUOUS
62
7
10
  0.12910635
20
 -0.07475000
30
  0.00000000
11
  0.12949365
21
 -0.07475000
31
  0.00000000
0
LINE
8
DC
6
CONTINUOUS
62
7
10
  0.12912679
20
 -0.07470000
30
  0.00000000
11
  0.12947321
21
 -0.07470000
31
  0.00000000
0
LINE
8
DC
6
CONTINUOUS
62
7
10
  0.12916771
20
 -0.07465000
30
  0.00000000
11
  0.12943229
21
 -0.07465000
31
  0.00000000
0
CIRCLE
8
DC
6
CONTINUOUS
62
7
10
  0.12930000
20
 -0.07480000
30
  0.00000000
40
  0.00020000
0
TEXT
8
DC
62
7
10
  0.12710000
20
 -0.07670000
30
  0.00000000
40
  0.00325000
41
  0.60000000
1
A
50
  0.00000000
72
1
73
3
11
  0.12710000
21
 -0.07670000
31
  0.00000000
0
LINE
8
DC
6
CONTINUOUS
62
7
10
  0.11960000
20
 -0.05500000
30
  0.00000000
11
  0.13460000
21
 -0.05500000
31
  0.00000000
0
LINE
8
DC
6
CONTINUOUS
62
7
10
  0.13460000
20
 -0.05500000
30
  0.00000000
11
  0.13560000
21
 -0.06100000
31
  0.00000000
0
LINE
8
DC
6
CONTINUOUS
62
7
10
  0.13560000
20
 -0.06100000
30
  0.00000000
11
  0.17660000
21
 -0.06100000
31
  0.00000000
0
LINE
8
DC
6
CONTINUOUS
62
7
10
  0.11960000
20
 -0.08300000
30
  0.00000000
11
  0.11860000
21
 -0.08300000
31
  0.00000000
0
LINE
8
DC
6
CONTINUOUS
62
7
10
  0.10920000
20
 -0.08300000
30
  0.00000000
11
  0.11860000
21
 -0.08300000
31
  0.00000000
0
TEXT
8
DC
62
7
10
  0.11860000
20
 -0.08250000
30
  0.00000000
40
  0.00250000
41
  0.60000000
1
    1.90m
50
  0.00000000
72
2
73
0
11
  0.11860000
21
 -0.08250000
31
  0.00000000
0
TEXT
8
DC
62
7
10
  0.13660000
20
 -0.06730000
30
  0.00000000
40
  0.00216667
41
  0.60000000
1
Auffüllung, Ton, schluffig, 
50
  0.00000000
72
0
73
1
11
  0.13660000
21
 -0.06730000
31
  0.00000000
0
TEXT
8
DC
62
7
10
  0.13660000
20
 -0.07040000
30
  0.00000000
40
  0.00216667
41
  0.60000000
1
feinsandig
50
  0.00000000
72
0
73
1
11
  0.13660000
21
 -0.07040000
31
  0.00000000
0
TEXT
8
DC
62
7
10
  0.13660000
20
 -0.07350000
30
  0.00000000
40
  0.00216667
41
  0.60000000
1
weich bis steif
50
  0.00000000
72
0
73
1
11
  0.13660000
21
 -0.07350000
31
  0.00000000
0
TEXT
8
DC
62
7
10
  0.13660000
20
 -0.07660000
30
  0.00000000
40
  0.00216667
41
  0.60000000
1
erdfeucht
50
  0.00000000
72
0
73
1
11
  0.13660000
21
 -0.07660000
31
  0.00000000
0
TEXT
8
DC
62
7
10
  0.13660000
20
 -0.07970000
30
  0.00000000
40
  0.00216667
41
  0.60000000
1
dunkelbraun
50
  0.00000000
72
0
73
1
11
  0.13660000
21
 -0.07970000
31
  0.00000000
0
CIRCLE
8
DC
6
CONTINUOUS
62
7
10
  0.18290000
20
 -0.07200000
30
  0.00000000
40
  0.00530000
0
TEXT
8
DC
62
7
10
  0.17990000
20
 -0.07400000
30
  0.00000000
40
  0.00250000
41
  0.60000000
1
[TL]
50
  0.00000000
72
0
73
1
11
  0.17990000
21
 -0.07400000
31
  0.00000000
0
LINE
8
DC
6
CONTINUOUS
62
7
10
  0.17040000
20
 -0.06890000
30
  0.00000000
11
  0.17660000
21
 -0.06890000
31
  0.00000000
0
LINE
8
DC
6
CONTINUOUS
62
7
10
  0.17660000
20
 -0.06890000
30
  0.00000000
11
  0.17660000
21
 -0.07510000
31
  0.00000000
0
LINE
8
DC
6
CONTINUOUS
62
7
10
  0.17660000
20
 -0.07510000
30
  0.00000000
11
  0.17040000
21
 -0.07510000
31
  0.00000000
0
LINE
8
DC
6
CONTINUOUS
62
7
10
  0.17040000
20
 -0.07510000
30
  0.00000000
11
  0.17040000
21
 -0.06890000
31
  0.00000000
0
TEXT
8
DC
62
7
10
  0.17350000
20
 -0.07400000
30
  0.00000000
40
  0.00250000
41
  0.60000000
1
4
50
  0.00000000
72
1
73
1
11
  0.17350000
21
 -0.07400000
31
  0.00000000
0
LINE
8
DC
6
GESTRICHELT
62
7
10
  0.13120000
20
 -0.08300000
30
  0.00000000
11
  0.13120000
21
 -0.10500000
31
  0.00000000
0
SOLID
8
DC
62
253
10
  0.11960000
20
 -0.08300000
30
  0.00000000
11
  0.12470000
21
 -0.08300000
31
  0.00000000
12
  0.11960000
22
 -0.10510000
32
  0.00000000
13
  0.12470000
23
 -0.10510000
33
  0.00000000
0
LINE
8
DC
6
CONTINUOUS
62
7
10
  0.11960000
20
 -0.08300000
30
  0.00000000
11
  0.12470000
21
 -0.08300000
31
  0.00000000
0
LINE
8
DC
6
CONTINUOUS
62
7
10
  0.12470000
20
 -0.08300000
30
  0.00000000
11
  0.12470000
21
 -0.10510000
31
  0.00000000
0
LINE
8
DC
6
CONTINUOUS
62
7
10
  0.12470000
20
 -0.10510000
30
  0.00000000
11
  0.11960000
21
 -0.10510000
31
  0.00000000
0
LINE
8
DC
6
CONTINUOUS
62
7
10
  0.11960000
20
 -0.10510000
30
  0.00000000
11
  0.11960000
21
 -0.08300000
31
  0.00000000
0
SOLID
8
DC
62
200
10
  0.12470000
20
 -0.08300000
30
  0.00000000
11
  0.12970000
21
 -0.08300000
31
  0.00000000
12
  0.12470000
22
 -0.10510000
32
  0.00000000
13
  0.12970000
23
 -0.10510000
33
  0.00000000
0
LINE
8
DC
6
CONTINUOUS
62
7
10
  0.12470000
20
 -0.08300000
30
  0.00000000
11
  0.12970000
21
 -0.08300000
31
  0.00000000
0
LINE
8
DC
6
CONTINUOUS
62
7
10
  0.12970000
20
 -0.08300000
30
  0.00000000
11
  0.12970000
21
 -0.10510000
31
  0.00000000
0
LINE
8
DC
6
CONTINUOUS
62
7
10
  0.12970000
20
 -0.10510000
30
  0.00000000
11
  0.12470000
21
 -0.10510000
31
  0.00000000
0
LINE
8
DC
6
CONTINUOUS
62
7
10
  0.12470000
20
 -0.10510000
30
  0.00000000
11
  0.12470000
21
 -0.08300000
31
  0.00000000
0
LINE
8
DC
6
CONTINUOUS
62
7
10
  0.11960000
20
 -0.08550000
30
  0.00000000
11
  0.12210000
21
 -0.08300000
31
  0.00000000
0
LINE
8
DC
6
CONTINUOUS
62
7
10
  0.12210000
20
 -0.08800000
30
  0.00000000
11
  0.12460000
21
 -0.08550000
31
  0.00000000
0
LINE
8
DC
6
CONTINUOUS
62
7
10
  0.11960000
20
 -0.08800000
30
  0.00000000
11
  0.12460000
21
 -0.08300000
31
  0.00000000
0
LINE
8
DC
6
CONTINUOUS
62
7
10
  0.12010000
20
 -0.08880000
30
  0.00000000
11
  0.12310000
21
 -0.08880000
31
  0.00000000
0
LINE
8
DC
6
CONTINUOUS
62
7
10
  0.12110000
20
 -0.09040000
30
  0.00000000
11
  0.12410000
21
 -0.09040000
31
  0.00000000
0
LINE
8
DC
6
CONTINUOUS
62
7
10
  0.11960000
20
 -0.09380000
30
  0.00000000
11
  0.12210000
21
 -0.09130000
31
  0.00000000
0
LINE
8
DC
6
CONTINUOUS
62
7
10
  0.12210000
20
 -0.09630000
30
  0.00000000
11
  0.12460000
21
 -0.09380000
31
  0.00000000
0
LINE
8
DC
6
CONTINUOUS
62
7
10
  0.11960000
20
 -0.09630000
30
  0.00000000
11
  0.12460000
21
 -0.09130000
31
  0.00000000
0
LINE
8
DC
6
CONTINUOUS
62
7
10
  0.12010000
20
 -0.09710000
30
  0.00000000
11
  0.12310000
21
 -0.09710000
31
  0.00000000
0
LINE
8
DC
6
CONTINUOUS
62
7
10
  0.12110000
20
 -0.09870000
30
  0.00000000
11
  0.12410000
21
 -0.09870000
31
  0.00000000
0
LINE
8
DC
6
CONTINUOUS
62
7
10
  0.11960000
20
 -0.10210000
30
  0.00000000
11
  0.12210000
21
 -0.09960000
31
  0.00000000
0
LINE
8
DC
6
CONTINUOUS
62
7
10
  0.12210000
20
 -0.10460000
30
  0.00000000
11
  0.12460000
21
 -0.10210000
31
  0.00000000
0
LINE
8
DC
6
CONTINUOUS
62
7
10
  0.11960000
20
 -0.10460000
30
  0.00000000
11
  0.12460000
21
 -0.09960000
31
  0.00000000
0
LINE
8
DC
6
CONTINUOUS
62
7
10
  0.12620000
20
 -0.08510000
30
  0.00000000
11
  0.12620000
21
 -0.08510000
31
  0.00000000
0
LINE
8
DC
6
CONTINUOUS
62
7
10
  0.12598206
20
 -0.08505000
30
  0.00000000
11
  0.12641794
21
 -0.08505000
31
  0.00000000
0
LINE
8
DC
6
CONTINUOUS
62
7
10
  0.12590000
20
 -0.08500000
30
  0.00000000
11
  0.12650000
21
 -0.08500000
31
  0.00000000
0
LINE
8
DC
6
CONTINUOUS
62
7
10
  0.12584293
20
 -0.08495000
30
  0.00000000
11
  0.12655707
21
 -0.08495000
31
  0.00000000
0
LINE
8
DC
6
CONTINUOUS
62
7
10
  0.12580000
20
 -0.08490000
30
  0.00000000
11
  0.12660000
21
 -0.08490000
31
  0.00000000
0
LINE
8
DC
6
CONTINUOUS
62
7
10
  0.12576699
20
 -0.08485000
30
  0.00000000
11
  0.12663301
21
 -0.08485000
31
  0.00000000
0
LINE
8
DC
6
CONTINUOUS
62
7
10
  0.12574174
20
 -0.08480000
30
  0.00000000
11
  0.12665826
21
 -0.08480000
31
  0.00000000
0
LINE
8
DC
6
CONTINUOUS
62
7
10
  0.12572303
20
 -0.08475000
30
  0.00000000
11
  0.12667697
21
 -0.08475000
31
  0.00000000
0
LINE
8
DC
6
CONTINUOUS
62
7
10
  0.12571010
20
 -0.08470000
30
  0.00000000
11
  0.12668990
21
 -0.08470000
31
  0.00000000
0
LINE
8
DC
6
CONTINUOUS
62
7
10
  0.12570251
20
 -0.08465000
30
  0.00000000
11
  0.12669749
21
 -0.08465000
31
  0.00000000
0
LINE
8
DC
6
CONTINUOUS
62
7
10
  0.12570000
20
 -0.08460000
30
  0.00000000
11
  0.12670000
21
 -0.08460000
31
  0.00000000
0
LINE
8
DC
6
CONTINUOUS
62
7
10
  0.12570251
20
 -0.08455000
30
  0.00000000
11
  0.12669749
21
 -0.08455000
31
  0.00000000
0
LINE
8
DC
6
CONTINUOUS
62
7
10
  0.12571010
20
 -0.08450000
30
  0.00000000
11
  0.12668990
21
 -0.08450000
31
  0.00000000
0
LINE
8
DC
6
CONTINUOUS
62
7
10
  0.12572303
20
 -0.08445000
30
  0.00000000
11
  0.12667697
21
 -0.08445000
31
  0.00000000
0
LINE
8
DC
6
CONTINUOUS
62
7
10
  0.12574174
20
 -0.08440000
30
  0.00000000
11
  0.12665826
21
 -0.08440000
31
  0.00000000
0
LINE
8
DC
6
CONTINUOUS
62
7
10
  0.12576699
20
 -0.08435000
30
  0.00000000
11
  0.12663301
21
 -0.08435000
31
  0.00000000
0
LINE
8
DC
6
CONTINUOUS
62
7
10
  0.12580000
20
 -0.08430000
30
  0.00000000
11
  0.12660000
21
 -0.08430000
31
  0.00000000
0
LINE
8
DC
6
CONTINUOUS
62
7
10
  0.12584293
20
 -0.08425000
30
  0.00000000
11
  0.12655707
21
 -0.08425000
31
  0.00000000
0
LINE
8
DC
6
CONTINUOUS
62
7
10
  0.12590000
20
 -0.08420000
30
  0.00000000
11
  0.12650000
21
 -0.08420000
31
  0.00000000
0
LINE
8
DC
6
CONTINUOUS
62
7
10
  0.12598206
20
 -0.08415000
30
  0.00000000
11
  0.12641794
21
 -0.08415000
31
  0.00000000
0
CIRCLE
8
DC
6
CONTINUOUS
62
7
10
  0.12620000
20
 -0.08460000
30
  0.00000000
40
  0.00050000
0
LINE
8
DC
6
CONTINUOUS
62
7
10
  0.12780000
20
 -0.08510000
30
  0.00000000
11
  0.12780000
21
 -0.08510000
31
  0.00000000
0
LINE
8
DC
6
CONTINUOUS
62
7
10
  0.12758206
20
 -0.08505000
30
  0.00000000
11
  0.12801794
21
 -0.08505000
31
  0.00000000
0
LINE
8
DC
6
CONTINUOUS
62
7
10
  0.12750000
20
 -0.08500000
30
  0.00000000
11
  0.12810000
21
 -0.08500000
31
  0.00000000
0
LINE
8
DC
6
CONTINUOUS
62
7
10
  0.12744293
20
 -0.08495000
30
  0.00000000
11
  0.12815707
21
 -0.08495000
31
  0.00000000
0
LINE
8
DC
6
CONTINUOUS
62
7
10
  0.12740000
20
 -0.08490000
30
  0.00000000
11
  0.12820000
21
 -0.08490000
31
  0.00000000
0
LINE
8
DC
6
CONTINUOUS
62
7
10
  0.12736699
20
 -0.08485000
30
  0.00000000
11
  0.12823301
21
 -0.08485000
31
  0.00000000
0
LINE
8
DC
6
CONTINUOUS
62
7
10
  0.12734174
20
 -0.08480000
30
  0.00000000
11
  0.12825826
21
 -0.08480000
31
  0.00000000
0
LINE
8
DC
6
CONTINUOUS
62
7
10
  0.12732303
20
 -0.08475000
30
  0.00000000
11
  0.12827697
21
 -0.08475000
31
  0.00000000
0
LINE
8
DC
6
CONTINUOUS
62
7
10
  0.12731010
20
 -0.08470000
30
  0.00000000
11
  0.12828990
21
 -0.08470000
31
  0.00000000
0
LINE
8
DC
6
CONTINUOUS
62
7
10
  0.12730251
20
 -0.08465000
30
  0.00000000
11
  0.12829749
21
 -0.08465000
31
  0.00000000
0
LINE
8
DC
6
CONTINUOUS
62
7
10
  0.12730000
20
 -0.08460000
30
  0.00000000
11
  0.12830000
21
 -0.08460000
31
  0.00000000
0
LINE
8
DC
6
CONTINUOUS
62
7
10
  0.12730251
20
 -0.08455000
30
  0.00000000
11
  0.12829749
21
 -0.08455000
31
  0.00000000
0
LINE
8
DC
6
CONTINUOUS
62
7
10
  0.12731010
20
 -0.08450000
30
  0.00000000
11
  0.12828990
21
 -0.08450000
31
  0.00000000
0
LINE
8
DC
6
CONTINUOUS
62
7
10
  0.12732303
20
 -0.08445000
30
  0.00000000
11
  0.12827697
21
 -0.08445000
31
  0.00000000
0
LINE
8
DC
6
CONTINUOUS
62
7
10
  0.12734174
20
 -0.08440000
30
  0.00000000
11
  0.12825826
21
 -0.08440000
31
  0.00000000
0
LINE
8
DC
6
CONTINUOUS
62
7
10
  0.12736699
20
 -0.08435000
30
  0.00000000
11
  0.12823301
21
 -0.08435000
31
  0.00000000
0
LINE
8
DC
6
CONTINUOUS
62
7
10
  0.12740000
20
 -0.08430000
30
  0.00000000
11
  0.12820000
21
 -0.08430000
31
  0.00000000
0
LINE
8
DC
6
CONTINUOUS
62
7
10
  0.12744293
20
 -0.08425000
30
  0.00000000
11
  0.12815707
21
 -0.08425000
31
  0.00000000
0
LINE
8
DC
6
CONTINUOUS
62
7
10
  0.12750000
20
 -0.08420000
30
  0.00000000
11
  0.12810000
21
 -0.08420000
31
  0.00000000
0
LINE
8
DC
6
CONTINUOUS
62
7
10
  0.12758206
20
 -0.08415000
30
  0.00000000
11
  0.12801794
21
 -0.08415000
31
  0.00000000
0
CIRCLE
8
DC
6
CONTINUOUS
62
7
10
  0.12780000
20
 -0.08460000
30
  0.00000000
40
  0.00050000
0
LINE
8
DC
6
CONTINUOUS
62
7
10
  0.12560000
20
 -0.08510000
30
  0.00000000
11
  0.12860000
21
 -0.08510000
31
  0.00000000
0
LINE
8
DC
6
CONTINUOUS
62
7
10
  0.12480000
20
 -0.08700000
30
  0.00000000
11
  0.12480000
21
 -0.08700000
31
  0.00000000
0
LINE
8
DC
6
CONTINUOUS
62
7
10
  0.12466771
20
 -0.08695000
30
  0.00000000
11
  0.12493229
21
 -0.08695000
31
  0.00000000
0
LINE
8
DC
6
CONTINUOUS
62
7
10
  0.12462679
20
 -0.08690000
30
  0.00000000
11
  0.12497321
21
 -0.08690000
31
  0.00000000
0
LINE
8
DC
6
CONTINUOUS
62
7
10
  0.12460635
20
 -0.08685000
30
  0.00000000
11
  0.12499365
21
 -0.08685000
31
  0.00000000
0
LINE
8
DC
6
CONTINUOUS
62
7
10
  0.12460000
20
 -0.08680000
30
  0.00000000
11
  0.12500000
21
 -0.08680000
31
  0.00000000
0
LINE
8
DC
6
CONTINUOUS
62
7
10
  0.12460635
20
 -0.08675000
30
  0.00000000
11
  0.12499365
21
 -0.08675000
31
  0.00000000
0
LINE
8
DC
6
CONTINUOUS
62
7
10
  0.12462679
20
 -0.08670000
30
  0.00000000
11
  0.12497321
21
 -0.08670000
31
  0.00000000
0
LINE
8
DC
6
CONTINUOUS
62
7
10
  0.12466771
20
 -0.08665000
30
  0.00000000
11
  0.12493229
21
 -0.08665000
31
  0.00000000
0
CIRCLE
8
DC
6
CONTINUOUS
62
7
10
  0.12480000
20
 -0.08680000
30
  0.00000000
40
  0.00020000
0
LINE
8
DC
6
CONTINUOUS
62
7
10
  0.12580000
20
 -0.08700000
30
  0.00000000
11
  0.12580000
21
 -0.08700000
31
  0.00000000
0
LINE
8
DC
6
CONTINUOUS
62
7
10
  0.12566771
20
 -0.08695000
30
  0.00000000
11
  0.12593229
21
 -0.08695000
31
  0.00000000
0
LINE
8
DC
6
CONTINUOUS
62
7
10
  0.12562679
20
 -0.08690000
30
  0.00000000
11
  0.12597321
21
 -0.08690000
31
  0.00000000
0
LINE
8
DC
6
CONTINUOUS
62
7
10
  0.12560635
20
 -0.08685000
30
  0.00000000
11
  0.12599365
21
 -0.08685000
31
  0.00000000
0
LINE
8
DC
6
CONTINUOUS
62
7
10
  0.12560000
20
 -0.08680000
30
  0.00000000
11
  0.12600000
21
 -0.08680000
31
  0.00000000
0
LINE
8
DC
6
CONTINUOUS
62
7
10
  0.12560635
20
 -0.08675000
30
  0.00000000
11
  0.12599365
21
 -0.08675000
31
  0.00000000
0
LINE
8
DC
6
CONTINUOUS
62
7
10
  0.12562679
20
 -0.08670000
30
  0.00000000
11
  0.12597321
21
 -0.08670000
31
  0.00000000
0
LINE
8
DC
6
CONTINUOUS
62
7
10
  0.12566771
20
 -0.08665000
30
  0.00000000
11
  0.12593229
21
 -0.08665000
31
  0.00000000
0
CIRCLE
8
DC
6
CONTINUOUS
62
7
10
  0.12580000
20
 -0.08680000
30
  0.00000000
40
  0.00020000
0
LINE
8
DC
6
CONTINUOUS
62
7
10
  0.12680000
20
 -0.08700000
30
  0.00000000
11
  0.12680000
21
 -0.08700000
31
  0.00000000
0
LINE
8
DC
6
CONTINUOUS
62
7
10
  0.12666771
20
 -0.08695000
30
  0.00000000
11
  0.12693229
21
 -0.08695000
31
  0.00000000
0
LINE
8
DC
6
CONTINUOUS
62
7
10
  0.12662679
20
 -0.08690000
30
  0.00000000
11
  0.12697321
21
 -0.08690000
31
  0.00000000
0
LINE
8
DC
6
CONTINUOUS
62
7
10
  0.12660635
20
 -0.08685000
30
  0.00000000
11
  0.12699365
21
 -0.08685000
31
  0.00000000
0
LINE
8
DC
6
CONTINUOUS
62
7
10
  0.12660000
20
 -0.08680000
30
  0.00000000
11
  0.12700000
21
 -0.08680000
31
  0.00000000
0
LINE
8
DC
6
CONTINUOUS
62
7
10
  0.12660635
20
 -0.08675000
30
  0.00000000
11
  0.12699365
21
 -0.08675000
31
  0.00000000
0
LINE
8
DC
6
CONTINUOUS
62
7
10
  0.12662679
20
 -0.08670000
30
  0.00000000
11
  0.12697321
21
 -0.08670000
31
  0.00000000
0
LINE
8
DC
6
CONTINUOUS
62
7
10
  0.12666771
20
 -0.08665000
30
  0.00000000
11
  0.12693229
21
 -0.08665000
31
  0.00000000
0
CIRCLE
8
DC
6
CONTINUOUS
62
7
10
  0.12680000
20
 -0.08680000
30
  0.00000000
40
  0.00020000
0
LINE
8
DC
6
CONTINUOUS
62
7
10
  0.12780000
20
 -0.08700000
30
  0.00000000
11
  0.12780000
21
 -0.08700000
31
  0.00000000
0
LINE
8
DC
6
CONTINUOUS
62
7
10
  0.12766771
20
 -0.08695000
30
  0.00000000
11
  0.12793229
21
 -0.08695000
31
  0.00000000
0
LINE
8
DC
6
CONTINUOUS
62
7
10
  0.12762679
20
 -0.08690000
30
  0.00000000
11
  0.12797321
21
 -0.08690000
31
  0.00000000
0
LINE
8
DC
6
CONTINUOUS
62
7
10
  0.12760635
20
 -0.08685000
30
  0.00000000
11
  0.12799365
21
 -0.08685000
31
  0.00000000
0
LINE
8
DC
6
CONTINUOUS
62
7
10
  0.12760000
20
 -0.08680000
30
  0.00000000
11
  0.12800000
21
 -0.08680000
31
  0.00000000
0
LINE
8
DC
6
CONTINUOUS
62
7
10
  0.12760635
20
 -0.08675000
30
  0.00000000
11
  0.12799365
21
 -0.08675000
31
  0.00000000
0
LINE
8
DC
6
CONTINUOUS
62
7
10
  0.12762679
20
 -0.08670000
30
  0.00000000
11
  0.12797321
21
 -0.08670000
31
  0.00000000
0
LINE
8
DC
6
CONTINUOUS
62
7
10
  0.12766771
20
 -0.08665000
30
  0.00000000
11
  0.12793229
21
 -0.08665000
31
  0.00000000
0
CIRCLE
8
DC
6
CONTINUOUS
62
7
10
  0.12780000
20
 -0.08680000
30
  0.00000000
40
  0.00020000
0
LINE
8
DC
6
CONTINUOUS
62
7
10
  0.12880000
20
 -0.08700000
30
  0.00000000
11
  0.12880000
21
 -0.08700000
31
  0.00000000
0
LINE
8
DC
6
CONTINUOUS
62
7
10
  0.12866771
20
 -0.08695000
30
  0.00000000
11
  0.12893229
21
 -0.08695000
31
  0.00000000
0
LINE
8
DC
6
CONTINUOUS
62
7
10
  0.12862679
20
 -0.08690000
30
  0.00000000
11
  0.12897321
21
 -0.08690000
31
  0.00000000
0
LINE
8
DC
6
CONTINUOUS
62
7
10
  0.12860635
20
 -0.08685000
30
  0.00000000
11
  0.12899365
21
 -0.08685000
31
  0.00000000
0
LINE
8
DC
6
CONTINUOUS
62
7
10
  0.12860000
20
 -0.08680000
30
  0.00000000
11
  0.12900000
21
 -0.08680000
31
  0.00000000
0
LINE
8
DC
6
CONTINUOUS
62
7
10
  0.12860635
20
 -0.08675000
30
  0.00000000
11
  0.12899365
21
 -0.08675000
31
  0.00000000
0
LINE
8
DC
6
CONTINUOUS
62
7
10
  0.12862679
20
 -0.08670000
30
  0.00000000
11
  0.12897321
21
 -0.08670000
31
  0.00000000
0
LINE
8
DC
6
CONTINUOUS
62
7
10
  0.12866771
20
 -0.08665000
30
  0.00000000
11
  0.12893229
21
 -0.08665000
31
  0.00000000
0
CIRCLE
8
DC
6
CONTINUOUS
62
7
10
  0.12880000
20
 -0.08680000
30
  0.00000000
40
  0.00020000
0
LINE
8
DC
6
CONTINUOUS
62
7
10
  0.12480000
20
 -0.08920000
30
  0.00000000
11
  0.12480000
21
 -0.08920000
31
  0.00000000
0
LINE
8
DC
6
CONTINUOUS
62
7
10
  0.12466771
20
 -0.08915000
30
  0.00000000
11
  0.12493229
21
 -0.08915000
31
  0.00000000
0
LINE
8
DC
6
CONTINUOUS
62
7
10
  0.12462679
20
 -0.08910000
30
  0.00000000
11
  0.12497321
21
 -0.08910000
31
  0.00000000
0
LINE
8
DC
6
CONTINUOUS
62
7
10
  0.12460635
20
 -0.08905000
30
  0.00000000
11
  0.12499365
21
 -0.08905000
31
  0.00000000
0
LINE
8
DC
6
CONTINUOUS
62
7
10
  0.12460000
20
 -0.08900000
30
  0.00000000
11
  0.12500000
21
 -0.08900000
31
  0.00000000
0
LINE
8
DC
6
CONTINUOUS
62
7
10
  0.12460635
20
 -0.08895000
30
  0.00000000
11
  0.12499365
21
 -0.08895000
31
  0.00000000
0
LINE
8
DC
6
CONTINUOUS
62
7
10
  0.12462679
20
 -0.08890000
30
  0.00000000
11
  0.12497321
21
 -0.08890000
31
  0.00000000
0
LINE
8
DC
6
CONTINUOUS
62
7
10
  0.12466771
20
 -0.08885000
30
  0.00000000
11
  0.12493229
21
 -0.08885000
31
  0.00000000
0
CIRCLE
8
DC
6
CONTINUOUS
62
7
10
  0.12480000
20
 -0.08900000
30
  0.00000000
40
  0.00020000
0
LINE
8
DC
6
CONTINUOUS
62
7
10
  0.12580000
20
 -0.08920000
30
  0.00000000
11
  0.12580000
21
 -0.08920000
31
  0.00000000
0
LINE
8
DC
6
CONTINUOUS
62
7
10
  0.12566771
20
 -0.08915000
30
  0.00000000
11
  0.12593229
21
 -0.08915000
31
  0.00000000
0
LINE
8
DC
6
CONTINUOUS
62
7
10
  0.12562679
20
 -0.08910000
30
  0.00000000
11
  0.12597321
21
 -0.08910000
31
  0.00000000
0
LINE
8
DC
6
CONTINUOUS
62
7
10
  0.12560635
20
 -0.08905000
30
  0.00000000
11
  0.12599365
21
 -0.08905000
31
  0.00000000
0
LINE
8
DC
6
CONTINUOUS
62
7
10
  0.12560000
20
 -0.08900000
30
  0.00000000
11
  0.12600000
21
 -0.08900000
31
  0.00000000
0
LINE
8
DC
6
CONTINUOUS
62
7
10
  0.12560635
20
 -0.08895000
30
  0.00000000
11
  0.12599365
21
 -0.08895000
31
  0.00000000
0
LINE
8
DC
6
CONTINUOUS
62
7
10
  0.12562679
20
 -0.08890000
30
  0.00000000
11
  0.12597321
21
 -0.08890000
31
  0.00000000
0
LINE
8
DC
6
CONTINUOUS
62
7
10
  0.12566771
20
 -0.08885000
30
  0.00000000
11
  0.12593229
21
 -0.08885000
31
  0.00000000
0
CIRCLE
8
DC
6
CONTINUOUS
62
7
10
  0.12580000
20
 -0.08900000
30
  0.00000000
40
  0.00020000
0
LINE
8
DC
6
CONTINUOUS
62
7
10
  0.12680000
20
 -0.08920000
30
  0.00000000
11
  0.12680000
21
 -0.08920000
31
  0.00000000
0
LINE
8
DC
6
CONTINUOUS
62
7
10
  0.12666771
20
 -0.08915000
30
  0.00000000
11
  0.12693229
21
 -0.08915000
31
  0.00000000
0
LINE
8
DC
6
CONTINUOUS
62
7
10
  0.12662679
20
 -0.08910000
30
  0.00000000
11
  0.12697321
21
 -0.08910000
31
  0.00000000
0
LINE
8
DC
6
CONTINUOUS
62
7
10
  0.12660635
20
 -0.08905000
30
  0.00000000
11
  0.12699365
21
 -0.08905000
31
  0.00000000
0
LINE
8
DC
6
CONTINUOUS
62
7
10
  0.12660000
20
 -0.08900000
30
  0.00000000
11
  0.12700000
21
 -0.08900000
31
  0.00000000
0
LINE
8
DC
6
CONTINUOUS
62
7
10
  0.12660635
20
 -0.08895000
30
  0.00000000
11
  0.12699365
21
 -0.08895000
31
  0.00000000
0
LINE
8
DC
6
CONTINUOUS
62
7
10
  0.12662679
20
 -0.08890000
30
  0.00000000
11
  0.12697321
21
 -0.08890000
31
  0.00000000
0
LINE
8
DC
6
CONTINUOUS
62
7
10
  0.12666771
20
 -0.08885000
30
  0.00000000
11
  0.12693229
21
 -0.08885000
31
  0.00000000
0
CIRCLE
8
DC
6
CONTINUOUS
62
7
10
  0.12680000
20
 -0.08900000
30
  0.00000000
40
  0.00020000
0
LINE
8
DC
6
CONTINUOUS
62
7
10
  0.12780000
20
 -0.08920000
30
  0.00000000
11
  0.12780000
21
 -0.08920000
31
  0.00000000
0
LINE
8
DC
6
CONTINUOUS
62
7
10
  0.12766771
20
 -0.08915000
30
  0.00000000
11
  0.12793229
21
 -0.08915000
31
  0.00000000
0
LINE
8
DC
6
CONTINUOUS
62
7
10
  0.12762679
20
 -0.08910000
30
  0.00000000
11
  0.12797321
21
 -0.08910000
31
  0.00000000
0
LINE
8
DC
6
CONTINUOUS
62
7
10
  0.12760635
20
 -0.08905000
30
  0.00000000
11
  0.12799365
21
 -0.08905000
31
  0.00000000
0
LINE
8
DC
6
CONTINUOUS
62
7
10
  0.12760000
20
 -0.08900000
30
  0.00000000
11
  0.12800000
21
 -0.08900000
31
  0.00000000
0
LINE
8
DC
6
CONTINUOUS
62
7
10
  0.12760635
20
 -0.08895000
30
  0.00000000
11
  0.12799365
21
 -0.08895000
31
  0.00000000
0
LINE
8
DC
6
CONTINUOUS
62
7
10
  0.12762679
20
 -0.08890000
30
  0.00000000
11
  0.12797321
21
 -0.08890000
31
  0.00000000
0
LINE
8
DC
6
CONTINUOUS
62
7
10
  0.12766771
20
 -0.08885000
30
  0.00000000
11
  0.12793229
21
 -0.08885000
31
  0.00000000
0
CIRCLE
8
DC
6
CONTINUOUS
62
7
10
  0.12780000
20
 -0.08900000
30
  0.00000000
40
  0.00020000
0
LINE
8
DC
6
CONTINUOUS
62
7
10
  0.12880000
20
 -0.08920000
30
  0.00000000
11
  0.12880000
21
 -0.08920000
31
  0.00000000
0
LINE
8
DC
6
CONTINUOUS
62
7
10
  0.12866771
20
 -0.08915000
30
  0.00000000
11
  0.12893229
21
 -0.08915000
31
  0.00000000
0
LINE
8
DC
6
CONTINUOUS
62
7
10
  0.12862679
20
 -0.08910000
30
  0.00000000
11
  0.12897321
21
 -0.08910000
31
  0.00000000
0
LINE
8
DC
6
CONTINUOUS
62
7
10
  0.12860635
20
 -0.08905000
30
  0.00000000
11
  0.12899365
21
 -0.08905000
31
  0.00000000
0
LINE
8
DC
6
CONTINUOUS
62
7
10
  0.12860000
20
 -0.08900000
30
  0.00000000
11
  0.12900000
21
 -0.08900000
31
  0.00000000
0
LINE
8
DC
6
CONTINUOUS
62
7
10
  0.12860635
20
 -0.08895000
30
  0.00000000
11
  0.12899365
21
 -0.08895000
31
  0.00000000
0
LINE
8
DC
6
CONTINUOUS
62
7
10
  0.12862679
20
 -0.08890000
30
  0.00000000
11
  0.12897321
21
 -0.08890000
31
  0.00000000
0
LINE
8
DC
6
CONTINUOUS
62
7
10
  0.12866771
20
 -0.08885000
30
  0.00000000
11
  0.12893229
21
 -0.08885000
31
  0.00000000
0
CIRCLE
8
DC
6
CONTINUOUS
62
7
10
  0.12880000
20
 -0.08900000
30
  0.00000000
40
  0.00020000
0
LINE
8
DC
6
CONTINUOUS
62
7
10
  0.12530000
20
 -0.08810000
30
  0.00000000
11
  0.12530000
21
 -0.08810000
31
  0.00000000
0
LINE
8
DC
6
CONTINUOUS
62
7
10
  0.12516771
20
 -0.08805000
30
  0.00000000
11
  0.12543229
21
 -0.08805000
31
  0.00000000
0
LINE
8
DC
6
CONTINUOUS
62
7
10
  0.12512679
20
 -0.08800000
30
  0.00000000
11
  0.12547321
21
 -0.08800000
31
  0.00000000
0
LINE
8
DC
6
CONTINUOUS
62
7
10
  0.12510635
20
 -0.08795000
30
  0.00000000
11
  0.12549365
21
 -0.08795000
31
  0.00000000
0
LINE
8
DC
6
CONTINUOUS
62
7
10
  0.12510000
20
 -0.08790000
30
  0.00000000
11
  0.12550000
21
 -0.08790000
31
  0.00000000
0
LINE
8
DC
6
CONTINUOUS
62
7
10
  0.12510635
20
 -0.08785000
30
  0.00000000
11
  0.12549365
21
 -0.08785000
31
  0.00000000
0
LINE
8
DC
6
CONTINUOUS
62
7
10
  0.12512679
20
 -0.08780000
30
  0.00000000
11
  0.12547321
21
 -0.08780000
31
  0.00000000
0
LINE
8
DC
6
CONTINUOUS
62
7
10
  0.12516771
20
 -0.08775000
30
  0.00000000
11
  0.12543229
21
 -0.08775000
31
  0.00000000
0
CIRCLE
8
DC
6
CONTINUOUS
62
7
10
  0.12530000
20
 -0.08790000
30
  0.00000000
40
  0.00020000
0
LINE
8
DC
6
CONTINUOUS
62
7
10
  0.12630000
20
 -0.08810000
30
  0.00000000
11
  0.12630000
21
 -0.08810000
31
  0.00000000
0
LINE
8
DC
6
CONTINUOUS
62
7
10
  0.12616771
20
 -0.08805000
30
  0.00000000
11
  0.12643229
21
 -0.08805000
31
  0.00000000
0
LINE
8
DC
6
CONTINUOUS
62
7
10
  0.12612679
20
 -0.08800000
30
  0.00000000
11
  0.12647321
21
 -0.08800000
31
  0.00000000
0
LINE
8
DC
6
CONTINUOUS
62
7
10
  0.12610635
20
 -0.08795000
30
  0.00000000
11
  0.12649365
21
 -0.08795000
31
  0.00000000
0
LINE
8
DC
6
CONTINUOUS
62
7
10
  0.12610000
20
 -0.08790000
30
  0.00000000
11
  0.12650000
21
 -0.08790000
31
  0.00000000
0
LINE
8
DC
6
CONTINUOUS
62
7
10
  0.12610635
20
 -0.08785000
30
  0.00000000
11
  0.12649365
21
 -0.08785000
31
  0.00000000
0
LINE
8
DC
6
CONTINUOUS
62
7
10
  0.12612679
20
 -0.08780000
30
  0.00000000
11
  0.12647321
21
 -0.08780000
31
  0.00000000
0
LINE
8
DC
6
CONTINUOUS
62
7
10
  0.12616771
20
 -0.08775000
30
  0.00000000
11
  0.12643229
21
 -0.08775000
31
  0.00000000
0
CIRCLE
8
DC
6
CONTINUOUS
62
7
10
  0.12630000
20
 -0.08790000
30
  0.00000000
40
  0.00020000
0
LINE
8
DC
6
CONTINUOUS
62
7
10
  0.12730000
20
 -0.08810000
30
  0.00000000
11
  0.12730000
21
 -0.08810000
31
  0.00000000
0
LINE
8
DC
6
CONTINUOUS
62
7
10
  0.12716771
20
 -0.08805000
30
  0.00000000
11
  0.12743229
21
 -0.08805000
31
  0.00000000
0
LINE
8
DC
6
CONTINUOUS
62
7
10
  0.12712679
20
 -0.08800000
30
  0.00000000
11
  0.12747321
21
 -0.08800000
31
  0.00000000
0
LINE
8
DC
6
CONTINUOUS
62
7
10
  0.12710635
20
 -0.08795000
30
  0.00000000
11
  0.12749365
21
 -0.08795000
31
  0.00000000
0
LINE
8
DC
6
CONTINUOUS
62
7
10
  0.12710000
20
 -0.08790000
30
  0.00000000
11
  0.12750000
21
 -0.08790000
31
  0.00000000
0
LINE
8
DC
6
CONTINUOUS
62
7
10
  0.12710635
20
 -0.08785000
30
  0.00000000
11
  0.12749365
21
 -0.08785000
31
  0.00000000
0
LINE
8
DC
6
CONTINUOUS
62
7
10
  0.12712679
20
 -0.08780000
30
  0.00000000
11
  0.12747321
21
 -0.08780000
31
  0.00000000
0
LINE
8
DC
6
CONTINUOUS
62
7
10
  0.12716771
20
 -0.08775000
30
  0.00000000
11
  0.12743229
21
 -0.08775000
31
  0.00000000
0
CIRCLE
8
DC
6
CONTINUOUS
62
7
10
  0.12730000
20
 -0.08790000
30
  0.00000000
40
  0.00020000
0
LINE
8
DC
6
CONTINUOUS
62
7
10
  0.12830000
20
 -0.08810000
30
  0.00000000
11
  0.12830000
21
 -0.08810000
31
  0.00000000
0
LINE
8
DC
6
CONTINUOUS
62
7
10
  0.12816771
20
 -0.08805000
30
  0.00000000
11
  0.12843229
21
 -0.08805000
31
  0.00000000
0
LINE
8
DC
6
CONTINUOUS
62
7
10
  0.12812679
20
 -0.08800000
30
  0.00000000
11
  0.12847321
21
 -0.08800000
31
  0.00000000
0
LINE
8
DC
6
CONTINUOUS
62
7
10
  0.12810635
20
 -0.08795000
30
  0.00000000
11
  0.12849365
21
 -0.08795000
31
  0.00000000
0
LINE
8
DC
6
CONTINUOUS
62
7
10
  0.12810000
20
 -0.08790000
30
  0.00000000
11
  0.12850000
21
 -0.08790000
31
  0.00000000
0
LINE
8
DC
6
CONTINUOUS
62
7
10
  0.12810635
20
 -0.08785000
30
  0.00000000
11
  0.12849365
21
 -0.08785000
31
  0.00000000
0
LINE
8
DC
6
CONTINUOUS
62
7
10
  0.12812679
20
 -0.08780000
30
  0.00000000
11
  0.12847321
21
 -0.08780000
31
  0.00000000
0
LINE
8
DC
6
CONTINUOUS
62
7
10
  0.12816771
20
 -0.08775000
30
  0.00000000
11
  0.12843229
21
 -0.08775000
31
  0.00000000
0
CIRCLE
8
DC
6
CONTINUOUS
62
7
10
  0.12830000
20
 -0.08790000
30
  0.00000000
40
  0.00020000
0
LINE
8
DC
6
CONTINUOUS
62
7
10
  0.12930000
20
 -0.08810000
30
  0.00000000
11
  0.12930000
21
 -0.08810000
31
  0.00000000
0
LINE
8
DC
6
CONTINUOUS
62
7
10
  0.12916771
20
 -0.08805000
30
  0.00000000
11
  0.12943229
21
 -0.08805000
31
  0.00000000
0
LINE
8
DC
6
CONTINUOUS
62
7
10
  0.12912679
20
 -0.08800000
30
  0.00000000
11
  0.12947321
21
 -0.08800000
31
  0.00000000
0
LINE
8
DC
6
CONTINUOUS
62
7
10
  0.12910635
20
 -0.08795000
30
  0.00000000
11
  0.12949365
21
 -0.08795000
31
  0.00000000
0
LINE
8
DC
6
CONTINUOUS
62
7
10
  0.12910000
20
 -0.08790000
30
  0.00000000
11
  0.12950000
21
 -0.08790000
31
  0.00000000
0
LINE
8
DC
6
CONTINUOUS
62
7
10
  0.12910635
20
 -0.08785000
30
  0.00000000
11
  0.12949365
21
 -0.08785000
31
  0.00000000
0
LINE
8
DC
6
CONTINUOUS
62
7
10
  0.12912679
20
 -0.08780000
30
  0.00000000
11
  0.12947321
21
 -0.08780000
31
  0.00000000
0
LINE
8
DC
6
CONTINUOUS
62
7
10
  0.12916771
20
 -0.08775000
30
  0.00000000
11
  0.12943229
21
 -0.08775000
31
  0.00000000
0
CIRCLE
8
DC
6
CONTINUOUS
62
7
10
  0.12930000
20
 -0.08790000
30
  0.00000000
40
  0.00020000
0
LINE
8
DC
6
CONTINUOUS
62
7
10
  0.12460000
20
 -0.09210000
30
  0.00000000
11
  0.12710000
21
 -0.08960000
31
  0.00000000
0
LINE
8
DC
6
CONTINUOUS
62
7
10
  0.12710000
20
 -0.09460000
30
  0.00000000
11
  0.12960000
21
 -0.09210000
31
  0.00000000
0
LINE
8
DC
6
CONTINUOUS
62
7
10
  0.12460000
20
 -0.09460000
30
  0.00000000
11
  0.12960000
21
 -0.08960000
31
  0.00000000
0
LINE
8
DC
6
CONTINUOUS
62
7
10
  0.12510000
20
 -0.09540000
30
  0.00000000
11
  0.12810000
21
 -0.09540000
31
  0.00000000
0
LINE
8
DC
6
CONTINUOUS
62
7
10
  0.12610000
20
 -0.09700000
30
  0.00000000
11
  0.12910000
21
 -0.09700000
31
  0.00000000
0
LINE
8
DC
6
CONTINUOUS
62
7
10
  0.12620000
20
 -0.10000000
30
  0.00000000
11
  0.12620000
21
 -0.10000000
31
  0.00000000
0
LINE
8
DC
6
CONTINUOUS
62
7
10
  0.12598206
20
 -0.09995000
30
  0.00000000
11
  0.12641794
21
 -0.09995000
31
  0.00000000
0
LINE
8
DC
6
CONTINUOUS
62
7
10
  0.12590000
20
 -0.09990000
30
  0.00000000
11
  0.12650000
21
 -0.09990000
31
  0.00000000
0
LINE
8
DC
6
CONTINUOUS
62
7
10
  0.12584293
20
 -0.09985000
30
  0.00000000
11
  0.12655707
21
 -0.09985000
31
  0.00000000
0
LINE
8
DC
6
CONTINUOUS
62
7
10
  0.12580000
20
 -0.09980000
30
  0.00000000
11
  0.12660000
21
 -0.09980000
31
  0.00000000
0
LINE
8
DC
6
CONTINUOUS
62
7
10
  0.12576699
20
 -0.09975000
30
  0.00000000
11
  0.12663301
21
 -0.09975000
31
  0.00000000
0
LINE
8
DC
6
CONTINUOUS
62
7
10
  0.12574174
20
 -0.09970000
30
  0.00000000
11
  0.12665826
21
 -0.09970000
31
  0.00000000
0
LINE
8
DC
6
CONTINUOUS
62
7
10
  0.12572303
20
 -0.09965000
30
  0.00000000
11
  0.12667697
21
 -0.09965000
31
  0.00000000
0
LINE
8
DC
6
CONTINUOUS
62
7
10
  0.12571010
20
 -0.09960000
30
  0.00000000
11
  0.12668990
21
 -0.09960000
31
  0.00000000
0
LINE
8
DC
6
CONTINUOUS
62
7
10
  0.12570251
20
 -0.09955000
30
  0.00000000
11
  0.12669749
21
 -0.09955000
31
  0.00000000
0
LINE
8
DC
6
CONTINUOUS
62
7
10
  0.12570000
20
 -0.09950000
30
  0.00000000
11
  0.12670000
21
 -0.09950000
31
  0.00000000
0
LINE
8
DC
6
CONTINUOUS
62
7
10
  0.12570251
20
 -0.09945000
30
  0.00000000
11
  0.12669749
21
 -0.09945000
31
  0.00000000
0
LINE
8
DC
6
CONTINUOUS
62
7
10
  0.12571010
20
 -0.09940000
30
  0.00000000
11
  0.12668990
21
 -0.09940000
31
  0.00000000
0
LINE
8
DC
6
CONTINUOUS
62
7
10
  0.12572303
20
 -0.09935000
30
  0.00000000
11
  0.12667697
21
 -0.09935000
31
  0.00000000
0
LINE
8
DC
6
CONTINUOUS
62
7
10
  0.12574174
20
 -0.09930000
30
  0.00000000
11
  0.12665826
21
 -0.09930000
31
  0.00000000
0
LINE
8
DC
6
CONTINUOUS
62
7
10
  0.12576699
20
 -0.09925000
30
  0.00000000
11
  0.12663301
21
 -0.09925000
31
  0.00000000
0
LINE
8
DC
6
CONTINUOUS
62
7
10
  0.12580000
20
 -0.09920000
30
  0.00000000
11
  0.12660000
21
 -0.09920000
31
  0.00000000
0
LINE
8
DC
6
CONTINUOUS
62
7
10
  0.12584293
20
 -0.09915000
30
  0.00000000
11
  0.12655707
21
 -0.09915000
31
  0.00000000
0
LINE
8
DC
6
CONTINUOUS
62
7
10
  0.12590000
20
 -0.09910000
30
  0.00000000
11
  0.12650000
21
 -0.09910000
31
  0.00000000
0
LINE
8
DC
6
CONTINUOUS
62
7
10
  0.12598206
20
 -0.09905000
30
  0.00000000
11
  0.12641794
21
 -0.09905000
31
  0.00000000
0
CIRCLE
8
DC
6
CONTINUOUS
62
7
10
  0.12620000
20
 -0.09950000
30
  0.00000000
40
  0.00050000
0
LINE
8
DC
6
CONTINUOUS
62
7
10
  0.12780000
20
 -0.10000000
30
  0.00000000
11
  0.12780000
21
 -0.10000000
31
  0.00000000
0
LINE
8
DC
6
CONTINUOUS
62
7
10
  0.12758206
20
 -0.09995000
30
  0.00000000
11
  0.12801794
21
 -0.09995000
31
  0.00000000
0
LINE
8
DC
6
CONTINUOUS
62
7
10
  0.12750000
20
 -0.09990000
30
  0.00000000
11
  0.12810000
21
 -0.09990000
31
  0.00000000
0
LINE
8
DC
6
CONTINUOUS
62
7
10
  0.12744293
20
 -0.09985000
30
  0.00000000
11
  0.12815707
21
 -0.09985000
31
  0.00000000
0
LINE
8
DC
6
CONTINUOUS
62
7
10
  0.12740000
20
 -0.09980000
30
  0.00000000
11
  0.12820000
21
 -0.09980000
31
  0.00000000
0
LINE
8
DC
6
CONTINUOUS
62
7
10
  0.12736699
20
 -0.09975000
30
  0.00000000
11
  0.12823301
21
 -0.09975000
31
  0.00000000
0
LINE
8
DC
6
CONTINUOUS
62
7
10
  0.12734174
20
 -0.09970000
30
  0.00000000
11
  0.12825826
21
 -0.09970000
31
  0.00000000
0
LINE
8
DC
6
CONTINUOUS
62
7
10
  0.12732303
20
 -0.09965000
30
  0.00000000
11
  0.12827697
21
 -0.09965000
31
  0.00000000
0
LINE
8
DC
6
CONTINUOUS
62
7
10
  0.12731010
20
 -0.09960000
30
  0.00000000
11
  0.12828990
21
 -0.09960000
31
  0.00000000
0
LINE
8
DC
6
CONTINUOUS
62
7
10
  0.12730251
20
 -0.09955000
30
  0.00000000
11
  0.12829749
21
 -0.09955000
31
  0.00000000
0
LINE
8
DC
6
CONTINUOUS
62
7
10
  0.12730000
20
 -0.09950000
30
  0.00000000
11
  0.12830000
21
 -0.09950000
31
  0.00000000
0
LINE
8
DC
6
CONTINUOUS
62
7
10
  0.12730251
20
 -0.09945000
30
  0.00000000
11
  0.12829749
21
 -0.09945000
31
  0.00000000
0
LINE
8
DC
6
CONTINUOUS
62
7
10
  0.12731010
20
 -0.09940000
30
  0.00000000
11
  0.12828990
21
 -0.09940000
31
  0.00000000
0
LINE
8
DC
6
CONTINUOUS
62
7
10
  0.12732303
20
 -0.09935000
30
  0.00000000
11
  0.12827697
21
 -0.09935000
31
  0.00000000
0
LINE
8
DC
6
CONTINUOUS
62
7
10
  0.12734174
20
 -0.09930000
30
  0.00000000
11
  0.12825826
21
 -0.09930000
31
  0.00000000
0
LINE
8
DC
6
CONTINUOUS
62
7
10
  0.12736699
20
 -0.09925000
30
  0.00000000
11
  0.12823301
21
 -0.09925000
31
  0.00000000
0
LINE
8
DC
6
CONTINUOUS
62
7
10
  0.12740000
20
 -0.09920000
30
  0.00000000
11
  0.12820000
21
 -0.09920000
31
  0.00000000
0
LINE
8
DC
6
CONTINUOUS
62
7
10
  0.12744293
20
 -0.09915000
30
  0.00000000
11
  0.12815707
21
 -0.09915000
31
  0.00000000
0
LINE
8
DC
6
CONTINUOUS
62
7
10
  0.12750000
20
 -0.09910000
30
  0.00000000
11
  0.12810000
21
 -0.09910000
31
  0.00000000
0
LINE
8
DC
6
CONTINUOUS
62
7
10
  0.12758206
20
 -0.09905000
30
  0.00000000
11
  0.12801794
21
 -0.09905000
31
  0.00000000
0
CIRCLE
8
DC
6
CONTINUOUS
62
7
10
  0.12780000
20
 -0.09950000
30
  0.00000000
40
  0.00050000
0
LINE
8
DC
6
CONTINUOUS
62
7
10
  0.12560000
20
 -0.10000000
30
  0.00000000
11
  0.12860000
21
 -0.10000000
31
  0.00000000
0
LINE
8
DC
6
CONTINUOUS
62
7
10
  0.12480000
20
 -0.10190000
30
  0.00000000
11
  0.12480000
21
 -0.10190000
31
  0.00000000
0
LINE
8
DC
6
CONTINUOUS
62
7
10
  0.12466771
20
 -0.10185000
30
  0.00000000
11
  0.12493229
21
 -0.10185000
31
  0.00000000
0
LINE
8
DC
6
CONTINUOUS
62
7
10
  0.12462679
20
 -0.10180000
30
  0.00000000
11
  0.12497321
21
 -0.10180000
31
  0.00000000
0
LINE
8
DC
6
CONTINUOUS
62
7
10
  0.12460635
20
 -0.10175000
30
  0.00000000
11
  0.12499365
21
 -0.10175000
31
  0.00000000
0
LINE
8
DC
6
CONTINUOUS
62
7
10
  0.12460000
20
 -0.10170000
30
  0.00000000
11
  0.12500000
21
 -0.10170000
31
  0.00000000
0
LINE
8
DC
6
CONTINUOUS
62
7
10
  0.12460635
20
 -0.10165000
30
  0.00000000
11
  0.12499365
21
 -0.10165000
31
  0.00000000
0
LINE
8
DC
6
CONTINUOUS
62
7
10
  0.12462679
20
 -0.10160000
30
  0.00000000
11
  0.12497321
21
 -0.10160000
31
  0.00000000
0
LINE
8
DC
6
CONTINUOUS
62
7
10
  0.12466771
20
 -0.10155000
30
  0.00000000
11
  0.12493229
21
 -0.10155000
31
  0.00000000
0
CIRCLE
8
DC
6
CONTINUOUS
62
7
10
  0.12480000
20
 -0.10170000
30
  0.00000000
40
  0.00020000
0
LINE
8
DC
6
CONTINUOUS
62
7
10
  0.12580000
20
 -0.10190000
30
  0.00000000
11
  0.12580000
21
 -0.10190000
31
  0.00000000
0
LINE
8
DC
6
CONTINUOUS
62
7
10
  0.12566771
20
 -0.10185000
30
  0.00000000
11
  0.12593229
21
 -0.10185000
31
  0.00000000
0
LINE
8
DC
6
CONTINUOUS
62
7
10
  0.12562679
20
 -0.10180000
30
  0.00000000
11
  0.12597321
21
 -0.10180000
31
  0.00000000
0
LINE
8
DC
6
CONTINUOUS
62
7
10
  0.12560635
20
 -0.10175000
30
  0.00000000
11
  0.12599365
21
 -0.10175000
31
  0.00000000
0
LINE
8
DC
6
CONTINUOUS
62
7
10
  0.12560000
20
 -0.10170000
30
  0.00000000
11
  0.12600000
21
 -0.10170000
31
  0.00000000
0
LINE
8
DC
6
CONTINUOUS
62
7
10
  0.12560635
20
 -0.10165000
30
  0.00000000
11
  0.12599365
21
 -0.10165000
31
  0.00000000
0
LINE
8
DC
6
CONTINUOUS
62
7
10
  0.12562679
20
 -0.10160000
30
  0.00000000
11
  0.12597321
21
 -0.10160000
31
  0.00000000
0
LINE
8
DC
6
CONTINUOUS
62
7
10
  0.12566771
20
 -0.10155000
30
  0.00000000
11
  0.12593229
21
 -0.10155000
31
  0.00000000
0
CIRCLE
8
DC
6
CONTINUOUS
62
7
10
  0.12580000
20
 -0.10170000
30
  0.00000000
40
  0.00020000
0
LINE
8
DC
6
CONTINUOUS
62
7
10
  0.12680000
20
 -0.10190000
30
  0.00000000
11
  0.12680000
21
 -0.10190000
31
  0.00000000
0
LINE
8
DC
6
CONTINUOUS
62
7
10
  0.12666771
20
 -0.10185000
30
  0.00000000
11
  0.12693229
21
 -0.10185000
31
  0.00000000
0
LINE
8
DC
6
CONTINUOUS
62
7
10
  0.12662679
20
 -0.10180000
30
  0.00000000
11
  0.12697321
21
 -0.10180000
31
  0.00000000
0
LINE
8
DC
6
CONTINUOUS
62
7
10
  0.12660635
20
 -0.10175000
30
  0.00000000
11
  0.12699365
21
 -0.10175000
31
  0.00000000
0
LINE
8
DC
6
CONTINUOUS
62
7
10
  0.12660000
20
 -0.10170000
30
  0.00000000
11
  0.12700000
21
 -0.10170000
31
  0.00000000
0
LINE
8
DC
6
CONTINUOUS
62
7
10
  0.12660635
20
 -0.10165000
30
  0.00000000
11
  0.12699365
21
 -0.10165000
31
  0.00000000
0
LINE
8
DC
6
CONTINUOUS
62
7
10
  0.12662679
20
 -0.10160000
30
  0.00000000
11
  0.12697321
21
 -0.10160000
31
  0.00000000
0
LINE
8
DC
6
CONTINUOUS
62
7
10
  0.12666771
20
 -0.10155000
30
  0.00000000
11
  0.12693229
21
 -0.10155000
31
  0.00000000
0
CIRCLE
8
DC
6
CONTINUOUS
62
7
10
  0.12680000
20
 -0.10170000
30
  0.00000000
40
  0.00020000
0
LINE
8
DC
6
CONTINUOUS
62
7
10
  0.12780000
20
 -0.10190000
30
  0.00000000
11
  0.12780000
21
 -0.10190000
31
  0.00000000
0
LINE
8
DC
6
CONTINUOUS
62
7
10
  0.12766771
20
 -0.10185000
30
  0.00000000
11
  0.12793229
21
 -0.10185000
31
  0.00000000
0
LINE
8
DC
6
CONTINUOUS
62
7
10
  0.12762679
20
 -0.10180000
30
  0.00000000
11
  0.12797321
21
 -0.10180000
31
  0.00000000
0
LINE
8
DC
6
CONTINUOUS
62
7
10
  0.12760635
20
 -0.10175000
30
  0.00000000
11
  0.12799365
21
 -0.10175000
31
  0.00000000
0
LINE
8
DC
6
CONTINUOUS
62
7
10
  0.12760000
20
 -0.10170000
30
  0.00000000
11
  0.12800000
21
 -0.10170000
31
  0.00000000
0
LINE
8
DC
6
CONTINUOUS
62
7
10
  0.12760635
20
 -0.10165000
30
  0.00000000
11
  0.12799365
21
 -0.10165000
31
  0.00000000
0
LINE
8
DC
6
CONTINUOUS
62
7
10
  0.12762679
20
 -0.10160000
30
  0.00000000
11
  0.12797321
21
 -0.10160000
31
  0.00000000
0
LINE
8
DC
6
CONTINUOUS
62
7
10
  0.12766771
20
 -0.10155000
30
  0.00000000
11
  0.12793229
21
 -0.10155000
31
  0.00000000
0
CIRCLE
8
DC
6
CONTINUOUS
62
7
10
  0.12780000
20
 -0.10170000
30
  0.00000000
40
  0.00020000
0
LINE
8
DC
6
CONTINUOUS
62
7
10
  0.12880000
20
 -0.10190000
30
  0.00000000
11
  0.12880000
21
 -0.10190000
31
  0.00000000
0
LINE
8
DC
6
CONTINUOUS
62
7
10
  0.12866771
20
 -0.10185000
30
  0.00000000
11
  0.12893229
21
 -0.10185000
31
  0.00000000
0
LINE
8
DC
6
CONTINUOUS
62
7
10
  0.12862679
20
 -0.10180000
30
  0.00000000
11
  0.12897321
21
 -0.10180000
31
  0.00000000
0
LINE
8
DC
6
CONTINUOUS
62
7
10
  0.12860635
20
 -0.10175000
30
  0.00000000
11
  0.12899365
21
 -0.10175000
31
  0.00000000
0
LINE
8
DC
6
CONTINUOUS
62
7
10
  0.12860000
20
 -0.10170000
30
  0.00000000
11
  0.12900000
21
 -0.10170000
31
  0.00000000
0
LINE
8
DC
6
CONTINUOUS
62
7
10
  0.12860635
20
 -0.10165000
30
  0.00000000
11
  0.12899365
21
 -0.10165000
31
  0.00000000
0
LINE
8
DC
6
CONTINUOUS
62
7
10
  0.12862679
20
 -0.10160000
30
  0.00000000
11
  0.12897321
21
 -0.10160000
31
  0.00000000
0
LINE
8
DC
6
CONTINUOUS
62
7
10
  0.12866771
20
 -0.10155000
30
  0.00000000
11
  0.12893229
21
 -0.10155000
31
  0.00000000
0
CIRCLE
8
DC
6
CONTINUOUS
62
7
10
  0.12880000
20
 -0.10170000
30
  0.00000000
40
  0.00020000
0
LINE
8
DC
6
CONTINUOUS
62
7
10
  0.12480000
20
 -0.10410000
30
  0.00000000
11
  0.12480000
21
 -0.10410000
31
  0.00000000
0
LINE
8
DC
6
CONTINUOUS
62
7
10
  0.12466771
20
 -0.10405000
30
  0.00000000
11
  0.12493229
21
 -0.10405000
31
  0.00000000
0
LINE
8
DC
6
CONTINUOUS
62
7
10
  0.12462679
20
 -0.10400000
30
  0.00000000
11
  0.12497321
21
 -0.10400000
31
  0.00000000
0
LINE
8
DC
6
CONTINUOUS
62
7
10
  0.12460635
20
 -0.10395000
30
  0.00000000
11
  0.12499365
21
 -0.10395000
31
  0.00000000
0
LINE
8
DC
6
CONTINUOUS
62
7
10
  0.12460000
20
 -0.10390000
30
  0.00000000
11
  0.12500000
21
 -0.10390000
31
  0.00000000
0
LINE
8
DC
6
CONTINUOUS
62
7
10
  0.12460635
20
 -0.10385000
30
  0.00000000
11
  0.12499365
21
 -0.10385000
31
  0.00000000
0
LINE
8
DC
6
CONTINUOUS
62
7
10
  0.12462679
20
 -0.10380000
30
  0.00000000
11
  0.12497321
21
 -0.10380000
31
  0.00000000
0
LINE
8
DC
6
CONTINUOUS
62
7
10
  0.12466771
20
 -0.10375000
30
  0.00000000
11
  0.12493229
21
 -0.10375000
31
  0.00000000
0
CIRCLE
8
DC
6
CONTINUOUS
62
7
10
  0.12480000
20
 -0.10390000
30
  0.00000000
40
  0.00020000
0
LINE
8
DC
6
CONTINUOUS
62
7
10
  0.12580000
20
 -0.10410000
30
  0.00000000
11
  0.12580000
21
 -0.10410000
31
  0.00000000
0
LINE
8
DC
6
CONTINUOUS
62
7
10
  0.12566771
20
 -0.10405000
30
  0.00000000
11
  0.12593229
21
 -0.10405000
31
  0.00000000
0
LINE
8
DC
6
CONTINUOUS
62
7
10
  0.12562679
20
 -0.10400000
30
  0.00000000
11
  0.12597321
21
 -0.10400000
31
  0.00000000
0
LINE
8
DC
6
CONTINUOUS
62
7
10
  0.12560635
20
 -0.10395000
30
  0.00000000
11
  0.12599365
21
 -0.10395000
31
  0.00000000
0
LINE
8
DC
6
CONTINUOUS
62
7
10
  0.12560000
20
 -0.10390000
30
  0.00000000
11
  0.12600000
21
 -0.10390000
31
  0.00000000
0
LINE
8
DC
6
CONTINUOUS
62
7
10
  0.12560635
20
 -0.10385000
30
  0.00000000
11
  0.12599365
21
 -0.10385000
31
  0.00000000
0
LINE
8
DC
6
CONTINUOUS
62
7
10
  0.12562679
20
 -0.10380000
30
  0.00000000
11
  0.12597321
21
 -0.10380000
31
  0.00000000
0
LINE
8
DC
6
CONTINUOUS
62
7
10
  0.12566771
20
 -0.10375000
30
  0.00000000
11
  0.12593229
21
 -0.10375000
31
  0.00000000
0
CIRCLE
8
DC
6
CONTINUOUS
62
7
10
  0.12580000
20
 -0.10390000
30
  0.00000000
40
  0.00020000
0
LINE
8
DC
6
CONTINUOUS
62
7
10
  0.12680000
20
 -0.10410000
30
  0.00000000
11
  0.12680000
21
 -0.10410000
31
  0.00000000
0
LINE
8
DC
6
CONTINUOUS
62
7
10
  0.12666771
20
 -0.10405000
30
  0.00000000
11
  0.12693229
21
 -0.10405000
31
  0.00000000
0
LINE
8
DC
6
CONTINUOUS
62
7
10
  0.12662679
20
 -0.10400000
30
  0.00000000
11
  0.12697321
21
 -0.10400000
31
  0.00000000
0
LINE
8
DC
6
CONTINUOUS
62
7
10
  0.12660635
20
 -0.10395000
30
  0.00000000
11
  0.12699365
21
 -0.10395000
31
  0.00000000
0
LINE
8
DC
6
CONTINUOUS
62
7
10
  0.12660000
20
 -0.10390000
30
  0.00000000
11
  0.12700000
21
 -0.10390000
31
  0.00000000
0
LINE
8
DC
6
CONTINUOUS
62
7
10
  0.12660635
20
 -0.10385000
30
  0.00000000
11
  0.12699365
21
 -0.10385000
31
  0.00000000
0
LINE
8
DC
6
CONTINUOUS
62
7
10
  0.12662679
20
 -0.10380000
30
  0.00000000
11
  0.12697321
21
 -0.10380000
31
  0.00000000
0
LINE
8
DC
6
CONTINUOUS
62
7
10
  0.12666771
20
 -0.10375000
30
  0.00000000
11
  0.12693229
21
 -0.10375000
31
  0.00000000
0
CIRCLE
8
DC
6
CONTINUOUS
62
7
10
  0.12680000
20
 -0.10390000
30
  0.00000000
40
  0.00020000
0
LINE
8
DC
6
CONTINUOUS
62
7
10
  0.12780000
20
 -0.10410000
30
  0.00000000
11
  0.12780000
21
 -0.10410000
31
  0.00000000
0
LINE
8
DC
6
CONTINUOUS
62
7
10
  0.12766771
20
 -0.10405000
30
  0.00000000
11
  0.12793229
21
 -0.10405000
31
  0.00000000
0
LINE
8
DC
6
CONTINUOUS
62
7
10
  0.12762679
20
 -0.10400000
30
  0.00000000
11
  0.12797321
21
 -0.10400000
31
  0.00000000
0
LINE
8
DC
6
CONTINUOUS
62
7
10
  0.12760635
20
 -0.10395000
30
  0.00000000
11
  0.12799365
21
 -0.10395000
31
  0.00000000
0
LINE
8
DC
6
CONTINUOUS
62
7
10
  0.12760000
20
 -0.10390000
30
  0.00000000
11
  0.12800000
21
 -0.10390000
31
  0.00000000
0
LINE
8
DC
6
CONTINUOUS
62
7
10
  0.12760635
20
 -0.10385000
30
  0.00000000
11
  0.12799365
21
 -0.10385000
31
  0.00000000
0
LINE
8
DC
6
CONTINUOUS
62
7
10
  0.12762679
20
 -0.10380000
30
  0.00000000
11
  0.12797321
21
 -0.10380000
31
  0.00000000
0
LINE
8
DC
6
CONTINUOUS
62
7
10
  0.12766771
20
 -0.10375000
30
  0.00000000
11
  0.12793229
21
 -0.10375000
31
  0.00000000
0
CIRCLE
8
DC
6
CONTINUOUS
62
7
10
  0.12780000
20
 -0.10390000
30
  0.00000000
40
  0.00020000
0
LINE
8
DC
6
CONTINUOUS
62
7
10
  0.12880000
20
 -0.10410000
30
  0.00000000
11
  0.12880000
21
 -0.10410000
31
  0.00000000
0
LINE
8
DC
6
CONTINUOUS
62
7
10
  0.12866771
20
 -0.10405000
30
  0.00000000
11
  0.12893229
21
 -0.10405000
31
  0.00000000
0
LINE
8
DC
6
CONTINUOUS
62
7
10
  0.12862679
20
 -0.10400000
30
  0.00000000
11
  0.12897321
21
 -0.10400000
31
  0.00000000
0
LINE
8
DC
6
CONTINUOUS
62
7
10
  0.12860635
20
 -0.10395000
30
  0.00000000
11
  0.12899365
21
 -0.10395000
31
  0.00000000
0
LINE
8
DC
6
CONTINUOUS
62
7
10
  0.12860000
20
 -0.10390000
30
  0.00000000
11
  0.12900000
21
 -0.10390000
31
  0.00000000
0
LINE
8
DC
6
CONTINUOUS
62
7
10
  0.12860635
20
 -0.10385000
30
  0.00000000
11
  0.12899365
21
 -0.10385000
31
  0.00000000
0
LINE
8
DC
6
CONTINUOUS
62
7
10
  0.12862679
20
 -0.10380000
30
  0.00000000
11
  0.12897321
21
 -0.10380000
31
  0.00000000
0
LINE
8
DC
6
CONTINUOUS
62
7
10
  0.12866771
20
 -0.10375000
30
  0.00000000
11
  0.12893229
21
 -0.10375000
31
  0.00000000
0
CIRCLE
8
DC
6
CONTINUOUS
62
7
10
  0.12880000
20
 -0.10390000
30
  0.00000000
40
  0.00020000
0
LINE
8
DC
6
CONTINUOUS
62
7
10
  0.12530000
20
 -0.10300000
30
  0.00000000
11
  0.12530000
21
 -0.10300000
31
  0.00000000
0
LINE
8
DC
6
CONTINUOUS
62
7
10
  0.12516771
20
 -0.10295000
30
  0.00000000
11
  0.12543229
21
 -0.10295000
31
  0.00000000
0
LINE
8
DC
6
CONTINUOUS
62
7
10
  0.12512679
20
 -0.10290000
30
  0.00000000
11
  0.12547321
21
 -0.10290000
31
  0.00000000
0
LINE
8
DC
6
CONTINUOUS
62
7
10
  0.12510635
20
 -0.10285000
30
  0.00000000
11
  0.12549365
21
 -0.10285000
31
  0.00000000
0
LINE
8
DC
6
CONTINUOUS
62
7
10
  0.12510000
20
 -0.10280000
30
  0.00000000
11
  0.12550000
21
 -0.10280000
31
  0.00000000
0
LINE
8
DC
6
CONTINUOUS
62
7
10
  0.12510635
20
 -0.10275000
30
  0.00000000
11
  0.12549365
21
 -0.10275000
31
  0.00000000
0
LINE
8
DC
6
CONTINUOUS
62
7
10
  0.12512679
20
 -0.10270000
30
  0.00000000
11
  0.12547321
21
 -0.10270000
31
  0.00000000
0
LINE
8
DC
6
CONTINUOUS
62
7
10
  0.12516771
20
 -0.10265000
30
  0.00000000
11
  0.12543229
21
 -0.10265000
31
  0.00000000
0
CIRCLE
8
DC
6
CONTINUOUS
62
7
10
  0.12530000
20
 -0.10280000
30
  0.00000000
40
  0.00020000
0
LINE
8
DC
6
CONTINUOUS
62
7
10
  0.12630000
20
 -0.10300000
30
  0.00000000
11
  0.12630000
21
 -0.10300000
31
  0.00000000
0
LINE
8
DC
6
CONTINUOUS
62
7
10
  0.12616771
20
 -0.10295000
30
  0.00000000
11
  0.12643229
21
 -0.10295000
31
  0.00000000
0
LINE
8
DC
6
CONTINUOUS
62
7
10
  0.12612679
20
 -0.10290000
30
  0.00000000
11
  0.12647321
21
 -0.10290000
31
  0.00000000
0
LINE
8
DC
6
CONTINUOUS
62
7
10
  0.12610635
20
 -0.10285000
30
  0.00000000
11
  0.12649365
21
 -0.10285000
31
  0.00000000
0
LINE
8
DC
6
CONTINUOUS
62
7
10
  0.12610000
20
 -0.10280000
30
  0.00000000
11
  0.12650000
21
 -0.10280000
31
  0.00000000
0
LINE
8
DC
6
CONTINUOUS
62
7
10
  0.12610635
20
 -0.10275000
30
  0.00000000
11
  0.12649365
21
 -0.10275000
31
  0.00000000
0
LINE
8
DC
6
CONTINUOUS
62
7
10
  0.12612679
20
 -0.10270000
30
  0.00000000
11
  0.12647321
21
 -0.10270000
31
  0.00000000
0
LINE
8
DC
6
CONTINUOUS
62
7
10
  0.12616771
20
 -0.10265000
30
  0.00000000
11
  0.12643229
21
 -0.10265000
31
  0.00000000
0
CIRCLE
8
DC
6
CONTINUOUS
62
7
10
  0.12630000
20
 -0.10280000
30
  0.00000000
40
  0.00020000
0
LINE
8
DC
6
CONTINUOUS
62
7
10
  0.12730000
20
 -0.10300000
30
  0.00000000
11
  0.12730000
21
 -0.10300000
31
  0.00000000
0
LINE
8
DC
6
CONTINUOUS
62
7
10
  0.12716771
20
 -0.10295000
30
  0.00000000
11
  0.12743229
21
 -0.10295000
31
  0.00000000
0
LINE
8
DC
6
CONTINUOUS
62
7
10
  0.12712679
20
 -0.10290000
30
  0.00000000
11
  0.12747321
21
 -0.10290000
31
  0.00000000
0
LINE
8
DC
6
CONTINUOUS
62
7
10
  0.12710635
20
 -0.10285000
30
  0.00000000
11
  0.12749365
21
 -0.10285000
31
  0.00000000
0
LINE
8
DC
6
CONTINUOUS
62
7
10
  0.12710000
20
 -0.10280000
30
  0.00000000
11
  0.12750000
21
 -0.10280000
31
  0.00000000
0
LINE
8
DC
6
CONTINUOUS
62
7
10
  0.12710635
20
 -0.10275000
30
  0.00000000
11
  0.12749365
21
 -0.10275000
31
  0.00000000
0
LINE
8
DC
6
CONTINUOUS
62
7
10
  0.12712679
20
 -0.10270000
30
  0.00000000
11
  0.12747321
21
 -0.10270000
31
  0.00000000
0
LINE
8
DC
6
CONTINUOUS
62
7
10
  0.12716771
20
 -0.10265000
30
  0.00000000
11
  0.12743229
21
 -0.10265000
31
  0.00000000
0
CIRCLE
8
DC
6
CONTINUOUS
62
7
10
  0.12730000
20
 -0.10280000
30
  0.00000000
40
  0.00020000
0
LINE
8
DC
6
CONTINUOUS
62
7
10
  0.12830000
20
 -0.10300000
30
  0.00000000
11
  0.12830000
21
 -0.10300000
31
  0.00000000
0
LINE
8
DC
6
CONTINUOUS
62
7
10
  0.12816771
20
 -0.10295000
30
  0.00000000
11
  0.12843229
21
 -0.10295000
31
  0.00000000
0
LINE
8
DC
6
CONTINUOUS
62
7
10
  0.12812679
20
 -0.10290000
30
  0.00000000
11
  0.12847321
21
 -0.10290000
31
  0.00000000
0
LINE
8
DC
6
CONTINUOUS
62
7
10
  0.12810635
20
 -0.10285000
30
  0.00000000
11
  0.12849365
21
 -0.10285000
31
  0.00000000
0
LINE
8
DC
6
CONTINUOUS
62
7
10
  0.12810000
20
 -0.10280000
30
  0.00000000
11
  0.12850000
21
 -0.10280000
31
  0.00000000
0
LINE
8
DC
6
CONTINUOUS
62
7
10
  0.12810635
20
 -0.10275000
30
  0.00000000
11
  0.12849365
21
 -0.10275000
31
  0.00000000
0
LINE
8
DC
6
CONTINUOUS
62
7
10
  0.12812679
20
 -0.10270000
30
  0.00000000
11
  0.12847321
21
 -0.10270000
31
  0.00000000
0
LINE
8
DC
6
CONTINUOUS
62
7
10
  0.12816771
20
 -0.10265000
30
  0.00000000
11
  0.12843229
21
 -0.10265000
31
  0.00000000
0
CIRCLE
8
DC
6
CONTINUOUS
62
7
10
  0.12830000
20
 -0.10280000
30
  0.00000000
40
  0.00020000
0
LINE
8
DC
6
CONTINUOUS
62
7
10
  0.12930000
20
 -0.10300000
30
  0.00000000
11
  0.12930000
21
 -0.10300000
31
  0.00000000
0
LINE
8
DC
6
CONTINUOUS
62
7
10
  0.12916771
20
 -0.10295000
30
  0.00000000
11
  0.12943229
21
 -0.10295000
31
  0.00000000
0
LINE
8
DC
6
CONTINUOUS
62
7
10
  0.12912679
20
 -0.10290000
30
  0.00000000
11
  0.12947321
21
 -0.10290000
31
  0.00000000
0
LINE
8
DC
6
CONTINUOUS
62
7
10
  0.12910635
20
 -0.10285000
30
  0.00000000
11
  0.12949365
21
 -0.10285000
31
  0.00000000
0
LINE
8
DC
6
CONTINUOUS
62
7
10
  0.12910000
20
 -0.10280000
30
  0.00000000
11
  0.12950000
21
 -0.10280000
31
  0.00000000
0
LINE
8
DC
6
CONTINUOUS
62
7
10
  0.12910635
20
 -0.10275000
30
  0.00000000
11
  0.12949365
21
 -0.10275000
31
  0.00000000
0
LINE
8
DC
6
CONTINUOUS
62
7
10
  0.12912679
20
 -0.10270000
30
  0.00000000
11
  0.12947321
21
 -0.10270000
31
  0.00000000
0
LINE
8
DC
6
CONTINUOUS
62
7
10
  0.12916771
20
 -0.10265000
30
  0.00000000
11
  0.12943229
21
 -0.10265000
31
  0.00000000
0
CIRCLE
8
DC
6
CONTINUOUS
62
7
10
  0.12930000
20
 -0.10280000
30
  0.00000000
40
  0.00020000
0
LINE
8
DC
6
CONTINUOUS
62
7
10
  0.12650000
20
 -0.10510000
30
  0.00000000
11
  0.12710000
21
 -0.10450000
31
  0.00000000
0
LINE
8
DC
6
CONTINUOUS
62
7
10
  0.12900000
20
 -0.10510000
30
  0.00000000
11
  0.12960000
21
 -0.10450000
31
  0.00000000
0
LINE
8
DC
6
CONTINUOUS
62
7
10
  0.11960000
20
 -0.08300000
30
  0.00000000
11
  0.17660000
21
 -0.08300000
31
  0.00000000
0
LINE
8
DC
6
CONTINUOUS
62
7
10
  0.11960000
20
 -0.10500000
30
  0.00000000
11
  0.11860000
21
 -0.10500000
31
  0.00000000
0
LINE
8
DC
6
CONTINUOUS
62
7
10
  0.10920000
20
 -0.10500000
30
  0.00000000
11
  0.11860000
21
 -0.10500000
31
  0.00000000
0
TEXT
8
DC
62
7
10
  0.11860000
20
 -0.10450000
30
  0.00000000
40
  0.00250000
41
  0.60000000
1
    3.00m
50
  0.00000000
72
2
73
0
11
  0.11860000
21
 -0.10450000
31
  0.00000000
0
TEXT
8
DC
62
7
10
  0.13660000
20
 -0.08930000
30
  0.00000000
40
  0.00216667
41
  0.60000000
1
Verwitterungslehm, Ton, stark 
50
  0.00000000
72
0
73
1
11
  0.13660000
21
 -0.08930000
31
  0.00000000
0
TEXT
8
DC
62
7
10
  0.13660000
20
 -0.09240000
30
  0.00000000
40
  0.00216667
41
  0.60000000
1
schluffig, schwach feinsandig
50
  0.00000000
72
0
73
1
11
  0.13660000
21
 -0.09240000
31
  0.00000000
0
TEXT
8
DC
62
7
10
  0.13660000
20
 -0.09550000
30
  0.00000000
40
  0.00216667
41
  0.60000000
1
steif
50
  0.00000000
72
0
73
1
11
  0.13660000
21
 -0.09550000
31
  0.00000000
0
TEXT
8
DC
62
7
10
  0.13660000
20
 -0.09860000
30
  0.00000000
40
  0.00216667
41
  0.60000000
1
erdfeucht
50
  0.00000000
72
0
73
1
11
  0.13660000
21
 -0.09860000
31
  0.00000000
0
TEXT
8
DC
62
7
10
  0.13660000
20
 -0.10170000
30
  0.00000000
40
  0.00216667
41
  0.60000000
1
hellbraun
50
  0.00000000
72
0
73
1
11
  0.13660000
21
 -0.10170000
31
  0.00000000
0
CIRCLE
8
DC
6
CONTINUOUS
62
7
10
  0.18290000
20
 -0.09400000
30
  0.00000000
40
  0.00530000
0
TEXT
8
DC
62
7
10
  0.18090000
20
 -0.09600000
30
  0.00000000
40
  0.00250000
41
  0.60000000
1
TL
50
  0.00000000
72
0
73
1
11
  0.18090000
21
 -0.09600000
31
  0.00000000
0
LINE
8
DC
6
CONTINUOUS
62
7
10
  0.17040000
20
 -0.09090000
30
  0.00000000
11
  0.17660000
21
 -0.09090000
31
  0.00000000
0
LINE
8
DC
6
CONTINUOUS
62
7
10
  0.17660000
20
 -0.09090000
30
  0.00000000
11
  0.17660000
21
 -0.09710000
31
  0.00000000
0
LINE
8
DC
6
CONTINUOUS
62
7
10
  0.17660000
20
 -0.09710000
30
  0.00000000
11
  0.17040000
21
 -0.09710000
31
  0.00000000
0
LINE
8
DC
6
CONTINUOUS
62
7
10
  0.17040000
20
 -0.09710000
30
  0.00000000
11
  0.17040000
21
 -0.09090000
31
  0.00000000
0
TEXT
8
DC
62
7
10
  0.17350000
20
 -0.09600000
30
  0.00000000
40
  0.00250000
41
  0.60000000
1
4
50
  0.00000000
72
1
73
1
11
  0.17350000
21
 -0.09600000
31
  0.00000000
0
LINE
8
DC
6
GESTRICHELT
62
7
10
  0.13120000
20
 -0.10500000
30
  0.00000000
11
  0.13120000
21
 -0.14500000
31
  0.00000000
0
SOLID
8
DC
62
253
10
  0.11960000
20
 -0.10500000
30
  0.00000000
11
  0.12470000
21
 -0.10500000
31
  0.00000000
12
  0.11960000
22
 -0.14510000
32
  0.00000000
13
  0.12470000
23
 -0.14510000
33
  0.00000000
0
LINE
8
DC
6
CONTINUOUS
62
7
10
  0.11960000
20
 -0.10500000
30
  0.00000000
11
  0.12470000
21
 -0.10500000
31
  0.00000000
0
LINE
8
DC
6
CONTINUOUS
62
7
10
  0.12470000
20
 -0.10500000
30
  0.00000000
11
  0.12470000
21
 -0.14510000
31
  0.00000000
0
LINE
8
DC
6
CONTINUOUS
62
7
10
  0.12470000
20
 -0.14510000
30
  0.00000000
11
  0.11960000
21
 -0.14510000
31
  0.00000000
0
LINE
8
DC
6
CONTINUOUS
62
7
10
  0.11960000
20
 -0.14510000
30
  0.00000000
11
  0.11960000
21
 -0.10500000
31
  0.00000000
0
SOLID
8
DC
62
200
10
  0.12470000
20
 -0.10500000
30
  0.00000000
11
  0.12970000
21
 -0.10500000
31
  0.00000000
12
  0.12470000
22
 -0.14510000
32
  0.00000000
13
  0.12970000
23
 -0.14510000
33
  0.00000000
0
LINE
8
DC
6
CONTINUOUS
62
7
10
  0.12470000
20
 -0.10500000
30
  0.00000000
11
  0.12970000
21
 -0.10500000
31
  0.00000000
0
LINE
8
DC
6
CONTINUOUS
62
7
10
  0.12970000
20
 -0.10500000
30
  0.00000000
11
  0.12970000
21
 -0.14510000
31
  0.00000000
0
LINE
8
DC
6
CONTINUOUS
62
7
10
  0.12970000
20
 -0.14510000
30
  0.00000000
11
  0.12470000
21
 -0.14510000
31
  0.00000000
0
LINE
8
DC
6
CONTINUOUS
62
7
10
  0.12470000
20
 -0.14510000
30
  0.00000000
11
  0.12470000
21
 -0.10500000
31
  0.00000000
0
LINE
8
DC
6
CONTINUOUS
62
7
10
  0.11960000
20
 -0.10750000
30
  0.00000000
11
  0.12210000
21
 -0.10500000
31
  0.00000000
0
LINE
8
DC
6
CONTINUOUS
62
7
10
  0.12210000
20
 -0.11000000
30
  0.00000000
11
  0.12460000
21
 -0.10750000
31
  0.00000000
0
LINE
8
DC
6
CONTINUOUS
62
7
10
  0.11960000
20
 -0.11000000
30
  0.00000000
11
  0.12460000
21
 -0.10500000
31
  0.00000000
0
LINE
8
DC
6
CONTINUOUS
62
7
10
  0.12010000
20
 -0.11080000
30
  0.00000000
11
  0.12310000
21
 -0.11080000
31
  0.00000000
0
LINE
8
DC
6
CONTINUOUS
62
7
10
  0.12110000
20
 -0.11240000
30
  0.00000000
11
  0.12410000
21
 -0.11240000
31
  0.00000000
0
LINE
8
DC
6
CONTINUOUS
62
7
10
  0.11960000
20
 -0.11580000
30
  0.00000000
11
  0.12210000
21
 -0.11330000
31
  0.00000000
0
LINE
8
DC
6
CONTINUOUS
62
7
10
  0.12210000
20
 -0.11830000
30
  0.00000000
11
  0.12460000
21
 -0.11580000
31
  0.00000000
0
LINE
8
DC
6
CONTINUOUS
62
7
10
  0.11960000
20
 -0.11830000
30
  0.00000000
11
  0.12460000
21
 -0.11330000
31
  0.00000000
0
LINE
8
DC
6
CONTINUOUS
62
7
10
  0.12010000
20
 -0.11910000
30
  0.00000000
11
  0.12310000
21
 -0.11910000
31
  0.00000000
0
LINE
8
DC
6
CONTINUOUS
62
7
10
  0.12110000
20
 -0.12070000
30
  0.00000000
11
  0.12410000
21
 -0.12070000
31
  0.00000000
0
LINE
8
DC
6
CONTINUOUS
62
7
10
  0.11960000
20
 -0.12410000
30
  0.00000000
11
  0.12210000
21
 -0.12160000
31
  0.00000000
0
LINE
8
DC
6
CONTINUOUS
62
7
10
  0.12210000
20
 -0.12660000
30
  0.00000000
11
  0.12460000
21
 -0.12410000
31
  0.00000000
0
LINE
8
DC
6
CONTINUOUS
62
7
10
  0.11960000
20
 -0.12660000
30
  0.00000000
11
  0.12460000
21
 -0.12160000
31
  0.00000000
0
LINE
8
DC
6
CONTINUOUS
62
7
10
  0.12010000
20
 -0.12740000
30
  0.00000000
11
  0.12310000
21
 -0.12740000
31
  0.00000000
0
LINE
8
DC
6
CONTINUOUS
62
7
10
  0.12110000
20
 -0.12900000
30
  0.00000000
11
  0.12410000
21
 -0.12900000
31
  0.00000000
0
LINE
8
DC
6
CONTINUOUS
62
7
10
  0.11960000
20
 -0.13240000
30
  0.00000000
11
  0.12210000
21
 -0.12990000
31
  0.00000000
0
LINE
8
DC
6
CONTINUOUS
62
7
10
  0.12210000
20
 -0.13490000
30
  0.00000000
11
  0.12460000
21
 -0.13240000
31
  0.00000000
0
LINE
8
DC
6
CONTINUOUS
62
7
10
  0.11960000
20
 -0.13490000
30
  0.00000000
11
  0.12460000
21
 -0.12990000
31
  0.00000000
0
LINE
8
DC
6
CONTINUOUS
62
7
10
  0.12010000
20
 -0.13570000
30
  0.00000000
11
  0.12310000
21
 -0.13570000
31
  0.00000000
0
LINE
8
DC
6
CONTINUOUS
62
7
10
  0.12110000
20
 -0.13730000
30
  0.00000000
11
  0.12410000
21
 -0.13730000
31
  0.00000000
0
LINE
8
DC
6
CONTINUOUS
62
7
10
  0.11960000
20
 -0.14070000
30
  0.00000000
11
  0.12210000
21
 -0.13820000
31
  0.00000000
0
LINE
8
DC
6
CONTINUOUS
62
7
10
  0.12210000
20
 -0.14320000
30
  0.00000000
11
  0.12460000
21
 -0.14070000
31
  0.00000000
0
LINE
8
DC
6
CONTINUOUS
62
7
10
  0.11960000
20
 -0.14320000
30
  0.00000000
11
  0.12460000
21
 -0.13820000
31
  0.00000000
0
LINE
8
DC
6
CONTINUOUS
62
7
10
  0.12620000
20
 -0.10710000
30
  0.00000000
11
  0.12620000
21
 -0.10710000
31
  0.00000000
0
LINE
8
DC
6
CONTINUOUS
62
7
10
  0.12598206
20
 -0.10705000
30
  0.00000000
11
  0.12641794
21
 -0.10705000
31
  0.00000000
0
LINE
8
DC
6
CONTINUOUS
62
7
10
  0.12590000
20
 -0.10700000
30
  0.00000000
11
  0.12650000
21
 -0.10700000
31
  0.00000000
0
LINE
8
DC
6
CONTINUOUS
62
7
10
  0.12584293
20
 -0.10695000
30
  0.00000000
11
  0.12655707
21
 -0.10695000
31
  0.00000000
0
LINE
8
DC
6
CONTINUOUS
62
7
10
  0.12580000
20
 -0.10690000
30
  0.00000000
11
  0.12660000
21
 -0.10690000
31
  0.00000000
0
LINE
8
DC
6
CONTINUOUS
62
7
10
  0.12576699
20
 -0.10685000
30
  0.00000000
11
  0.12663301
21
 -0.10685000
31
  0.00000000
0
LINE
8
DC
6
CONTINUOUS
62
7
10
  0.12574174
20
 -0.10680000
30
  0.00000000
11
  0.12665826
21
 -0.10680000
31
  0.00000000
0
LINE
8
DC
6
CONTINUOUS
62
7
10
  0.12572303
20
 -0.10675000
30
  0.00000000
11
  0.12667697
21
 -0.10675000
31
  0.00000000
0
LINE
8
DC
6
CONTINUOUS
62
7
10
  0.12571010
20
 -0.10670000
30
  0.00000000
11
  0.12668990
21
 -0.10670000
31
  0.00000000
0
LINE
8
DC
6
CONTINUOUS
62
7
10
  0.12570251
20
 -0.10665000
30
  0.00000000
11
  0.12669749
21
 -0.10665000
31
  0.00000000
0
LINE
8
DC
6
CONTINUOUS
62
7
10
  0.12570000
20
 -0.10660000
30
  0.00000000
11
  0.12670000
21
 -0.10660000
31
  0.00000000
0
LINE
8
DC
6
CONTINUOUS
62
7
10
  0.12570251
20
 -0.10655000
30
  0.00000000
11
  0.12669749
21
 -0.10655000
31
  0.00000000
0
LINE
8
DC
6
CONTINUOUS
62
7
10
  0.12571010
20
 -0.10650000
30
  0.00000000
11
  0.12668990
21
 -0.10650000
31
  0.00000000
0
LINE
8
DC
6
CONTINUOUS
62
7
10
  0.12572303
20
 -0.10645000
30
  0.00000000
11
  0.12667697
21
 -0.10645000
31
  0.00000000
0
LINE
8
DC
6
CONTINUOUS
62
7
10
  0.12574174
20
 -0.10640000
30
  0.00000000
11
  0.12665826
21
 -0.10640000
31
  0.00000000
0
LINE
8
DC
6
CONTINUOUS
62
7
10
  0.12576699
20
 -0.10635000
30
  0.00000000
11
  0.12663301
21
 -0.10635000
31
  0.00000000
0
LINE
8
DC
6
CONTINUOUS
62
7
10
  0.12580000
20
 -0.10630000
30
  0.00000000
11
  0.12660000
21
 -0.10630000
31
  0.00000000
0
LINE
8
DC
6
CONTINUOUS
62
7
10
  0.12584293
20
 -0.10625000
30
  0.00000000
11
  0.12655707
21
 -0.10625000
31
  0.00000000
0
LINE
8
DC
6
CONTINUOUS
62
7
10
  0.12590000
20
 -0.10620000
30
  0.00000000
11
  0.12650000
21
 -0.10620000
31
  0.00000000
0
LINE
8
DC
6
CONTINUOUS
62
7
10
  0.12598206
20
 -0.10615000
30
  0.00000000
11
  0.12641794
21
 -0.10615000
31
  0.00000000
0
CIRCLE
8
DC
6
CONTINUOUS
62
7
10
  0.12620000
20
 -0.10660000
30
  0.00000000
40
  0.00050000
0
LINE
8
DC
6
CONTINUOUS
62
7
10
  0.12780000
20
 -0.10710000
30
  0.00000000
11
  0.12780000
21
 -0.10710000
31
  0.00000000
0
LINE
8
DC
6
CONTINUOUS
62
7
10
  0.12758206
20
 -0.10705000
30
  0.00000000
11
  0.12801794
21
 -0.10705000
31
  0.00000000
0
LINE
8
DC
6
CONTINUOUS
62
7
10
  0.12750000
20
 -0.10700000
30
  0.00000000
11
  0.12810000
21
 -0.10700000
31
  0.00000000
0
LINE
8
DC
6
CONTINUOUS
62
7
10
  0.12744293
20
 -0.10695000
30
  0.00000000
11
  0.12815707
21
 -0.10695000
31
  0.00000000
0
LINE
8
DC
6
CONTINUOUS
62
7
10
  0.12740000
20
 -0.10690000
30
  0.00000000
11
  0.12820000
21
 -0.10690000
31
  0.00000000
0
LINE
8
DC
6
CONTINUOUS
62
7
10
  0.12736699
20
 -0.10685000
30
  0.00000000
11
  0.12823301
21
 -0.10685000
31
  0.00000000
0
LINE
8
DC
6
CONTINUOUS
62
7
10
  0.12734174
20
 -0.10680000
30
  0.00000000
11
  0.12825826
21
 -0.10680000
31
  0.00000000
0
LINE
8
DC
6
CONTINUOUS
62
7
10
  0.12732303
20
 -0.10675000
30
  0.00000000
11
  0.12827697
21
 -0.10675000
31
  0.00000000
0
LINE
8
DC
6
CONTINUOUS
62
7
10
  0.12731010
20
 -0.10670000
30
  0.00000000
11
  0.12828990
21
 -0.10670000
31
  0.00000000
0
LINE
8
DC
6
CONTINUOUS
62
7
10
  0.12730251
20
 -0.10665000
30
  0.00000000
11
  0.12829749
21
 -0.10665000
31
  0.00000000
0
LINE
8
DC
6
CONTINUOUS
62
7
10
  0.12730000
20
 -0.10660000
30
  0.00000000
11
  0.12830000
21
 -0.10660000
31
  0.00000000
0
LINE
8
DC
6
CONTINUOUS
62
7
10
  0.12730251
20
 -0.10655000
30
  0.00000000
11
  0.12829749
21
 -0.10655000
31
  0.00000000
0
LINE
8
DC
6
CONTINUOUS
62
7
10
  0.12731010
20
 -0.10650000
30
  0.00000000
11
  0.12828990
21
 -0.10650000
31
  0.00000000
0
LINE
8
DC
6
CONTINUOUS
62
7
10
  0.12732303
20
 -0.10645000
30
  0.00000000
11
  0.12827697
21
 -0.10645000
31
  0.00000000
0
LINE
8
DC
6
CONTINUOUS
62
7
10
  0.12734174
20
 -0.10640000
30
  0.00000000
11
  0.12825826
21
 -0.10640000
31
  0.00000000
0
LINE
8
DC
6
CONTINUOUS
62
7
10
  0.12736699
20
 -0.10635000
30
  0.00000000
11
  0.12823301
21
 -0.10635000
31
  0.00000000
0
LINE
8
DC
6
CONTINUOUS
62
7
10
  0.12740000
20
 -0.10630000
30
  0.00000000
11
  0.12820000
21
 -0.10630000
31
  0.00000000
0
LINE
8
DC
6
CONTINUOUS
62
7
10
  0.12744293
20
 -0.10625000
30
  0.00000000
11
  0.12815707
21
 -0.10625000
31
  0.00000000
0
LINE
8
DC
6
CONTINUOUS
62
7
10
  0.12750000
20
 -0.10620000
30
  0.00000000
11
  0.12810000
21
 -0.10620000
31
  0.00000000
0
LINE
8
DC
6
CONTINUOUS
62
7
10
  0.12758206
20
 -0.10615000
30
  0.00000000
11
  0.12801794
21
 -0.10615000
31
  0.00000000
0
CIRCLE
8
DC
6
CONTINUOUS
62
7
10
  0.12780000
20
 -0.10660000
30
  0.00000000
40
  0.00050000
0
LINE
8
DC
6
CONTINUOUS
62
7
10
  0.12560000
20
 -0.10710000
30
  0.00000000
11
  0.12860000
21
 -0.10710000
31
  0.00000000
0
LINE
8
DC
6
CONTINUOUS
62
7
10
  0.12480000
20
 -0.10900000
30
  0.00000000
11
  0.12480000
21
 -0.10900000
31
  0.00000000
0
LINE
8
DC
6
CONTINUOUS
62
7
10
  0.12466771
20
 -0.10895000
30
  0.00000000
11
  0.12493229
21
 -0.10895000
31
  0.00000000
0
LINE
8
DC
6
CONTINUOUS
62
7
10
  0.12462679
20
 -0.10890000
30
  0.00000000
11
  0.12497321
21
 -0.10890000
31
  0.00000000
0
LINE
8
DC
6
CONTINUOUS
62
7
10
  0.12460635
20
 -0.10885000
30
  0.00000000
11
  0.12499365
21
 -0.10885000
31
  0.00000000
0
LINE
8
DC
6
CONTINUOUS
62
7
10
  0.12460000
20
 -0.10880000
30
  0.00000000
11
  0.12500000
21
 -0.10880000
31
  0.00000000
0
LINE
8
DC
6
CONTINUOUS
62
7
10
  0.12460635
20
 -0.10875000
30
  0.00000000
11
  0.12499365
21
 -0.10875000
31
  0.00000000
0
LINE
8
DC
6
CONTINUOUS
62
7
10
  0.12462679
20
 -0.10870000
30
  0.00000000
11
  0.12497321
21
 -0.10870000
31
  0.00000000
0
LINE
8
DC
6
CONTINUOUS
62
7
10
  0.12466771
20
 -0.10865000
30
  0.00000000
11
  0.12493229
21
 -0.10865000
31
  0.00000000
0
CIRCLE
8
DC
6
CONTINUOUS
62
7
10
  0.12480000
20
 -0.10880000
30
  0.00000000
40
  0.00020000
0
LINE
8
DC
6
CONTINUOUS
62
7
10
  0.12580000
20
 -0.10900000
30
  0.00000000
11
  0.12580000
21
 -0.10900000
31
  0.00000000
0
LINE
8
DC
6
CONTINUOUS
62
7
10
  0.12566771
20
 -0.10895000
30
  0.00000000
11
  0.12593229
21
 -0.10895000
31
  0.00000000
0
LINE
8
DC
6
CONTINUOUS
62
7
10
  0.12562679
20
 -0.10890000
30
  0.00000000
11
  0.12597321
21
 -0.10890000
31
  0.00000000
0
LINE
8
DC
6
CONTINUOUS
62
7
10
  0.12560635
20
 -0.10885000
30
  0.00000000
11
  0.12599365
21
 -0.10885000
31
  0.00000000
0
LINE
8
DC
6
CONTINUOUS
62
7
10
  0.12560000
20
 -0.10880000
30
  0.00000000
11
  0.12600000
21
 -0.10880000
31
  0.00000000
0
LINE
8
DC
6
CONTINUOUS
62
7
10
  0.12560635
20
 -0.10875000
30
  0.00000000
11
  0.12599365
21
 -0.10875000
31
  0.00000000
0
LINE
8
DC
6
CONTINUOUS
62
7
10
  0.12562679
20
 -0.10870000
30
  0.00000000
11
  0.12597321
21
 -0.10870000
31
  0.00000000
0
LINE
8
DC
6
CONTINUOUS
62
7
10
  0.12566771
20
 -0.10865000
30
  0.00000000
11
  0.12593229
21
 -0.10865000
31
  0.00000000
0
CIRCLE
8
DC
6
CONTINUOUS
62
7
10
  0.12580000
20
 -0.10880000
30
  0.00000000
40
  0.00020000
0
LINE
8
DC
6
CONTINUOUS
62
7
10
  0.12680000
20
 -0.10900000
30
  0.00000000
11
  0.12680000
21
 -0.10900000
31
  0.00000000
0
LINE
8
DC
6
CONTINUOUS
62
7
10
  0.12666771
20
 -0.10895000
30
  0.00000000
11
  0.12693229
21
 -0.10895000
31
  0.00000000
0
LINE
8
DC
6
CONTINUOUS
62
7
10
  0.12662679
20
 -0.10890000
30
  0.00000000
11
  0.12697321
21
 -0.10890000
31
  0.00000000
0
LINE
8
DC
6
CONTINUOUS
62
7
10
  0.12660635
20
 -0.10885000
30
  0.00000000
11
  0.12699365
21
 -0.10885000
31
  0.00000000
0
LINE
8
DC
6
CONTINUOUS
62
7
10
  0.12660000
20
 -0.10880000
30
  0.00000000
11
  0.12700000
21
 -0.10880000
31
  0.00000000
0
LINE
8
DC
6
CONTINUOUS
62
7
10
  0.12660635
20
 -0.10875000
30
  0.00000000
11
  0.12699365
21
 -0.10875000
31
  0.00000000
0
LINE
8
DC
6
CONTINUOUS
62
7
10
  0.12662679
20
 -0.10870000
30
  0.00000000
11
  0.12697321
21
 -0.10870000
31
  0.00000000
0
LINE
8
DC
6
CONTINUOUS
62
7
10
  0.12666771
20
 -0.10865000
30
  0.00000000
11
  0.12693229
21
 -0.10865000
31
  0.00000000
0
CIRCLE
8
DC
6
CONTINUOUS
62
7
10
  0.12680000
20
 -0.10880000
30
  0.00000000
40
  0.00020000
0
LINE
8
DC
6
CONTINUOUS
62
7
10
  0.12780000
20
 -0.10900000
30
  0.00000000
11
  0.12780000
21
 -0.10900000
31
  0.00000000
0
LINE
8
DC
6
CONTINUOUS
62
7
10
  0.12766771
20
 -0.10895000
30
  0.00000000
11
  0.12793229
21
 -0.10895000
31
  0.00000000
0
LINE
8
DC
6
CONTINUOUS
62
7
10
  0.12762679
20
 -0.10890000
30
  0.00000000
11
  0.12797321
21
 -0.10890000
31
  0.00000000
0
LINE
8
DC
6
CONTINUOUS
62
7
10
  0.12760635
20
 -0.10885000
30
  0.00000000
11
  0.12799365
21
 -0.10885000
31
  0.00000000
0
LINE
8
DC
6
CONTINUOUS
62
7
10
  0.12760000
20
 -0.10880000
30
  0.00000000
11
  0.12800000
21
 -0.10880000
31
  0.00000000
0
LINE
8
DC
6
CONTINUOUS
62
7
10
  0.12760635
20
 -0.10875000
30
  0.00000000
11
  0.12799365
21
 -0.10875000
31
  0.00000000
0
LINE
8
DC
6
CONTINUOUS
62
7
10
  0.12762679
20
 -0.10870000
30
  0.00000000
11
  0.12797321
21
 -0.10870000
31
  0.00000000
0
LINE
8
DC
6
CONTINUOUS
62
7
10
  0.12766771
20
 -0.10865000
30
  0.00000000
11
  0.12793229
21
 -0.10865000
31
  0.00000000
0
CIRCLE
8
DC
6
CONTINUOUS
62
7
10
  0.12780000
20
 -0.10880000
30
  0.00000000
40
  0.00020000
0
LINE
8
DC
6
CONTINUOUS
62
7
10
  0.12880000
20
 -0.10900000
30
  0.00000000
11
  0.12880000
21
 -0.10900000
31
  0.00000000
0
LINE
8
DC
6
CONTINUOUS
62
7
10
  0.12866771
20
 -0.10895000
30
  0.00000000
11
  0.12893229
21
 -0.10895000
31
  0.00000000
0
LINE
8
DC
6
CONTINUOUS
62
7
10
  0.12862679
20
 -0.10890000
30
  0.00000000
11
  0.12897321
21
 -0.10890000
31
  0.00000000
0
LINE
8
DC
6
CONTINUOUS
62
7
10
  0.12860635
20
 -0.10885000
30
  0.00000000
11
  0.12899365
21
 -0.10885000
31
  0.00000000
0
LINE
8
DC
6
CONTINUOUS
62
7
10
  0.12860000
20
 -0.10880000
30
  0.00000000
11
  0.12900000
21
 -0.10880000
31
  0.00000000
0
LINE
8
DC
6
CONTINUOUS
62
7
10
  0.12860635
20
 -0.10875000
30
  0.00000000
11
  0.12899365
21
 -0.10875000
31
  0.00000000
0
LINE
8
DC
6
CONTINUOUS
62
7
10
  0.12862679
20
 -0.10870000
30
  0.00000000
11
  0.12897321
21
 -0.10870000
31
  0.00000000
0
LINE
8
DC
6
CONTINUOUS
62
7
10
  0.12866771
20
 -0.10865000
30
  0.00000000
11
  0.12893229
21
 -0.10865000
31
  0.00000000
0
CIRCLE
8
DC
6
CONTINUOUS
62
7
10
  0.12880000
20
 -0.10880000
30
  0.00000000
40
  0.00020000
0
LINE
8
DC
6
CONTINUOUS
62
7
10
  0.12480000
20
 -0.11120000
30
  0.00000000
11
  0.12480000
21
 -0.11120000
31
  0.00000000
0
LINE
8
DC
6
CONTINUOUS
62
7
10
  0.12466771
20
 -0.11115000
30
  0.00000000
11
  0.12493229
21
 -0.11115000
31
  0.00000000
0
LINE
8
DC
6
CONTINUOUS
62
7
10
  0.12462679
20
 -0.11110000
30
  0.00000000
11
  0.12497321
21
 -0.11110000
31
  0.00000000
0
LINE
8
DC
6
CONTINUOUS
62
7
10
  0.12460635
20
 -0.11105000
30
  0.00000000
11
  0.12499365
21
 -0.11105000
31
  0.00000000
0
LINE
8
DC
6
CONTINUOUS
62
7
10
  0.12460000
20
 -0.11100000
30
  0.00000000
11
  0.12500000
21
 -0.11100000
31
  0.00000000
0
LINE
8
DC
6
CONTINUOUS
62
7
10
  0.12460635
20
 -0.11095000
30
  0.00000000
11
  0.12499365
21
 -0.11095000
31
  0.00000000
0
LINE
8
DC
6
CONTINUOUS
62
7
10
  0.12462679
20
 -0.11090000
30
  0.00000000
11
  0.12497321
21
 -0.11090000
31
  0.00000000
0
LINE
8
DC
6
CONTINUOUS
62
7
10
  0.12466771
20
 -0.11085000
30
  0.00000000
11
  0.12493229
21
 -0.11085000
31
  0.00000000
0
CIRCLE
8
DC
6
CONTINUOUS
62
7
10
  0.12480000
20
 -0.11100000
30
  0.00000000
40
  0.00020000
0
LINE
8
DC
6
CONTINUOUS
62
7
10
  0.12580000
20
 -0.11120000
30
  0.00000000
11
  0.12580000
21
 -0.11120000
31
  0.00000000
0
LINE
8
DC
6
CONTINUOUS
62
7
10
  0.12566771
20
 -0.11115000
30
  0.00000000
11
  0.12593229
21
 -0.11115000
31
  0.00000000
0
LINE
8
DC
6
CONTINUOUS
62
7
10
  0.12562679
20
 -0.11110000
30
  0.00000000
11
  0.12597321
21
 -0.11110000
31
  0.00000000
0
LINE
8
DC
6
CONTINUOUS
62
7
10
  0.12560635
20
 -0.11105000
30
  0.00000000
11
  0.12599365
21
 -0.11105000
31
  0.00000000
0
LINE
8
DC
6
CONTINUOUS
62
7
10
  0.12560000
20
 -0.11100000
30
  0.00000000
11
  0.12600000
21
 -0.11100000
31
  0.00000000
0
LINE
8
DC
6
CONTINUOUS
62
7
10
  0.12560635
20
 -0.11095000
30
  0.00000000
11
  0.12599365
21
 -0.11095000
31
  0.00000000
0
LINE
8
DC
6
CONTINUOUS
62
7
10
  0.12562679
20
 -0.11090000
30
  0.00000000
11
  0.12597321
21
 -0.11090000
31
  0.00000000
0
LINE
8
DC
6
CONTINUOUS
62
7
10
  0.12566771
20
 -0.11085000
30
  0.00000000
11
  0.12593229
21
 -0.11085000
31
  0.00000000
0
CIRCLE
8
DC
6
CONTINUOUS
62
7
10
  0.12580000
20
 -0.11100000
30
  0.00000000
40
  0.00020000
0
LINE
8
DC
6
CONTINUOUS
62
7
10
  0.12680000
20
 -0.11120000
30
  0.00000000
11
  0.12680000
21
 -0.11120000
31
  0.00000000
0
LINE
8
DC
6
CONTINUOUS
62
7
10
  0.12666771
20
 -0.11115000
30
  0.00000000
11
  0.12693229
21
 -0.11115000
31
  0.00000000
0
LINE
8
DC
6
CONTINUOUS
62
7
10
  0.12662679
20
 -0.11110000
30
  0.00000000
11
  0.12697321
21
 -0.11110000
31
  0.00000000
0
LINE
8
DC
6
CONTINUOUS
62
7
10
  0.12660635
20
 -0.11105000
30
  0.00000000
11
  0.12699365
21
 -0.11105000
31
  0.00000000
0
LINE
8
DC
6
CONTINUOUS
62
7
10
  0.12660000
20
 -0.11100000
30
  0.00000000
11
  0.12700000
21
 -0.11100000
31
  0.00000000
0
LINE
8
DC
6
CONTINUOUS
62
7
10
  0.12660635
20
 -0.11095000
30
  0.00000000
11
  0.12699365
21
 -0.11095000
31
  0.00000000
0
LINE
8
DC
6
CONTINUOUS
62
7
10
  0.12662679
20
 -0.11090000
30
  0.00000000
11
  0.12697321
21
 -0.11090000
31
  0.00000000
0
LINE
8
DC
6
CONTINUOUS
62
7
10
  0.12666771
20
 -0.11085000
30
  0.00000000
11
  0.12693229
21
 -0.11085000
31
  0.00000000
0
CIRCLE
8
DC
6
CONTINUOUS
62
7
10
  0.12680000
20
 -0.11100000
30
  0.00000000
40
  0.00020000
0
LINE
8
DC
6
CONTINUOUS
62
7
10
  0.12780000
20
 -0.11120000
30
  0.00000000
11
  0.12780000
21
 -0.11120000
31
  0.00000000
0
LINE
8
DC
6
CONTINUOUS
62
7
10
  0.12766771
20
 -0.11115000
30
  0.00000000
11
  0.12793229
21
 -0.11115000
31
  0.00000000
0
LINE
8
DC
6
CONTINUOUS
62
7
10
  0.12762679
20
 -0.11110000
30
  0.00000000
11
  0.12797321
21
 -0.11110000
31
  0.00000000
0
LINE
8
DC
6
CONTINUOUS
62
7
10
  0.12760635
20
 -0.11105000
30
  0.00000000
11
  0.12799365
21
 -0.11105000
31
  0.00000000
0
LINE
8
DC
6
CONTINUOUS
62
7
10
  0.12760000
20
 -0.11100000
30
  0.00000000
11
  0.12800000
21
 -0.11100000
31
  0.00000000
0
LINE
8
DC
6
CONTINUOUS
62
7
10
  0.12760635
20
 -0.11095000
30
  0.00000000
11
  0.12799365
21
 -0.11095000
31
  0.00000000
0
LINE
8
DC
6
CONTINUOUS
62
7
10
  0.12762679
20
 -0.11090000
30
  0.00000000
11
  0.12797321
21
 -0.11090000
31
  0.00000000
0
LINE
8
DC
6
CONTINUOUS
62
7
10
  0.12766771
20
 -0.11085000
30
  0.00000000
11
  0.12793229
21
 -0.11085000
31
  0.00000000
0
CIRCLE
8
DC
6
CONTINUOUS
62
7
10
  0.12780000
20
 -0.11100000
30
  0.00000000
40
  0.00020000
0
LINE
8
DC
6
CONTINUOUS
62
7
10
  0.12880000
20
 -0.11120000
30
  0.00000000
11
  0.12880000
21
 -0.11120000
31
  0.00000000
0
LINE
8
DC
6
CONTINUOUS
62
7
10
  0.12866771
20
 -0.11115000
30
  0.00000000
11
  0.12893229
21
 -0.11115000
31
  0.00000000
0
LINE
8
DC
6
CONTINUOUS
62
7
10
  0.12862679
20
 -0.11110000
30
  0.00000000
11
  0.12897321
21
 -0.11110000
31
  0.00000000
0
LINE
8
DC
6
CONTINUOUS
62
7
10
  0.12860635
20
 -0.11105000
30
  0.00000000
11
  0.12899365
21
 -0.11105000
31
  0.00000000
0
LINE
8
DC
6
CONTINUOUS
62
7
10
  0.12860000
20
 -0.11100000
30
  0.00000000
11
  0.12900000
21
 -0.11100000
31
  0.00000000
0
LINE
8
DC
6
CONTINUOUS
62
7
10
  0.12860635
20
 -0.11095000
30
  0.00000000
11
  0.12899365
21
 -0.11095000
31
  0.00000000
0
LINE
8
DC
6
CONTINUOUS
62
7
10
  0.12862679
20
 -0.11090000
30
  0.00000000
11
  0.12897321
21
 -0.11090000
31
  0.00000000
0
LINE
8
DC
6
CONTINUOUS
62
7
10
  0.12866771
20
 -0.11085000
30
  0.00000000
11
  0.12893229
21
 -0.11085000
31
  0.00000000
0
CIRCLE
8
DC
6
CONTINUOUS
62
7
10
  0.12880000
20
 -0.11100000
30
  0.00000000
40
  0.00020000
0
LINE
8
DC
6
CONTINUOUS
62
7
10
  0.12530000
20
 -0.11010000
30
  0.00000000
11
  0.12530000
21
 -0.11010000
31
  0.00000000
0
LINE
8
DC
6
CONTINUOUS
62
7
10
  0.12516771
20
 -0.11005000
30
  0.00000000
11
  0.12543229
21
 -0.11005000
31
  0.00000000
0
LINE
8
DC
6
CONTINUOUS
62
7
10
  0.12512679
20
 -0.11000000
30
  0.00000000
11
  0.12547321
21
 -0.11000000
31
  0.00000000
0
LINE
8
DC
6
CONTINUOUS
62
7
10
  0.12510635
20
 -0.10995000
30
  0.00000000
11
  0.12549365
21
 -0.10995000
31
  0.00000000
0
LINE
8
DC
6
CONTINUOUS
62
7
10
  0.12510000
20
 -0.10990000
30
  0.00000000
11
  0.12550000
21
 -0.10990000
31
  0.00000000
0
LINE
8
DC
6
CONTINUOUS
62
7
10
  0.12510635
20
 -0.10985000
30
  0.00000000
11
  0.12549365
21
 -0.10985000
31
  0.00000000
0
LINE
8
DC
6
CONTINUOUS
62
7
10
  0.12512679
20
 -0.10980000
30
  0.00000000
11
  0.12547321
21
 -0.10980000
31
  0.00000000
0
LINE
8
DC
6
CONTINUOUS
62
7
10
  0.12516771
20
 -0.10975000
30
  0.00000000
11
  0.12543229
21
 -0.10975000
31
  0.00000000
0
CIRCLE
8
DC
6
CONTINUOUS
62
7
10
  0.12530000
20
 -0.10990000
30
  0.00000000
40
  0.00020000
0
LINE
8
DC
6
CONTINUOUS
62
7
10
  0.12630000
20
 -0.11010000
30
  0.00000000
11
  0.12630000
21
 -0.11010000
31
  0.00000000
0
LINE
8
DC
6
CONTINUOUS
62
7
10
  0.12616771
20
 -0.11005000
30
  0.00000000
11
  0.12643229
21
 -0.11005000
31
  0.00000000
0
LINE
8
DC
6
CONTINUOUS
62
7
10
  0.12612679
20
 -0.11000000
30
  0.00000000
11
  0.12647321
21
 -0.11000000
31
  0.00000000
0
LINE
8
DC
6
CONTINUOUS
62
7
10
  0.12610635
20
 -0.10995000
30
  0.00000000
11
  0.12649365
21
 -0.10995000
31
  0.00000000
0
LINE
8
DC
6
CONTINUOUS
62
7
10
  0.12610000
20
 -0.10990000
30
  0.00000000
11
  0.12650000
21
 -0.10990000
31
  0.00000000
0
LINE
8
DC
6
CONTINUOUS
62
7
10
  0.12610635
20
 -0.10985000
30
  0.00000000
11
  0.12649365
21
 -0.10985000
31
  0.00000000
0
LINE
8
DC
6
CONTINUOUS
62
7
10
  0.12612679
20
 -0.10980000
30
  0.00000000
11
  0.12647321
21
 -0.10980000
31
  0.00000000
0
LINE
8
DC
6
CONTINUOUS
62
7
10
  0.12616771
20
 -0.10975000
30
  0.00000000
11
  0.12643229
21
 -0.10975000
31
  0.00000000
0
CIRCLE
8
DC
6
CONTINUOUS
62
7
10
  0.12630000
20
 -0.10990000
30
  0.00000000
40
  0.00020000
0
LINE
8
DC
6
CONTINUOUS
62
7
10
  0.12730000
20
 -0.11010000
30
  0.00000000
11
  0.12730000
21
 -0.11010000
31
  0.00000000
0
LINE
8
DC
6
CONTINUOUS
62
7
10
  0.12716771
20
 -0.11005000
30
  0.00000000
11
  0.12743229
21
 -0.11005000
31
  0.00000000
0
LINE
8
DC
6
CONTINUOUS
62
7
10
  0.12712679
20
 -0.11000000
30
  0.00000000
11
  0.12747321
21
 -0.11000000
31
  0.00000000
0
LINE
8
DC
6
CONTINUOUS
62
7
10
  0.12710635
20
 -0.10995000
30
  0.00000000
11
  0.12749365
21
 -0.10995000
31
  0.00000000
0
LINE
8
DC
6
CONTINUOUS
62
7
10
  0.12710000
20
 -0.10990000
30
  0.00000000
11
  0.12750000
21
 -0.10990000
31
  0.00000000
0
LINE
8
DC
6
CONTINUOUS
62
7
10
  0.12710635
20
 -0.10985000
30
  0.00000000
11
  0.12749365
21
 -0.10985000
31
  0.00000000
0
LINE
8
DC
6
CONTINUOUS
62
7
10
  0.12712679
20
 -0.10980000
30
  0.00000000
11
  0.12747321
21
 -0.10980000
31
  0.00000000
0
LINE
8
DC
6
CONTINUOUS
62
7
10
  0.12716771
20
 -0.10975000
30
  0.00000000
11
  0.12743229
21
 -0.10975000
31
  0.00000000
0
CIRCLE
8
DC
6
CONTINUOUS
62
7
10
  0.12730000
20
 -0.10990000
30
  0.00000000
40
  0.00020000
0
LINE
8
DC
6
CONTINUOUS
62
7
10
  0.12830000
20
 -0.11010000
30
  0.00000000
11
  0.12830000
21
 -0.11010000
31
  0.00000000
0
LINE
8
DC
6
CONTINUOUS
62
7
10
  0.12816771
20
 -0.11005000
30
  0.00000000
11
  0.12843229
21
 -0.11005000
31
  0.00000000
0
LINE
8
DC
6
CONTINUOUS
62
7
10
  0.12812679
20
 -0.11000000
30
  0.00000000
11
  0.12847321
21
 -0.11000000
31
  0.00000000
0
LINE
8
DC
6
CONTINUOUS
62
7
10
  0.12810635
20
 -0.10995000
30
  0.00000000
11
  0.12849365
21
 -0.10995000
31
  0.00000000
0
LINE
8
DC
6
CONTINUOUS
62
7
10
  0.12810000
20
 -0.10990000
30
  0.00000000
11
  0.12850000
21
 -0.10990000
31
  0.00000000
0
LINE
8
DC
6
CONTINUOUS
62
7
10
  0.12810635
20
 -0.10985000
30
  0.00000000
11
  0.12849365
21
 -0.10985000
31
  0.00000000
0
LINE
8
DC
6
CONTINUOUS
62
7
10
  0.12812679
20
 -0.10980000
30
  0.00000000
11
  0.12847321
21
 -0.10980000
31
  0.00000000
0
LINE
8
DC
6
CONTINUOUS
62
7
10
  0.12816771
20
 -0.10975000
30
  0.00000000
11
  0.12843229
21
 -0.10975000
31
  0.00000000
0
CIRCLE
8
DC
6
CONTINUOUS
62
7
10
  0.12830000
20
 -0.10990000
30
  0.00000000
40
  0.00020000
0
LINE
8
DC
6
CONTINUOUS
62
7
10
  0.12930000
20
 -0.11010000
30
  0.00000000
11
  0.12930000
21
 -0.11010000
31
  0.00000000
0
LINE
8
DC
6
CONTINUOUS
62
7
10
  0.12916771
20
 -0.11005000
30
  0.00000000
11
  0.12943229
21
 -0.11005000
31
  0.00000000
0
LINE
8
DC
6
CONTINUOUS
62
7
10
  0.12912679
20
 -0.11000000
30
  0.00000000
11
  0.12947321
21
 -0.11000000
31
  0.00000000
0
LINE
8
DC
6
CONTINUOUS
62
7
10
  0.12910635
20
 -0.10995000
30
  0.00000000
11
  0.12949365
21
 -0.10995000
31
  0.00000000
0
LINE
8
DC
6
CONTINUOUS
62
7
10
  0.12910000
20
 -0.10990000
30
  0.00000000
11
  0.12950000
21
 -0.10990000
31
  0.00000000
0
LINE
8
DC
6
CONTINUOUS
62
7
10
  0.12910635
20
 -0.10985000
30
  0.00000000
11
  0.12949365
21
 -0.10985000
31
  0.00000000
0
LINE
8
DC
6
CONTINUOUS
62
7
10
  0.12912679
20
 -0.10980000
30
  0.00000000
11
  0.12947321
21
 -0.10980000
31
  0.00000000
0
LINE
8
DC
6
CONTINUOUS
62
7
10
  0.12916771
20
 -0.10975000
30
  0.00000000
11
  0.12943229
21
 -0.10975000
31
  0.00000000
0
CIRCLE
8
DC
6
CONTINUOUS
62
7
10
  0.12930000
20
 -0.10990000
30
  0.00000000
40
  0.00020000
0
LINE
8
DC
6
CONTINUOUS
62
7
10
  0.12460000
20
 -0.11410000
30
  0.00000000
11
  0.12710000
21
 -0.11160000
31
  0.00000000
0
LINE
8
DC
6
CONTINUOUS
62
7
10
  0.12710000
20
 -0.11660000
30
  0.00000000
11
  0.12960000
21
 -0.11410000
31
  0.00000000
0
LINE
8
DC
6
CONTINUOUS
62
7
10
  0.12460000
20
 -0.11660000
30
  0.00000000
11
  0.12960000
21
 -0.11160000
31
  0.00000000
0
LINE
8
DC
6
CONTINUOUS
62
7
10
  0.12510000
20
 -0.11740000
30
  0.00000000
11
  0.12810000
21
 -0.11740000
31
  0.00000000
0
LINE
8
DC
6
CONTINUOUS
62
7
10
  0.12610000
20
 -0.11900000
30
  0.00000000
11
  0.12910000
21
 -0.11900000
31
  0.00000000
0
LINE
8
DC
6
CONTINUOUS
62
7
10
  0.12620000
20
 -0.12200000
30
  0.00000000
11
  0.12620000
21
 -0.12200000
31
  0.00000000
0
LINE
8
DC
6
CONTINUOUS
62
7
10
  0.12598206
20
 -0.12195000
30
  0.00000000
11
  0.12641794
21
 -0.12195000
31
  0.00000000
0
LINE
8
DC
6
CONTINUOUS
62
7
10
  0.12590000
20
 -0.12190000
30
  0.00000000
11
  0.12650000
21
 -0.12190000
31
  0.00000000
0
LINE
8
DC
6
CONTINUOUS
62
7
10
  0.12584293
20
 -0.12185000
30
  0.00000000
11
  0.12655707
21
 -0.12185000
31
  0.00000000
0
LINE
8
DC
6
CONTINUOUS
62
7
10
  0.12580000
20
 -0.12180000
30
  0.00000000
11
  0.12660000
21
 -0.12180000
31
  0.00000000
0
LINE
8
DC
6
CONTINUOUS
62
7
10
  0.12576699
20
 -0.12175000
30
  0.00000000
11
  0.12663301
21
 -0.12175000
31
  0.00000000
0
LINE
8
DC
6
CONTINUOUS
62
7
10
  0.12574174
20
 -0.12170000
30
  0.00000000
11
  0.12665826
21
 -0.12170000
31
  0.00000000
0
LINE
8
DC
6
CONTINUOUS
62
7
10
  0.12572303
20
 -0.12165000
30
  0.00000000
11
  0.12667697
21
 -0.12165000
31
  0.00000000
0
LINE
8
DC
6
CONTINUOUS
62
7
10
  0.12571010
20
 -0.12160000
30
  0.00000000
11
  0.12668990
21
 -0.12160000
31
  0.00000000
0
LINE
8
DC
6
CONTINUOUS
62
7
10
  0.12570251
20
 -0.12155000
30
  0.00000000
11
  0.12669749
21
 -0.12155000
31
  0.00000000
0
LINE
8
DC
6
CONTINUOUS
62
7
10
  0.12570000
20
 -0.12150000
30
  0.00000000
11
  0.12670000
21
 -0.12150000
31
  0.00000000
0
LINE
8
DC
6
CONTINUOUS
62
7
10
  0.12570251
20
 -0.12145000
30
  0.00000000
11
  0.12669749
21
 -0.12145000
31
  0.00000000
0
LINE
8
DC
6
CONTINUOUS
62
7
10
  0.12571010
20
 -0.12140000
30
  0.00000000
11
  0.12668990
21
 -0.12140000
31
  0.00000000
0
LINE
8
DC
6
CONTINUOUS
62
7
10
  0.12572303
20
 -0.12135000
30
  0.00000000
11
  0.12667697
21
 -0.12135000
31
  0.00000000
0
LINE
8
DC
6
CONTINUOUS
62
7
10
  0.12574174
20
 -0.12130000
30
  0.00000000
11
  0.12665826
21
 -0.12130000
31
  0.00000000
0
LINE
8
DC
6
CONTINUOUS
62
7
10
  0.12576699
20
 -0.12125000
30
  0.00000000
11
  0.12663301
21
 -0.12125000
31
  0.00000000
0
LINE
8
DC
6
CONTINUOUS
62
7
10
  0.12580000
20
 -0.12120000
30
  0.00000000
11
  0.12660000
21
 -0.12120000
31
  0.00000000
0
LINE
8
DC
6
CONTINUOUS
62
7
10
  0.12584293
20
 -0.12115000
30
  0.00000000
11
  0.12655707
21
 -0.12115000
31
  0.00000000
0
LINE
8
DC
6
CONTINUOUS
62
7
10
  0.12590000
20
 -0.12110000
30
  0.00000000
11
  0.12650000
21
 -0.12110000
31
  0.00000000
0
LINE
8
DC
6
CONTINUOUS
62
7
10
  0.12598206
20
 -0.12105000
30
  0.00000000
11
  0.12641794
21
 -0.12105000
31
  0.00000000
0
CIRCLE
8
DC
6
CONTINUOUS
62
7
10
  0.12620000
20
 -0.12150000
30
  0.00000000
40
  0.00050000
0
LINE
8
DC
6
CONTINUOUS
62
7
10
  0.12780000
20
 -0.12200000
30
  0.00000000
11
  0.12780000
21
 -0.12200000
31
  0.00000000
0
LINE
8
DC
6
CONTINUOUS
62
7
10
  0.12758206
20
 -0.12195000
30
  0.00000000
11
  0.12801794
21
 -0.12195000
31
  0.00000000
0
LINE
8
DC
6
CONTINUOUS
62
7
10
  0.12750000
20
 -0.12190000
30
  0.00000000
11
  0.12810000
21
 -0.12190000
31
  0.00000000
0
LINE
8
DC
6
CONTINUOUS
62
7
10
  0.12744293
20
 -0.12185000
30
  0.00000000
11
  0.12815707
21
 -0.12185000
31
  0.00000000
0
LINE
8
DC
6
CONTINUOUS
62
7
10
  0.12740000
20
 -0.12180000
30
  0.00000000
11
  0.12820000
21
 -0.12180000
31
  0.00000000
0
LINE
8
DC
6
CONTINUOUS
62
7
10
  0.12736699
20
 -0.12175000
30
  0.00000000
11
  0.12823301
21
 -0.12175000
31
  0.00000000
0
LINE
8
DC
6
CONTINUOUS
62
7
10
  0.12734174
20
 -0.12170000
30
  0.00000000
11
  0.12825826
21
 -0.12170000
31
  0.00000000
0
LINE
8
DC
6
CONTINUOUS
62
7
10
  0.12732303
20
 -0.12165000
30
  0.00000000
11
  0.12827697
21
 -0.12165000
31
  0.00000000
0
LINE
8
DC
6
CONTINUOUS
62
7
10
  0.12731010
20
 -0.12160000
30
  0.00000000
11
  0.12828990
21
 -0.12160000
31
  0.00000000
0
LINE
8
DC
6
CONTINUOUS
62
7
10
  0.12730251
20
 -0.12155000
30
  0.00000000
11
  0.12829749
21
 -0.12155000
31
  0.00000000
0
LINE
8
DC
6
CONTINUOUS
62
7
10
  0.12730000
20
 -0.12150000
30
  0.00000000
11
  0.12830000
21
 -0.12150000
31
  0.00000000
0
LINE
8
DC
6
CONTINUOUS
62
7
10
  0.12730251
20
 -0.12145000
30
  0.00000000
11
  0.12829749
21
 -0.12145000
31
  0.00000000
0
LINE
8
DC
6
CONTINUOUS
62
7
10
  0.12731010
20
 -0.12140000
30
  0.00000000
11
  0.12828990
21
 -0.12140000
31
  0.00000000
0
LINE
8
DC
6
CONTINUOUS
62
7
10
  0.12732303
20
 -0.12135000
30
  0.00000000
11
  0.12827697
21
 -0.12135000
31
  0.00000000
0
LINE
8
DC
6
CONTINUOUS
62
7
10
  0.12734174
20
 -0.12130000
30
  0.00000000
11
  0.12825826
21
 -0.12130000
31
  0.00000000
0
LINE
8
DC
6
CONTINUOUS
62
7
10
  0.12736699
20
 -0.12125000
30
  0.00000000
11
  0.12823301
21
 -0.12125000
31
  0.00000000
0
LINE
8
DC
6
CONTINUOUS
62
7
10
  0.12740000
20
 -0.12120000
30
  0.00000000
11
  0.12820000
21
 -0.12120000
31
  0.00000000
0
LINE
8
DC
6
CONTINUOUS
62
7
10
  0.12744293
20
 -0.12115000
30
  0.00000000
11
  0.12815707
21
 -0.12115000
31
  0.00000000
0
LINE
8
DC
6
CONTINUOUS
62
7
10
  0.12750000
20
 -0.12110000
30
  0.00000000
11
  0.12810000
21
 -0.12110000
31
  0.00000000
0
LINE
8
DC
6
CONTINUOUS
62
7
10
  0.12758206
20
 -0.12105000
30
  0.00000000
11
  0.12801794
21
 -0.12105000
31
  0.00000000
0
CIRCLE
8
DC
6
CONTINUOUS
62
7
10
  0.12780000
20
 -0.12150000
30
  0.00000000
40
  0.00050000
0
LINE
8
DC
6
CONTINUOUS
62
7
10
  0.12560000
20
 -0.12200000
30
  0.00000000
11
  0.12860000
21
 -0.12200000
31
  0.00000000
0
LINE
8
DC
6
CONTINUOUS
62
7
10
  0.12480000
20
 -0.12390000
30
  0.00000000
11
  0.12480000
21
 -0.12390000
31
  0.00000000
0
LINE
8
DC
6
CONTINUOUS
62
7
10
  0.12466771
20
 -0.12385000
30
  0.00000000
11
  0.12493229
21
 -0.12385000
31
  0.00000000
0
LINE
8
DC
6
CONTINUOUS
62
7
10
  0.12462679
20
 -0.12380000
30
  0.00000000
11
  0.12497321
21
 -0.12380000
31
  0.00000000
0
LINE
8
DC
6
CONTINUOUS
62
7
10
  0.12460635
20
 -0.12375000
30
  0.00000000
11
  0.12499365
21
 -0.12375000
31
  0.00000000
0
LINE
8
DC
6
CONTINUOUS
62
7
10
  0.12460000
20
 -0.12370000
30
  0.00000000
11
  0.12500000
21
 -0.12370000
31
  0.00000000
0
LINE
8
DC
6
CONTINUOUS
62
7
10
  0.12460635
20
 -0.12365000
30
  0.00000000
11
  0.12499365
21
 -0.12365000
31
  0.00000000
0
LINE
8
DC
6
CONTINUOUS
62
7
10
  0.12462679
20
 -0.12360000
30
  0.00000000
11
  0.12497321
21
 -0.12360000
31
  0.00000000
0
LINE
8
DC
6
CONTINUOUS
62
7
10
  0.12466771
20
 -0.12355000
30
  0.00000000
11
  0.12493229
21
 -0.12355000
31
  0.00000000
0
CIRCLE
8
DC
6
CONTINUOUS
62
7
10
  0.12480000
20
 -0.12370000
30
  0.00000000
40
  0.00020000
0
LINE
8
DC
6
CONTINUOUS
62
7
10
  0.12580000
20
 -0.12390000
30
  0.00000000
11
  0.12580000
21
 -0.12390000
31
  0.00000000
0
LINE
8
DC
6
CONTINUOUS
62
7
10
  0.12566771
20
 -0.12385000
30
  0.00000000
11
  0.12593229
21
 -0.12385000
31
  0.00000000
0
LINE
8
DC
6
CONTINUOUS
62
7
10
  0.12562679
20
 -0.12380000
30
  0.00000000
11
  0.12597321
21
 -0.12380000
31
  0.00000000
0
LINE
8
DC
6
CONTINUOUS
62
7
10
  0.12560635
20
 -0.12375000
30
  0.00000000
11
  0.12599365
21
 -0.12375000
31
  0.00000000
0
LINE
8
DC
6
CONTINUOUS
62
7
10
  0.12560000
20
 -0.12370000
30
  0.00000000
11
  0.12600000
21
 -0.12370000
31
  0.00000000
0
LINE
8
DC
6
CONTINUOUS
62
7
10
  0.12560635
20
 -0.12365000
30
  0.00000000
11
  0.12599365
21
 -0.12365000
31
  0.00000000
0
LINE
8
DC
6
CONTINUOUS
62
7
10
  0.12562679
20
 -0.12360000
30
  0.00000000
11
  0.12597321
21
 -0.12360000
31
  0.00000000
0
LINE
8
DC
6
CONTINUOUS
62
7
10
  0.12566771
20
 -0.12355000
30
  0.00000000
11
  0.12593229
21
 -0.12355000
31
  0.00000000
0
CIRCLE
8
DC
6
CONTINUOUS
62
7
10
  0.12580000
20
 -0.12370000
30
  0.00000000
40
  0.00020000
0
LINE
8
DC
6
CONTINUOUS
62
7
10
  0.12680000
20
 -0.12390000
30
  0.00000000
11
  0.12680000
21
 -0.12390000
31
  0.00000000
0
LINE
8
DC
6
CONTINUOUS
62
7
10
  0.12666771
20
 -0.12385000
30
  0.00000000
11
  0.12693229
21
 -0.12385000
31
  0.00000000
0
LINE
8
DC
6
CONTINUOUS
62
7
10
  0.12662679
20
 -0.12380000
30
  0.00000000
11
  0.12697321
21
 -0.12380000
31
  0.00000000
0
LINE
8
DC
6
CONTINUOUS
62
7
10
  0.12660635
20
 -0.12375000
30
  0.00000000
11
  0.12699365
21
 -0.12375000
31
  0.00000000
0
LINE
8
DC
6
CONTINUOUS
62
7
10
  0.12660000
20
 -0.12370000
30
  0.00000000
11
  0.12700000
21
 -0.12370000
31
  0.00000000
0
LINE
8
DC
6
CONTINUOUS
62
7
10
  0.12660635
20
 -0.12365000
30
  0.00000000
11
  0.12699365
21
 -0.12365000
31
  0.00000000
0
LINE
8
DC
6
CONTINUOUS
62
7
10
  0.12662679
20
 -0.12360000
30
  0.00000000
11
  0.12697321
21
 -0.12360000
31
  0.00000000
0
LINE
8
DC
6
CONTINUOUS
62
7
10
  0.12666771
20
 -0.12355000
30
  0.00000000
11
  0.12693229
21
 -0.12355000
31
  0.00000000
0
CIRCLE
8
DC
6
CONTINUOUS
62
7
10
  0.12680000
20
 -0.12370000
30
  0.00000000
40
  0.00020000
0
LINE
8
DC
6
CONTINUOUS
62
7
10
  0.12780000
20
 -0.12390000
30
  0.00000000
11
  0.12780000
21
 -0.12390000
31
  0.00000000
0
LINE
8
DC
6
CONTINUOUS
62
7
10
  0.12766771
20
 -0.12385000
30
  0.00000000
11
  0.12793229
21
 -0.12385000
31
  0.00000000
0
LINE
8
DC
6
CONTINUOUS
62
7
10
  0.12762679
20
 -0.12380000
30
  0.00000000
11
  0.12797321
21
 -0.12380000
31
  0.00000000
0
LINE
8
DC
6
CONTINUOUS
62
7
10
  0.12760635
20
 -0.12375000
30
  0.00000000
11
  0.12799365
21
 -0.12375000
31
  0.00000000
0
LINE
8
DC
6
CONTINUOUS
62
7
10
  0.12760000
20
 -0.12370000
30
  0.00000000
11
  0.12800000
21
 -0.12370000
31
  0.00000000
0
LINE
8
DC
6
CONTINUOUS
62
7
10
  0.12760635
20
 -0.12365000
30
  0.00000000
11
  0.12799365
21
 -0.12365000
31
  0.00000000
0
LINE
8
DC
6
CONTINUOUS
62
7
10
  0.12762679
20
 -0.12360000
30
  0.00000000
11
  0.12797321
21
 -0.12360000
31
  0.00000000
0
LINE
8
DC
6
CONTINUOUS
62
7
10
  0.12766771
20
 -0.12355000
30
  0.00000000
11
  0.12793229
21
 -0.12355000
31
  0.00000000
0
CIRCLE
8
DC
6
CONTINUOUS
62
7
10
  0.12780000
20
 -0.12370000
30
  0.00000000
40
  0.00020000
0
LINE
8
DC
6
CONTINUOUS
62
7
10
  0.12880000
20
 -0.12390000
30
  0.00000000
11
  0.12880000
21
 -0.12390000
31
  0.00000000
0
LINE
8
DC
6
CONTINUOUS
62
7
10
  0.12866771
20
 -0.12385000
30
  0.00000000
11
  0.12893229
21
 -0.12385000
31
  0.00000000
0
LINE
8
DC
6
CONTINUOUS
62
7
10
  0.12862679
20
 -0.12380000
30
  0.00000000
11
  0.12897321
21
 -0.12380000
31
  0.00000000
0
LINE
8
DC
6
CONTINUOUS
62
7
10
  0.12860635
20
 -0.12375000
30
  0.00000000
11
  0.12899365
21
 -0.12375000
31
  0.00000000
0
LINE
8
DC
6
CONTINUOUS
62
7
10
  0.12860000
20
 -0.12370000
30
  0.00000000
11
  0.12900000
21
 -0.12370000
31
  0.00000000
0
LINE
8
DC
6
CONTINUOUS
62
7
10
  0.12860635
20
 -0.12365000
30
  0.00000000
11
  0.12899365
21
 -0.12365000
31
  0.00000000
0
LINE
8
DC
6
CONTINUOUS
62
7
10
  0.12862679
20
 -0.12360000
30
  0.00000000
11
  0.12897321
21
 -0.12360000
31
  0.00000000
0
LINE
8
DC
6
CONTINUOUS
62
7
10
  0.12866771
20
 -0.12355000
30
  0.00000000
11
  0.12893229
21
 -0.12355000
31
  0.00000000
0
CIRCLE
8
DC
6
CONTINUOUS
62
7
10
  0.12880000
20
 -0.12370000
30
  0.00000000
40
  0.00020000
0
LINE
8
DC
6
CONTINUOUS
62
7
10
  0.12480000
20
 -0.12610000
30
  0.00000000
11
  0.12480000
21
 -0.12610000
31
  0.00000000
0
LINE
8
DC
6
CONTINUOUS
62
7
10
  0.12466771
20
 -0.12605000
30
  0.00000000
11
  0.12493229
21
 -0.12605000
31
  0.00000000
0
LINE
8
DC
6
CONTINUOUS
62
7
10
  0.12462679
20
 -0.12600000
30
  0.00000000
11
  0.12497321
21
 -0.12600000
31
  0.00000000
0
LINE
8
DC
6
CONTINUOUS
62
7
10
  0.12460635
20
 -0.12595000
30
  0.00000000
11
  0.12499365
21
 -0.12595000
31
  0.00000000
0
LINE
8
DC
6
CONTINUOUS
62
7
10
  0.12460000
20
 -0.12590000
30
  0.00000000
11
  0.12500000
21
 -0.12590000
31
  0.00000000
0
LINE
8
DC
6
CONTINUOUS
62
7
10
  0.12460635
20
 -0.12585000
30
  0.00000000
11
  0.12499365
21
 -0.12585000
31
  0.00000000
0
LINE
8
DC
6
CONTINUOUS
62
7
10
  0.12462679
20
 -0.12580000
30
  0.00000000
11
  0.12497321
21
 -0.12580000
31
  0.00000000
0
LINE
8
DC
6
CONTINUOUS
62
7
10
  0.12466771
20
 -0.12575000
30
  0.00000000
11
  0.12493229
21
 -0.12575000
31
  0.00000000
0
CIRCLE
8
DC
6
CONTINUOUS
62
7
10
  0.12480000
20
 -0.12590000
30
  0.00000000
40
  0.00020000
0
LINE
8
DC
6
CONTINUOUS
62
7
10
  0.12580000
20
 -0.12610000
30
  0.00000000
11
  0.12580000
21
 -0.12610000
31
  0.00000000
0
LINE
8
DC
6
CONTINUOUS
62
7
10
  0.12566771
20
 -0.12605000
30
  0.00000000
11
  0.12593229
21
 -0.12605000
31
  0.00000000
0
LINE
8
DC
6
CONTINUOUS
62
7
10
  0.12562679
20
 -0.12600000
30
  0.00000000
11
  0.12597321
21
 -0.12600000
31
  0.00000000
0
LINE
8
DC
6
CONTINUOUS
62
7
10
  0.12560635
20
 -0.12595000
30
  0.00000000
11
  0.12599365
21
 -0.12595000
31
  0.00000000
0
LINE
8
DC
6
CONTINUOUS
62
7
10
  0.12560000
20
 -0.12590000
30
  0.00000000
11
  0.12600000
21
 -0.12590000
31
  0.00000000
0
LINE
8
DC
6
CONTINUOUS
62
7
10
  0.12560635
20
 -0.12585000
30
  0.00000000
11
  0.12599365
21
 -0.12585000
31
  0.00000000
0
LINE
8
DC
6
CONTINUOUS
62
7
10
  0.12562679
20
 -0.12580000
30
  0.00000000
11
  0.12597321
21
 -0.12580000
31
  0.00000000
0
LINE
8
DC
6
CONTINUOUS
62
7
10
  0.12566771
20
 -0.12575000
30
  0.00000000
11
  0.12593229
21
 -0.12575000
31
  0.00000000
0
CIRCLE
8
DC
6
CONTINUOUS
62
7
10
  0.12580000
20
 -0.12590000
30
  0.00000000
40
  0.00020000
0
LINE
8
DC
6
CONTINUOUS
62
7
10
  0.12680000
20
 -0.12610000
30
  0.00000000
11
  0.12680000
21
 -0.12610000
31
  0.00000000
0
LINE
8
DC
6
CONTINUOUS
62
7
10
  0.12666771
20
 -0.12605000
30
  0.00000000
11
  0.12693229
21
 -0.12605000
31
  0.00000000
0
LINE
8
DC
6
CONTINUOUS
62
7
10
  0.12662679
20
 -0.12600000
30
  0.00000000
11
  0.12697321
21
 -0.12600000
31
  0.00000000
0
LINE
8
DC
6
CONTINUOUS
62
7
10
  0.12660635
20
 -0.12595000
30
  0.00000000
11
  0.12699365
21
 -0.12595000
31
  0.00000000
0
LINE
8
DC
6
CONTINUOUS
62
7
10
  0.12660000
20
 -0.12590000
30
  0.00000000
11
  0.12700000
21
 -0.12590000
31
  0.00000000
0
LINE
8
DC
6
CONTINUOUS
62
7
10
  0.12660635
20
 -0.12585000
30
  0.00000000
11
  0.12699365
21
 -0.12585000
31
  0.00000000
0
LINE
8
DC
6
CONTINUOUS
62
7
10
  0.12662679
20
 -0.12580000
30
  0.00000000
11
  0.12697321
21
 -0.12580000
31
  0.00000000
0
LINE
8
DC
6
CONTINUOUS
62
7
10
  0.12666771
20
 -0.12575000
30
  0.00000000
11
  0.12693229
21
 -0.12575000
31
  0.00000000
0
CIRCLE
8
DC
6
CONTINUOUS
62
7
10
  0.12680000
20
 -0.12590000
30
  0.00000000
40
  0.00020000
0
LINE
8
DC
6
CONTINUOUS
62
7
10
  0.12780000
20
 -0.12610000
30
  0.00000000
11
  0.12780000
21
 -0.12610000
31
  0.00000000
0
LINE
8
DC
6
CONTINUOUS
62
7
10
  0.12766771
20
 -0.12605000
30
  0.00000000
11
  0.12793229
21
 -0.12605000
31
  0.00000000
0
LINE
8
DC
6
CONTINUOUS
62
7
10
  0.12762679
20
 -0.12600000
30
  0.00000000
11
  0.12797321
21
 -0.12600000
31
  0.00000000
0
LINE
8
DC
6
CONTINUOUS
62
7
10
  0.12760635
20
 -0.12595000
30
  0.00000000
11
  0.12799365
21
 -0.12595000
31
  0.00000000
0
LINE
8
DC
6
CONTINUOUS
62
7
10
  0.12760000
20
 -0.12590000
30
  0.00000000
11
  0.12800000
21
 -0.12590000
31
  0.00000000
0
LINE
8
DC
6
CONTINUOUS
62
7
10
  0.12760635
20
 -0.12585000
30
  0.00000000
11
  0.12799365
21
 -0.12585000
31
  0.00000000
0
LINE
8
DC
6
CONTINUOUS
62
7
10
  0.12762679
20
 -0.12580000
30
  0.00000000
11
  0.12797321
21
 -0.12580000
31
  0.00000000
0
LINE
8
DC
6
CONTINUOUS
62
7
10
  0.12766771
20
 -0.12575000
30
  0.00000000
11
  0.12793229
21
 -0.12575000
31
  0.00000000
0
CIRCLE
8
DC
6
CONTINUOUS
62
7
10
  0.12780000
20
 -0.12590000
30
  0.00000000
40
  0.00020000
0
LINE
8
DC
6
CONTINUOUS
62
7
10
  0.12880000
20
 -0.12610000
30
  0.00000000
11
  0.12880000
21
 -0.12610000
31
  0.00000000
0
LINE
8
DC
6
CONTINUOUS
62
7
10
  0.12866771
20
 -0.12605000
30
  0.00000000
11
  0.12893229
21
 -0.12605000
31
  0.00000000
0
LINE
8
DC
6
CONTINUOUS
62
7
10
  0.12862679
20
 -0.12600000
30
  0.00000000
11
  0.12897321
21
 -0.12600000
31
  0.00000000
0
LINE
8
DC
6
CONTINUOUS
62
7
10
  0.12860635
20
 -0.12595000
30
  0.00000000
11
  0.12899365
21
 -0.12595000
31
  0.00000000
0
LINE
8
DC
6
CONTINUOUS
62
7
10
  0.12860000
20
 -0.12590000
30
  0.00000000
11
  0.12900000
21
 -0.12590000
31
  0.00000000
0
LINE
8
DC
6
CONTINUOUS
62
7
10
  0.12860635
20
 -0.12585000
30
  0.00000000
11
  0.12899365
21
 -0.12585000
31
  0.00000000
0
LINE
8
DC
6
CONTINUOUS
62
7
10
  0.12862679
20
 -0.12580000
30
  0.00000000
11
  0.12897321
21
 -0.12580000
31
  0.00000000
0
LINE
8
DC
6
CONTINUOUS
62
7
10
  0.12866771
20
 -0.12575000
30
  0.00000000
11
  0.12893229
21
 -0.12575000
31
  0.00000000
0
CIRCLE
8
DC
6
CONTINUOUS
62
7
10
  0.12880000
20
 -0.12590000
30
  0.00000000
40
  0.00020000
0
LINE
8
DC
6
CONTINUOUS
62
7
10
  0.12530000
20
 -0.12500000
30
  0.00000000
11
  0.12530000
21
 -0.12500000
31
  0.00000000
0
LINE
8
DC
6
CONTINUOUS
62
7
10
  0.12516771
20
 -0.12495000
30
  0.00000000
11
  0.12543229
21
 -0.12495000
31
  0.00000000
0
LINE
8
DC
6
CONTINUOUS
62
7
10
  0.12512679
20
 -0.12490000
30
  0.00000000
11
  0.12547321
21
 -0.12490000
31
  0.00000000
0
LINE
8
DC
6
CONTINUOUS
62
7
10
  0.12510635
20
 -0.12485000
30
  0.00000000
11
  0.12549365
21
 -0.12485000
31
  0.00000000
0
LINE
8
DC
6
CONTINUOUS
62
7
10
  0.12510000
20
 -0.12480000
30
  0.00000000
11
  0.12550000
21
 -0.12480000
31
  0.00000000
0
LINE
8
DC
6
CONTINUOUS
62
7
10
  0.12510635
20
 -0.12475000
30
  0.00000000
11
  0.12549365
21
 -0.12475000
31
  0.00000000
0
LINE
8
DC
6
CONTINUOUS
62
7
10
  0.12512679
20
 -0.12470000
30
  0.00000000
11
  0.12547321
21
 -0.12470000
31
  0.00000000
0
LINE
8
DC
6
CONTINUOUS
62
7
10
  0.12516771
20
 -0.12465000
30
  0.00000000
11
  0.12543229
21
 -0.12465000
31
  0.00000000
0
CIRCLE
8
DC
6
CONTINUOUS
62
7
10
  0.12530000
20
 -0.12480000
30
  0.00000000
40
  0.00020000
0
LINE
8
DC
6
CONTINUOUS
62
7
10
  0.12630000
20
 -0.12500000
30
  0.00000000
11
  0.12630000
21
 -0.12500000
31
  0.00000000
0
LINE
8
DC
6
CONTINUOUS
62
7
10
  0.12616771
20
 -0.12495000
30
  0.00000000
11
  0.12643229
21
 -0.12495000
31
  0.00000000
0
LINE
8
DC
6
CONTINUOUS
62
7
10
  0.12612679
20
 -0.12490000
30
  0.00000000
11
  0.12647321
21
 -0.12490000
31
  0.00000000
0
LINE
8
DC
6
CONTINUOUS
62
7
10
  0.12610635
20
 -0.12485000
30
  0.00000000
11
  0.12649365
21
 -0.12485000
31
  0.00000000
0
LINE
8
DC
6
CONTINUOUS
62
7
10
  0.12610000
20
 -0.12480000
30
  0.00000000
11
  0.12650000
21
 -0.12480000
31
  0.00000000
0
LINE
8
DC
6
CONTINUOUS
62
7
10
  0.12610635
20
 -0.12475000
30
  0.00000000
11
  0.12649365
21
 -0.12475000
31
  0.00000000
0
LINE
8
DC
6
CONTINUOUS
62
7
10
  0.12612679
20
 -0.12470000
30
  0.00000000
11
  0.12647321
21
 -0.12470000
31
  0.00000000
0
LINE
8
DC
6
CONTINUOUS
62
7
10
  0.12616771
20
 -0.12465000
30
  0.00000000
11
  0.12643229
21
 -0.12465000
31
  0.00000000
0
CIRCLE
8
DC
6
CONTINUOUS
62
7
10
  0.12630000
20
 -0.12480000
30
  0.00000000
40
  0.00020000
0
LINE
8
DC
6
CONTINUOUS
62
7
10
  0.12730000
20
 -0.12500000
30
  0.00000000
11
  0.12730000
21
 -0.12500000
31
  0.00000000
0
LINE
8
DC
6
CONTINUOUS
62
7
10
  0.12716771
20
 -0.12495000
30
  0.00000000
11
  0.12743229
21
 -0.12495000
31
  0.00000000
0
LINE
8
DC
6
CONTINUOUS
62
7
10
  0.12712679
20
 -0.12490000
30
  0.00000000
11
  0.12747321
21
 -0.12490000
31
  0.00000000
0
LINE
8
DC
6
CONTINUOUS
62
7
10
  0.12710635
20
 -0.12485000
30
  0.00000000
11
  0.12749365
21
 -0.12485000
31
  0.00000000
0
LINE
8
DC
6
CONTINUOUS
62
7
10
  0.12710000
20
 -0.12480000
30
  0.00000000
11
  0.12750000
21
 -0.12480000
31
  0.00000000
0
LINE
8
DC
6
CONTINUOUS
62
7
10
  0.12710635
20
 -0.12475000
30
  0.00000000
11
  0.12749365
21
 -0.12475000
31
  0.00000000
0
LINE
8
DC
6
CONTINUOUS
62
7
10
  0.12712679
20
 -0.12470000
30
  0.00000000
11
  0.12747321
21
 -0.12470000
31
  0.00000000
0
LINE
8
DC
6
CONTINUOUS
62
7
10
  0.12716771
20
 -0.12465000
30
  0.00000000
11
  0.12743229
21
 -0.12465000
31
  0.00000000
0
CIRCLE
8
DC
6
CONTINUOUS
62
7
10
  0.12730000
20
 -0.12480000
30
  0.00000000
40
  0.00020000
0
LINE
8
DC
6
CONTINUOUS
62
7
10
  0.12830000
20
 -0.12500000
30
  0.00000000
11
  0.12830000
21
 -0.12500000
31
  0.00000000
0
LINE
8
DC
6
CONTINUOUS
62
7
10
  0.12816771
20
 -0.12495000
30
  0.00000000
11
  0.12843229
21
 -0.12495000
31
  0.00000000
0
LINE
8
DC
6
CONTINUOUS
62
7
10
  0.12812679
20
 -0.12490000
30
  0.00000000
11
  0.12847321
21
 -0.12490000
31
  0.00000000
0
LINE
8
DC
6
CONTINUOUS
62
7
10
  0.12810635
20
 -0.12485000
30
  0.00000000
11
  0.12849365
21
 -0.12485000
31
  0.00000000
0
LINE
8
DC
6
CONTINUOUS
62
7
10
  0.12810000
20
 -0.12480000
30
  0.00000000
11
  0.12850000
21
 -0.12480000
31
  0.00000000
0
LINE
8
DC
6
CONTINUOUS
62
7
10
  0.12810635
20
 -0.12475000
30
  0.00000000
11
  0.12849365
21
 -0.12475000
31
  0.00000000
0
LINE
8
DC
6
CONTINUOUS
62
7
10
  0.12812679
20
 -0.12470000
30
  0.00000000
11
  0.12847321
21
 -0.12470000
31
  0.00000000
0
LINE
8
DC
6
CONTINUOUS
62
7
10
  0.12816771
20
 -0.12465000
30
  0.00000000
11
  0.12843229
21
 -0.12465000
31
  0.00000000
0
CIRCLE
8
DC
6
CONTINUOUS
62
7
10
  0.12830000
20
 -0.12480000
30
  0.00000000
40
  0.00020000
0
LINE
8
DC
6
CONTINUOUS
62
7
10
  0.12930000
20
 -0.12500000
30
  0.00000000
11
  0.12930000
21
 -0.12500000
31
  0.00000000
0
LINE
8
DC
6
CONTINUOUS
62
7
10
  0.12916771
20
 -0.12495000
30
  0.00000000
11
  0.12943229
21
 -0.12495000
31
  0.00000000
0
LINE
8
DC
6
CONTINUOUS
62
7
10
  0.12912679
20
 -0.12490000
30
  0.00000000
11
  0.12947321
21
 -0.12490000
31
  0.00000000
0
LINE
8
DC
6
CONTINUOUS
62
7
10
  0.12910635
20
 -0.12485000
30
  0.00000000
11
  0.12949365
21
 -0.12485000
31
  0.00000000
0
LINE
8
DC
6
CONTINUOUS
62
7
10
  0.12910000
20
 -0.12480000
30
  0.00000000
11
  0.12950000
21
 -0.12480000
31
  0.00000000
0
LINE
8
DC
6
CONTINUOUS
62
7
10
  0.12910635
20
 -0.12475000
30
  0.00000000
11
  0.12949365
21
 -0.12475000
31
  0.00000000
0
LINE
8
DC
6
CONTINUOUS
62
7
10
  0.12912679
20
 -0.12470000
30
  0.00000000
11
  0.12947321
21
 -0.12470000
31
  0.00000000
0
LINE
8
DC
6
CONTINUOUS
62
7
10
  0.12916771
20
 -0.12465000
30
  0.00000000
11
  0.12943229
21
 -0.12465000
31
  0.00000000
0
CIRCLE
8
DC
6
CONTINUOUS
62
7
10
  0.12930000
20
 -0.12480000
30
  0.00000000
40
  0.00020000
0
LINE
8
DC
6
CONTINUOUS
62
7
10
  0.12460000
20
 -0.12900000
30
  0.00000000
11
  0.12710000
21
 -0.12650000
31
  0.00000000
0
LINE
8
DC
6
CONTINUOUS
62
7
10
  0.12710000
20
 -0.13150000
30
  0.00000000
11
  0.12960000
21
 -0.12900000
31
  0.00000000
0
LINE
8
DC
6
CONTINUOUS
62
7
10
  0.12460000
20
 -0.13150000
30
  0.00000000
11
  0.12960000
21
 -0.12650000
31
  0.00000000
0
LINE
8
DC
6
CONTINUOUS
62
7
10
  0.12510000
20
 -0.13230000
30
  0.00000000
11
  0.12810000
21
 -0.13230000
31
  0.00000000
0
LINE
8
DC
6
CONTINUOUS
62
7
10
  0.12610000
20
 -0.13390000
30
  0.00000000
11
  0.12910000
21
 -0.13390000
31
  0.00000000
0
LINE
8
DC
6
CONTINUOUS
62
7
10
  0.12620000
20
 -0.13690000
30
  0.00000000
11
  0.12620000
21
 -0.13690000
31
  0.00000000
0
LINE
8
DC
6
CONTINUOUS
62
7
10
  0.12598206
20
 -0.13685000
30
  0.00000000
11
  0.12641794
21
 -0.13685000
31
  0.00000000
0
LINE
8
DC
6
CONTINUOUS
62
7
10
  0.12590000
20
 -0.13680000
30
  0.00000000
11
  0.12650000
21
 -0.13680000
31
  0.00000000
0
LINE
8
DC
6
CONTINUOUS
62
7
10
  0.12584293
20
 -0.13675000
30
  0.00000000
11
  0.12655707
21
 -0.13675000
31
  0.00000000
0
LINE
8
DC
6
CONTINUOUS
62
7
10
  0.12580000
20
 -0.13670000
30
  0.00000000
11
  0.12660000
21
 -0.13670000
31
  0.00000000
0
LINE
8
DC
6
CONTINUOUS
62
7
10
  0.12576699
20
 -0.13665000
30
  0.00000000
11
  0.12663301
21
 -0.13665000
31
  0.00000000
0
LINE
8
DC
6
CONTINUOUS
62
7
10
  0.12574174
20
 -0.13660000
30
  0.00000000
11
  0.12665826
21
 -0.13660000
31
  0.00000000
0
LINE
8
DC
6
CONTINUOUS
62
7
10
  0.12572303
20
 -0.13655000
30
  0.00000000
11
  0.12667697
21
 -0.13655000
31
  0.00000000
0
LINE
8
DC
6
CONTINUOUS
62
7
10
  0.12571010
20
 -0.13650000
30
  0.00000000
11
  0.12668990
21
 -0.13650000
31
  0.00000000
0
LINE
8
DC
6
CONTINUOUS
62
7
10
  0.12570251
20
 -0.13645000
30
  0.00000000
11
  0.12669749
21
 -0.13645000
31
  0.00000000
0
LINE
8
DC
6
CONTINUOUS
62
7
10
  0.12570000
20
 -0.13640000
30
  0.00000000
11
  0.12670000
21
 -0.13640000
31
  0.00000000
0
LINE
8
DC
6
CONTINUOUS
62
7
10
  0.12570251
20
 -0.13635000
30
  0.00000000
11
  0.12669749
21
 -0.13635000
31
  0.00000000
0
LINE
8
DC
6
CONTINUOUS
62
7
10
  0.12571010
20
 -0.13630000
30
  0.00000000
11
  0.12668990
21
 -0.13630000
31
  0.00000000
0
LINE
8
DC
6
CONTINUOUS
62
7
10
  0.12572303
20
 -0.13625000
30
  0.00000000
11
  0.12667697
21
 -0.13625000
31
  0.00000000
0
LINE
8
DC
6
CONTINUOUS
62
7
10
  0.12574174
20
 -0.13620000
30
  0.00000000
11
  0.12665826
21
 -0.13620000
31
  0.00000000
0
LINE
8
DC
6
CONTINUOUS
62
7
10
  0.12576699
20
 -0.13615000
30
  0.00000000
11
  0.12663301
21
 -0.13615000
31
  0.00000000
0
LINE
8
DC
6
CONTINUOUS
62
7
10
  0.12580000
20
 -0.13610000
30
  0.00000000
11
  0.12660000
21
 -0.13610000
31
  0.00000000
0
LINE
8
DC
6
CONTINUOUS
62
7
10
  0.12584293
20
 -0.13605000
30
  0.00000000
11
  0.12655707
21
 -0.13605000
31
  0.00000000
0
LINE
8
DC
6
CONTINUOUS
62
7
10
  0.12590000
20
 -0.13600000
30
  0.00000000
11
  0.12650000
21
 -0.13600000
31
  0.00000000
0
LINE
8
DC
6
CONTINUOUS
62
7
10
  0.12598206
20
 -0.13595000
30
  0.00000000
11
  0.12641794
21
 -0.13595000
31
  0.00000000
0
CIRCLE
8
DC
6
CONTINUOUS
62
7
10
  0.12620000
20
 -0.13640000
30
  0.00000000
40
  0.00050000
0
LINE
8
DC
6
CONTINUOUS
62
7
10
  0.12780000
20
 -0.13690000
30
  0.00000000
11
  0.12780000
21
 -0.13690000
31
  0.00000000
0
LINE
8
DC
6
CONTINUOUS
62
7
10
  0.12758206
20
 -0.13685000
30
  0.00000000
11
  0.12801794
21
 -0.13685000
31
  0.00000000
0
LINE
8
DC
6
CONTINUOUS
62
7
10
  0.12750000
20
 -0.13680000
30
  0.00000000
11
  0.12810000
21
 -0.13680000
31
  0.00000000
0
LINE
8
DC
6
CONTINUOUS
62
7
10
  0.12744293
20
 -0.13675000
30
  0.00000000
11
  0.12815707
21
 -0.13675000
31
  0.00000000
0
LINE
8
DC
6
CONTINUOUS
62
7
10
  0.12740000
20
 -0.13670000
30
  0.00000000
11
  0.12820000
21
 -0.13670000
31
  0.00000000
0
LINE
8
DC
6
CONTINUOUS
62
7
10
  0.12736699
20
 -0.13665000
30
  0.00000000
11
  0.12823301
21
 -0.13665000
31
  0.00000000
0
LINE
8
DC
6
CONTINUOUS
62
7
10
  0.12734174
20
 -0.13660000
30
  0.00000000
11
  0.12825826
21
 -0.13660000
31
  0.00000000
0
LINE
8
DC
6
CONTINUOUS
62
7
10
  0.12732303
20
 -0.13655000
30
  0.00000000
11
  0.12827697
21
 -0.13655000
31
  0.00000000
0
LINE
8
DC
6
CONTINUOUS
62
7
10
  0.12731010
20
 -0.13650000
30
  0.00000000
11
  0.12828990
21
 -0.13650000
31
  0.00000000
0
LINE
8
DC
6
CONTINUOUS
62
7
10
  0.12730251
20
 -0.13645000
30
  0.00000000
11
  0.12829749
21
 -0.13645000
31
  0.00000000
0
LINE
8
DC
6
CONTINUOUS
62
7
10
  0.12730000
20
 -0.13640000
30
  0.00000000
11
  0.12830000
21
 -0.13640000
31
  0.00000000
0
LINE
8
DC
6
CONTINUOUS
62
7
10
  0.12730251
20
 -0.13635000
30
  0.00000000
11
  0.12829749
21
 -0.13635000
31
  0.00000000
0
LINE
8
DC
6
CONTINUOUS
62
7
10
  0.12731010
20
 -0.13630000
30
  0.00000000
11
  0.12828990
21
 -0.13630000
31
  0.00000000
0
LINE
8
DC
6
CONTINUOUS
62
7
10
  0.12732303
20
 -0.13625000
30
  0.00000000
11
  0.12827697
21
 -0.13625000
31
  0.00000000
0
LINE
8
DC
6
CONTINUOUS
62
7
10
  0.12734174
20
 -0.13620000
30
  0.00000000
11
  0.12825826
21
 -0.13620000
31
  0.00000000
0
LINE
8
DC
6
CONTINUOUS
62
7
10
  0.12736699
20
 -0.13615000
30
  0.00000000
11
  0.12823301
21
 -0.13615000
31
  0.00000000
0
LINE
8
DC
6
CONTINUOUS
62
7
10
  0.12740000
20
 -0.13610000
30
  0.00000000
11
  0.12820000
21
 -0.13610000
31
  0.00000000
0
LINE
8
DC
6
CONTINUOUS
62
7
10
  0.12744293
20
 -0.13605000
30
  0.00000000
11
  0.12815707
21
 -0.13605000
31
  0.00000000
0
LINE
8
DC
6
CONTINUOUS
62
7
10
  0.12750000
20
 -0.13600000
30
  0.00000000
11
  0.12810000
21
 -0.13600000
31
  0.00000000
0
LINE
8
DC
6
CONTINUOUS
62
7
10
  0.12758206
20
 -0.13595000
30
  0.00000000
11
  0.12801794
21
 -0.13595000
31
  0.00000000
0
CIRCLE
8
DC
6
CONTINUOUS
62
7
10
  0.12780000
20
 -0.13640000
30
  0.00000000
40
  0.00050000
0
LINE
8
DC
6
CONTINUOUS
62
7
10
  0.12560000
20
 -0.13690000
30
  0.00000000
11
  0.12860000
21
 -0.13690000
31
  0.00000000
0
LINE
8
DC
6
CONTINUOUS
62
7
10
  0.12480000
20
 -0.13880000
30
  0.00000000
11
  0.12480000
21
 -0.13880000
31
  0.00000000
0
LINE
8
DC
6
CONTINUOUS
62
7
10
  0.12466771
20
 -0.13875000
30
  0.00000000
11
  0.12493229
21
 -0.13875000
31
  0.00000000
0
LINE
8
DC
6
CONTINUOUS
62
7
10
  0.12462679
20
 -0.13870000
30
  0.00000000
11
  0.12497321
21
 -0.13870000
31
  0.00000000
0
LINE
8
DC
6
CONTINUOUS
62
7
10
  0.12460635
20
 -0.13865000
30
  0.00000000
11
  0.12499365
21
 -0.13865000
31
  0.00000000
0
LINE
8
DC
6
CONTINUOUS
62
7
10
  0.12460000
20
 -0.13860000
30
  0.00000000
11
  0.12500000
21
 -0.13860000
31
  0.00000000
0
LINE
8
DC
6
CONTINUOUS
62
7
10
  0.12460635
20
 -0.13855000
30
  0.00000000
11
  0.12499365
21
 -0.13855000
31
  0.00000000
0
LINE
8
DC
6
CONTINUOUS
62
7
10
  0.12462679
20
 -0.13850000
30
  0.00000000
11
  0.12497321
21
 -0.13850000
31
  0.00000000
0
LINE
8
DC
6
CONTINUOUS
62
7
10
  0.12466771
20
 -0.13845000
30
  0.00000000
11
  0.12493229
21
 -0.13845000
31
  0.00000000
0
CIRCLE
8
DC
6
CONTINUOUS
62
7
10
  0.12480000
20
 -0.13860000
30
  0.00000000
40
  0.00020000
0
LINE
8
DC
6
CONTINUOUS
62
7
10
  0.12580000
20
 -0.13880000
30
  0.00000000
11
  0.12580000
21
 -0.13880000
31
  0.00000000
0
LINE
8
DC
6
CONTINUOUS
62
7
10
  0.12566771
20
 -0.13875000
30
  0.00000000
11
  0.12593229
21
 -0.13875000
31
  0.00000000
0
LINE
8
DC
6
CONTINUOUS
62
7
10
  0.12562679
20
 -0.13870000
30
  0.00000000
11
  0.12597321
21
 -0.13870000
31
  0.00000000
0
LINE
8
DC
6
CONTINUOUS
62
7
10
  0.12560635
20
 -0.13865000
30
  0.00000000
11
  0.12599365
21
 -0.13865000
31
  0.00000000
0
LINE
8
DC
6
CONTINUOUS
62
7
10
  0.12560000
20
 -0.13860000
30
  0.00000000
11
  0.12600000
21
 -0.13860000
31
  0.00000000
0
LINE
8
DC
6
CONTINUOUS
62
7
10
  0.12560635
20
 -0.13855000
30
  0.00000000
11
  0.12599365
21
 -0.13855000
31
  0.00000000
0
LINE
8
DC
6
CONTINUOUS
62
7
10
  0.12562679
20
 -0.13850000
30
  0.00000000
11
  0.12597321
21
 -0.13850000
31
  0.00000000
0
LINE
8
DC
6
CONTINUOUS
62
7
10
  0.12566771
20
 -0.13845000
30
  0.00000000
11
  0.12593229
21
 -0.13845000
31
  0.00000000
0
CIRCLE
8
DC
6
CONTINUOUS
62
7
10
  0.12580000
20
 -0.13860000
30
  0.00000000
40
  0.00020000
0
LINE
8
DC
6
CONTINUOUS
62
7
10
  0.12680000
20
 -0.13880000
30
  0.00000000
11
  0.12680000
21
 -0.13880000
31
  0.00000000
0
LINE
8
DC
6
CONTINUOUS
62
7
10
  0.12666771
20
 -0.13875000
30
  0.00000000
11
  0.12693229
21
 -0.13875000
31
  0.00000000
0
LINE
8
DC
6
CONTINUOUS
62
7
10
  0.12662679
20
 -0.13870000
30
  0.00000000
11
  0.12697321
21
 -0.13870000
31
  0.00000000
0
LINE
8
DC
6
CONTINUOUS
62
7
10
  0.12660635
20
 -0.13865000
30
  0.00000000
11
  0.12699365
21
 -0.13865000
31
  0.00000000
0
LINE
8
DC
6
CONTINUOUS
62
7
10
  0.12660000
20
 -0.13860000
30
  0.00000000
11
  0.12700000
21
 -0.13860000
31
  0.00000000
0
LINE
8
DC
6
CONTINUOUS
62
7
10
  0.12660635
20
 -0.13855000
30
  0.00000000
11
  0.12699365
21
 -0.13855000
31
  0.00000000
0
LINE
8
DC
6
CONTINUOUS
62
7
10
  0.12662679
20
 -0.13850000
30
  0.00000000
11
  0.12697321
21
 -0.13850000
31
  0.00000000
0
LINE
8
DC
6
CONTINUOUS
62
7
10
  0.12666771
20
 -0.13845000
30
  0.00000000
11
  0.12693229
21
 -0.13845000
31
  0.00000000
0
CIRCLE
8
DC
6
CONTINUOUS
62
7
10
  0.12680000
20
 -0.13860000
30
  0.00000000
40
  0.00020000
0
LINE
8
DC
6
CONTINUOUS
62
7
10
  0.12780000
20
 -0.13880000
30
  0.00000000
11
  0.12780000
21
 -0.13880000
31
  0.00000000
0
LINE
8
DC
6
CONTINUOUS
62
7
10
  0.12766771
20
 -0.13875000
30
  0.00000000
11
  0.12793229
21
 -0.13875000
31
  0.00000000
0
LINE
8
DC
6
CONTINUOUS
62
7
10
  0.12762679
20
 -0.13870000
30
  0.00000000
11
  0.12797321
21
 -0.13870000
31
  0.00000000
0
LINE
8
DC
6
CONTINUOUS
62
7
10
  0.12760635
20
 -0.13865000
30
  0.00000000
11
  0.12799365
21
 -0.13865000
31
  0.00000000
0
LINE
8
DC
6
CONTINUOUS
62
7
10
  0.12760000
20
 -0.13860000
30
  0.00000000
11
  0.12800000
21
 -0.13860000
31
  0.00000000
0
LINE
8
DC
6
CONTINUOUS
62
7
10
  0.12760635
20
 -0.13855000
30
  0.00000000
11
  0.12799365
21
 -0.13855000
31
  0.00000000
0
LINE
8
DC
6
CONTINUOUS
62
7
10
  0.12762679
20
 -0.13850000
30
  0.00000000
11
  0.12797321
21
 -0.13850000
31
  0.00000000
0
LINE
8
DC
6
CONTINUOUS
62
7
10
  0.12766771
20
 -0.13845000
30
  0.00000000
11
  0.12793229
21
 -0.13845000
31
  0.00000000
0
CIRCLE
8
DC
6
CONTINUOUS
62
7
10
  0.12780000
20
 -0.13860000
30
  0.00000000
40
  0.00020000
0
LINE
8
DC
6
CONTINUOUS
62
7
10
  0.12880000
20
 -0.13880000
30
  0.00000000
11
  0.12880000
21
 -0.13880000
31
  0.00000000
0
LINE
8
DC
6
CONTINUOUS
62
7
10
  0.12866771
20
 -0.13875000
30
  0.00000000
11
  0.12893229
21
 -0.13875000
31
  0.00000000
0
LINE
8
DC
6
CONTINUOUS
62
7
10
  0.12862679
20
 -0.13870000
30
  0.00000000
11
  0.12897321
21
 -0.13870000
31
  0.00000000
0
LINE
8
DC
6
CONTINUOUS
62
7
10
  0.12860635
20
 -0.13865000
30
  0.00000000
11
  0.12899365
21
 -0.13865000
31
  0.00000000
0
LINE
8
DC
6
CONTINUOUS
62
7
10
  0.12860000
20
 -0.13860000
30
  0.00000000
11
  0.12900000
21
 -0.13860000
31
  0.00000000
0
LINE
8
DC
6
CONTINUOUS
62
7
10
  0.12860635
20
 -0.13855000
30
  0.00000000
11
  0.12899365
21
 -0.13855000
31
  0.00000000
0
LINE
8
DC
6
CONTINUOUS
62
7
10
  0.12862679
20
 -0.13850000
30
  0.00000000
11
  0.12897321
21
 -0.13850000
31
  0.00000000
0
LINE
8
DC
6
CONTINUOUS
62
7
10
  0.12866771
20
 -0.13845000
30
  0.00000000
11
  0.12893229
21
 -0.13845000
31
  0.00000000
0
CIRCLE
8
DC
6
CONTINUOUS
62
7
10
  0.12880000
20
 -0.13860000
30
  0.00000000
40
  0.00020000
0
LINE
8
DC
6
CONTINUOUS
62
7
10
  0.12480000
20
 -0.14100000
30
  0.00000000
11
  0.12480000
21
 -0.14100000
31
  0.00000000
0
LINE
8
DC
6
CONTINUOUS
62
7
10
  0.12466771
20
 -0.14095000
30
  0.00000000
11
  0.12493229
21
 -0.14095000
31
  0.00000000
0
LINE
8
DC
6
CONTINUOUS
62
7
10
  0.12462679
20
 -0.14090000
30
  0.00000000
11
  0.12497321
21
 -0.14090000
31
  0.00000000
0
LINE
8
DC
6
CONTINUOUS
62
7
10
  0.12460635
20
 -0.14085000
30
  0.00000000
11
  0.12499365
21
 -0.14085000
31
  0.00000000
0
LINE
8
DC
6
CONTINUOUS
62
7
10
  0.12460000
20
 -0.14080000
30
  0.00000000
11
  0.12500000
21
 -0.14080000
31
  0.00000000
0
LINE
8
DC
6
CONTINUOUS
62
7
10
  0.12460635
20
 -0.14075000
30
  0.00000000
11
  0.12499365
21
 -0.14075000
31
  0.00000000
0
LINE
8
DC
6
CONTINUOUS
62
7
10
  0.12462679
20
 -0.14070000
30
  0.00000000
11
  0.12497321
21
 -0.14070000
31
  0.00000000
0
LINE
8
DC
6
CONTINUOUS
62
7
10
  0.12466771
20
 -0.14065000
30
  0.00000000
11
  0.12493229
21
 -0.14065000
31
  0.00000000
0
CIRCLE
8
DC
6
CONTINUOUS
62
7
10
  0.12480000
20
 -0.14080000
30
  0.00000000
40
  0.00020000
0
LINE
8
DC
6
CONTINUOUS
62
7
10
  0.12580000
20
 -0.14100000
30
  0.00000000
11
  0.12580000
21
 -0.14100000
31
  0.00000000
0
LINE
8
DC
6
CONTINUOUS
62
7
10
  0.12566771
20
 -0.14095000
30
  0.00000000
11
  0.12593229
21
 -0.14095000
31
  0.00000000
0
LINE
8
DC
6
CONTINUOUS
62
7
10
  0.12562679
20
 -0.14090000
30
  0.00000000
11
  0.12597321
21
 -0.14090000
31
  0.00000000
0
LINE
8
DC
6
CONTINUOUS
62
7
10
  0.12560635
20
 -0.14085000
30
  0.00000000
11
  0.12599365
21
 -0.14085000
31
  0.00000000
0
LINE
8
DC
6
CONTINUOUS
62
7
10
  0.12560000
20
 -0.14080000
30
  0.00000000
11
  0.12600000
21
 -0.14080000
31
  0.00000000
0
LINE
8
DC
6
CONTINUOUS
62
7
10
  0.12560635
20
 -0.14075000
30
  0.00000000
11
  0.12599365
21
 -0.14075000
31
  0.00000000
0
LINE
8
DC
6
CONTINUOUS
62
7
10
  0.12562679
20
 -0.14070000
30
  0.00000000
11
  0.12597321
21
 -0.14070000
31
  0.00000000
0
LINE
8
DC
6
CONTINUOUS
62
7
10
  0.12566771
20
 -0.14065000
30
  0.00000000
11
  0.12593229
21
 -0.14065000
31
  0.00000000
0
CIRCLE
8
DC
6
CONTINUOUS
62
7
10
  0.12580000
20
 -0.14080000
30
  0.00000000
40
  0.00020000
0
LINE
8
DC
6
CONTINUOUS
62
7
10
  0.12680000
20
 -0.14100000
30
  0.00000000
11
  0.12680000
21
 -0.14100000
31
  0.00000000
0
LINE
8
DC
6
CONTINUOUS
62
7
10
  0.12666771
20
 -0.14095000
30
  0.00000000
11
  0.12693229
21
 -0.14095000
31
  0.00000000
0
LINE
8
DC
6
CONTINUOUS
62
7
10
  0.12662679
20
 -0.14090000
30
  0.00000000
11
  0.12697321
21
 -0.14090000
31
  0.00000000
0
LINE
8
DC
6
CONTINUOUS
62
7
10
  0.12660635
20
 -0.14085000
30
  0.00000000
11
  0.12699365
21
 -0.14085000
31
  0.00000000
0
LINE
8
DC
6
CONTINUOUS
62
7
10
  0.12660000
20
 -0.14080000
30
  0.00000000
11
  0.12700000
21
 -0.14080000
31
  0.00000000
0
LINE
8
DC
6
CONTINUOUS
62
7
10
  0.12660635
20
 -0.14075000
30
  0.00000000
11
  0.12699365
21
 -0.14075000
31
  0.00000000
0
LINE
8
DC
6
CONTINUOUS
62
7
10
  0.12662679
20
 -0.14070000
30
  0.00000000
11
  0.12697321
21
 -0.14070000
31
  0.00000000
0
LINE
8
DC
6
CONTINUOUS
62
7
10
  0.12666771
20
 -0.14065000
30
  0.00000000
11
  0.12693229
21
 -0.14065000
31
  0.00000000
0
CIRCLE
8
DC
6
CONTINUOUS
62
7
10
  0.12680000
20
 -0.14080000
30
  0.00000000
40
  0.00020000
0
LINE
8
DC
6
CONTINUOUS
62
7
10
  0.12780000
20
 -0.14100000
30
  0.00000000
11
  0.12780000
21
 -0.14100000
31
  0.00000000
0
LINE
8
DC
6
CONTINUOUS
62
7
10
  0.12766771
20
 -0.14095000
30
  0.00000000
11
  0.12793229
21
 -0.14095000
31
  0.00000000
0
LINE
8
DC
6
CONTINUOUS
62
7
10
  0.12762679
20
 -0.14090000
30
  0.00000000
11
  0.12797321
21
 -0.14090000
31
  0.00000000
0
LINE
8
DC
6
CONTINUOUS
62
7
10
  0.12760635
20
 -0.14085000
30
  0.00000000
11
  0.12799365
21
 -0.14085000
31
  0.00000000
0
LINE
8
DC
6
CONTINUOUS
62
7
10
  0.12760000
20
 -0.14080000
30
  0.00000000
11
  0.12800000
21
 -0.14080000
31
  0.00000000
0
LINE
8
DC
6
CONTINUOUS
62
7
10
  0.12760635
20
 -0.14075000
30
  0.00000000
11
  0.12799365
21
 -0.14075000
31
  0.00000000
0
LINE
8
DC
6
CONTINUOUS
62
7
10
  0.12762679
20
 -0.14070000
30
  0.00000000
11
  0.12797321
21
 -0.14070000
31
  0.00000000
0
LINE
8
DC
6
CONTINUOUS
62
7
10
  0.12766771
20
 -0.14065000
30
  0.00000000
11
  0.12793229
21
 -0.14065000
31
  0.00000000
0
CIRCLE
8
DC
6
CONTINUOUS
62
7
10
  0.12780000
20
 -0.14080000
30
  0.00000000
40
  0.00020000
0
LINE
8
DC
6
CONTINUOUS
62
7
10
  0.12880000
20
 -0.14100000
30
  0.00000000
11
  0.12880000
21
 -0.14100000
31
  0.00000000
0
LINE
8
DC
6
CONTINUOUS
62
7
10
  0.12866771
20
 -0.14095000
30
  0.00000000
11
  0.12893229
21
 -0.14095000
31
  0.00000000
0
LINE
8
DC
6
CONTINUOUS
62
7
10
  0.12862679
20
 -0.14090000
30
  0.00000000
11
  0.12897321
21
 -0.14090000
31
  0.00000000
0
LINE
8
DC
6
CONTINUOUS
62
7
10
  0.12860635
20
 -0.14085000
30
  0.00000000
11
  0.12899365
21
 -0.14085000
31
  0.00000000
0
LINE
8
DC
6
CONTINUOUS
62
7
10
  0.12860000
20
 -0.14080000
30
  0.00000000
11
  0.12900000
21
 -0.14080000
31
  0.00000000
0
LINE
8
DC
6
CONTINUOUS
62
7
10
  0.12860635
20
 -0.14075000
30
  0.00000000
11
  0.12899365
21
 -0.14075000
31
  0.00000000
0
LINE
8
DC
6
CONTINUOUS
62
7
10
  0.12862679
20
 -0.14070000
30
  0.00000000
11
  0.12897321
21
 -0.14070000
31
  0.00000000
0
LINE
8
DC
6
CONTINUOUS
62
7
10
  0.12866771
20
 -0.14065000
30
  0.00000000
11
  0.12893229
21
 -0.14065000
31
  0.00000000
0
CIRCLE
8
DC
6
CONTINUOUS
62
7
10
  0.12880000
20
 -0.14080000
30
  0.00000000
40
  0.00020000
0
LINE
8
DC
6
CONTINUOUS
62
7
10
  0.12530000
20
 -0.13990000
30
  0.00000000
11
  0.12530000
21
 -0.13990000
31
  0.00000000
0
LINE
8
DC
6
CONTINUOUS
62
7
10
  0.12516771
20
 -0.13985000
30
  0.00000000
11
  0.12543229
21
 -0.13985000
31
  0.00000000
0
LINE
8
DC
6
CONTINUOUS
62
7
10
  0.12512679
20
 -0.13980000
30
  0.00000000
11
  0.12547321
21
 -0.13980000
31
  0.00000000
0
LINE
8
DC
6
CONTINUOUS
62
7
10
  0.12510635
20
 -0.13975000
30
  0.00000000
11
  0.12549365
21
 -0.13975000
31
  0.00000000
0
LINE
8
DC
6
CONTINUOUS
62
7
10
  0.12510000
20
 -0.13970000
30
  0.00000000
11
  0.12550000
21
 -0.13970000
31
  0.00000000
0
LINE
8
DC
6
CONTINUOUS
62
7
10
  0.12510635
20
 -0.13965000
30
  0.00000000
11
  0.12549365
21
 -0.13965000
31
  0.00000000
0
LINE
8
DC
6
CONTINUOUS
62
7
10
  0.12512679
20
 -0.13960000
30
  0.00000000
11
  0.12547321
21
 -0.13960000
31
  0.00000000
0
LINE
8
DC
6
CONTINUOUS
62
7
10
  0.12516771
20
 -0.13955000
30
  0.00000000
11
  0.12543229
21
 -0.13955000
31
  0.00000000
0
CIRCLE
8
DC
6
CONTINUOUS
62
7
10
  0.12530000
20
 -0.13970000
30
  0.00000000
40
  0.00020000
0
LINE
8
DC
6
CONTINUOUS
62
7
10
  0.12630000
20
 -0.13990000
30
  0.00000000
11
  0.12630000
21
 -0.13990000
31
  0.00000000
0
LINE
8
DC
6
CONTINUOUS
62
7
10
  0.12616771
20
 -0.13985000
30
  0.00000000
11
  0.12643229
21
 -0.13985000
31
  0.00000000
0
LINE
8
DC
6
CONTINUOUS
62
7
10
  0.12612679
20
 -0.13980000
30
  0.00000000
11
  0.12647321
21
 -0.13980000
31
  0.00000000
0
LINE
8
DC
6
CONTINUOUS
62
7
10
  0.12610635
20
 -0.13975000
30
  0.00000000
11
  0.12649365
21
 -0.13975000
31
  0.00000000
0
LINE
8
DC
6
CONTINUOUS
62
7
10
  0.12610000
20
 -0.13970000
30
  0.00000000
11
  0.12650000
21
 -0.13970000
31
  0.00000000
0
LINE
8
DC
6
CONTINUOUS
62
7
10
  0.12610635
20
 -0.13965000
30
  0.00000000
11
  0.12649365
21
 -0.13965000
31
  0.00000000
0
LINE
8
DC
6
CONTINUOUS
62
7
10
  0.12612679
20
 -0.13960000
30
  0.00000000
11
  0.12647321
21
 -0.13960000
31
  0.00000000
0
LINE
8
DC
6
CONTINUOUS
62
7
10
  0.12616771
20
 -0.13955000
30
  0.00000000
11
  0.12643229
21
 -0.13955000
31
  0.00000000
0
CIRCLE
8
DC
6
CONTINUOUS
62
7
10
  0.12630000
20
 -0.13970000
30
  0.00000000
40
  0.00020000
0
LINE
8
DC
6
CONTINUOUS
62
7
10
  0.12730000
20
 -0.13990000
30
  0.00000000
11
  0.12730000
21
 -0.13990000
31
  0.00000000
0
LINE
8
DC
6
CONTINUOUS
62
7
10
  0.12716771
20
 -0.13985000
30
  0.00000000
11
  0.12743229
21
 -0.13985000
31
  0.00000000
0
LINE
8
DC
6
CONTINUOUS
62
7
10
  0.12712679
20
 -0.13980000
30
  0.00000000
11
  0.12747321
21
 -0.13980000
31
  0.00000000
0
LINE
8
DC
6
CONTINUOUS
62
7
10
  0.12710635
20
 -0.13975000
30
  0.00000000
11
  0.12749365
21
 -0.13975000
31
  0.00000000
0
LINE
8
DC
6
CONTINUOUS
62
7
10
  0.12710000
20
 -0.13970000
30
  0.00000000
11
  0.12750000
21
 -0.13970000
31
  0.00000000
0
LINE
8
DC
6
CONTINUOUS
62
7
10
  0.12710635
20
 -0.13965000
30
  0.00000000
11
  0.12749365
21
 -0.13965000
31
  0.00000000
0
LINE
8
DC
6
CONTINUOUS
62
7
10
  0.12712679
20
 -0.13960000
30
  0.00000000
11
  0.12747321
21
 -0.13960000
31
  0.00000000
0
LINE
8
DC
6
CONTINUOUS
62
7
10
  0.12716771
20
 -0.13955000
30
  0.00000000
11
  0.12743229
21
 -0.13955000
31
  0.00000000
0
CIRCLE
8
DC
6
CONTINUOUS
62
7
10
  0.12730000
20
 -0.13970000
30
  0.00000000
40
  0.00020000
0
LINE
8
DC
6
CONTINUOUS
62
7
10
  0.12830000
20
 -0.13990000
30
  0.00000000
11
  0.12830000
21
 -0.13990000
31
  0.00000000
0
LINE
8
DC
6
CONTINUOUS
62
7
10
  0.12816771
20
 -0.13985000
30
  0.00000000
11
  0.12843229
21
 -0.13985000
31
  0.00000000
0
LINE
8
DC
6
CONTINUOUS
62
7
10
  0.12812679
20
 -0.13980000
30
  0.00000000
11
  0.12847321
21
 -0.13980000
31
  0.00000000
0
LINE
8
DC
6
CONTINUOUS
62
7
10
  0.12810635
20
 -0.13975000
30
  0.00000000
11
  0.12849365
21
 -0.13975000
31
  0.00000000
0
LINE
8
DC
6
CONTINUOUS
62
7
10
  0.12810000
20
 -0.13970000
30
  0.00000000
11
  0.12850000
21
 -0.13970000
31
  0.00000000
0
LINE
8
DC
6
CONTINUOUS
62
7
10
  0.12810635
20
 -0.13965000
30
  0.00000000
11
  0.12849365
21
 -0.13965000
31
  0.00000000
0
LINE
8
DC
6
CONTINUOUS
62
7
10
  0.12812679
20
 -0.13960000
30
  0.00000000
11
  0.12847321
21
 -0.13960000
31
  0.00000000
0
LINE
8
DC
6
CONTINUOUS
62
7
10
  0.12816771
20
 -0.13955000
30
  0.00000000
11
  0.12843229
21
 -0.13955000
31
  0.00000000
0
CIRCLE
8
DC
6
CONTINUOUS
62
7
10
  0.12830000
20
 -0.13970000
30
  0.00000000
40
  0.00020000
0
LINE
8
DC
6
CONTINUOUS
62
7
10
  0.12930000
20
 -0.13990000
30
  0.00000000
11
  0.12930000
21
 -0.13990000
31
  0.00000000
0
LINE
8
DC
6
CONTINUOUS
62
7
10
  0.12916771
20
 -0.13985000
30
  0.00000000
11
  0.12943229
21
 -0.13985000
31
  0.00000000
0
LINE
8
DC
6
CONTINUOUS
62
7
10
  0.12912679
20
 -0.13980000
30
  0.00000000
11
  0.12947321
21
 -0.13980000
31
  0.00000000
0
LINE
8
DC
6
CONTINUOUS
62
7
10
  0.12910635
20
 -0.13975000
30
  0.00000000
11
  0.12949365
21
 -0.13975000
31
  0.00000000
0
LINE
8
DC
6
CONTINUOUS
62
7
10
  0.12910000
20
 -0.13970000
30
  0.00000000
11
  0.12950000
21
 -0.13970000
31
  0.00000000
0
LINE
8
DC
6
CONTINUOUS
62
7
10
  0.12910635
20
 -0.13965000
30
  0.00000000
11
  0.12949365
21
 -0.13965000
31
  0.00000000
0
LINE
8
DC
6
CONTINUOUS
62
7
10
  0.12912679
20
 -0.13960000
30
  0.00000000
11
  0.12947321
21
 -0.13960000
31
  0.00000000
0
LINE
8
DC
6
CONTINUOUS
62
7
10
  0.12916771
20
 -0.13955000
30
  0.00000000
11
  0.12943229
21
 -0.13955000
31
  0.00000000
0
CIRCLE
8
DC
6
CONTINUOUS
62
7
10
  0.12930000
20
 -0.13970000
30
  0.00000000
40
  0.00020000
0
LINE
8
DC
6
CONTINUOUS
62
7
10
  0.12460000
20
 -0.14390000
30
  0.00000000
11
  0.12710000
21
 -0.14140000
31
  0.00000000
0
LINE
8
DC
6
CONTINUOUS
62
7
10
  0.12840000
20
 -0.14510000
30
  0.00000000
11
  0.12960000
21
 -0.14390000
31
  0.00000000
0
LINE
8
DC
6
CONTINUOUS
62
7
10
  0.12590000
20
 -0.14510000
30
  0.00000000
11
  0.12960000
21
 -0.14140000
31
  0.00000000
0
LINE
8
DC
6
CONTINUOUS
62
7
10
  0.11960000
20
 -0.10500000
30
  0.00000000
11
  0.17660000
21
 -0.10500000
31
  0.00000000
0
LINE
8
DC
6
CONTINUOUS
62
7
10
  0.11960000
20
 -0.14500000
30
  0.00000000
11
  0.11860000
21
 -0.14500000
31
  0.00000000
0
LINE
8
DC
6
CONTINUOUS
62
7
10
  0.10920000
20
 -0.14500000
30
  0.00000000
11
  0.11860000
21
 -0.14500000
31
  0.00000000
0
TEXT
8
DC
62
7
10
  0.11860000
20
 -0.14450000
30
  0.00000000
40
  0.00250000
41
  0.60000000
1
    5.00m
50
  0.00000000
72
2
73
0
11
  0.11860000
21
 -0.14450000
31
  0.00000000
0
TEXT
8
DC
62
7
10
  0.13660000
20
 -0.12030000
30
  0.00000000
40
  0.00216667
41
  0.60000000
1
Verwitterungslehm, Ton, stark 
50
  0.00000000
72
0
73
1
11
  0.13660000
21
 -0.12030000
31
  0.00000000
0
TEXT
8
DC
62
7
10
  0.13660000
20
 -0.12340000
30
  0.00000000
40
  0.00216667
41
  0.60000000
1
schluffig, feinsandig
50
  0.00000000
72
0
73
1
11
  0.13660000
21
 -0.12340000
31
  0.00000000
0
TEXT
8
DC
62
7
10
  0.13660000
20
 -0.12650000
30
  0.00000000
40
  0.00216667
41
  0.60000000
1
steif
50
  0.00000000
72
0
73
1
11
  0.13660000
21
 -0.12650000
31
  0.00000000
0
TEXT
8
DC
62
7
10
  0.13660000
20
 -0.12960000
30
  0.00000000
40
  0.00216667
41
  0.60000000
1
erdfeucht
50
  0.00000000
72
0
73
1
11
  0.13660000
21
 -0.12960000
31
  0.00000000
0
TEXT
8
DC
62
7
10
  0.13660000
20
 -0.13270000
30
  0.00000000
40
  0.00216667
41
  0.60000000
1
hellbraungrau
50
  0.00000000
72
0
73
1
11
  0.13660000
21
 -0.13270000
31
  0.00000000
0
CIRCLE
8
DC
6
CONTINUOUS
62
7
10
  0.18290000
20
 -0.12500000
30
  0.00000000
40
  0.00530000
0
TEXT
8
DC
62
7
10
  0.18090000
20
 -0.12700000
30
  0.00000000
40
  0.00250000
41
  0.60000000
1
TL
50
  0.00000000
72
0
73
1
11
  0.18090000
21
 -0.12700000
31
  0.00000000
0
LINE
8
DC
6
CONTINUOUS
62
7
10
  0.17040000
20
 -0.12190000
30
  0.00000000
11
  0.17660000
21
 -0.12190000
31
  0.00000000
0
LINE
8
DC
6
CONTINUOUS
62
7
10
  0.17660000
20
 -0.12190000
30
  0.00000000
11
  0.17660000
21
 -0.12810000
31
  0.00000000
0
LINE
8
DC
6
CONTINUOUS
62
7
10
  0.17660000
20
 -0.12810000
30
  0.00000000
11
  0.17040000
21
 -0.12810000
31
  0.00000000
0
LINE
8
DC
6
CONTINUOUS
62
7
10
  0.17040000
20
 -0.12810000
30
  0.00000000
11
  0.17040000
21
 -0.12190000
31
  0.00000000
0
TEXT
8
DC
62
7
10
  0.17350000
20
 -0.12700000
30
  0.00000000
40
  0.00250000
41
  0.60000000
1
4
50
  0.00000000
72
1
73
1
11
  0.17350000
21
 -0.12700000
31
  0.00000000
0
LINE
8
DC
6
CONTINUOUS
62
7
10
  0.11960000
20
 -0.14500000
30
  0.00000000
11
  0.17660000
21
 -0.14500000
31
  0.00000000
0
TEXT
8
DC
62
7
10
  0.11960000
20
 -0.14850000
30
  0.00000000
40
  0.00250000
41
  0.60000000
1
Endtiefe
50
  0.00000000
72
2
73
1
11
  0.11960000
21
 -0.14850000
31
  0.00000000
0
TEXT
8
DC
62
7
10
  0.12460000
20
 -0.15250000
30
  0.00000000
40
  0.00250000
41
  0.60000000
1
Station 0+288.500
50
  0.00000000
72
1
73
1
11
  0.12460000
21
 -0.15250000
31
  0.00000000
0
LINE
8
DC
6
CONTINUOUS
62
7
10
  0.11960000
20
 -0.04500000
30
  0.00000000
11
  0.12960000
21
 -0.04500000
31
  0.00000000
0
LINE
8
DC
6
CONTINUOUS
62
7
10
  0.12960000
20
 -0.04500000
30
  0.00000000
11
  0.12960000
21
 -0.14500000
31
  0.00000000
0
LINE
8
DC
6
CONTINUOUS
62
7
10
  0.12960000
20
 -0.14500000
30
  0.00000000
11
  0.11960000
21
 -0.14500000
31
  0.00000000
0
LINE
8
DC
6
CONTINUOUS
62
7
10
  0.11960000
20
 -0.14500000
30
  0.00000000
11
  0.11960000
21
 -0.04500000
31
  0.00000000
0
TEXT
8
DC
62
7
10
  0.12460000
20
 -0.03600000
30
  0.00000000
40
  0.00500000
41
  0.60000000
1
BS 11/22
50
  0.00000000
72
1
73
0
11
  0.12460000
21
 -0.03600000
31
  0.00000000
0
TEXT
8
DC
62
7
10
  0.12460000
20
 -0.04100000
30
  0.00000000
40
  0.00250000
41
  0.60000000
1
Ansatzpunkt:GOK
50
  0.00000000
72
1
73
0
11
  0.12460000
21
 -0.04100000
31
  0.00000000
0
LINE
8
DC
6
CONTINUOUS
62
7
10
  0.03560000
20
 -0.04500000
30
  0.00000000
11
  0.05200000
21
 -0.04500000
31
  0.00000000
0
LINE
8
DC
6
CONTINUOUS
62
7
10
  0.03700000
20
 -0.04500000
30
  0.00000000
11
  0.03560000
21
 -0.04210000
31
  0.00000000
0
LINE
8
DC
6
CONTINUOUS
62
7
10
  0.03560000
20
 -0.04210000
30
  0.00000000
11
  0.03850000
21
 -0.04210000
31
  0.00000000
0
LINE
8
DC
6
CONTINUOUS
62
7
10
  0.03850000
20
 -0.04210000
30
  0.00000000
11
  0.03700000
21
 -0.04500000
31
  0.00000000
0
TEXT
8
DC
62
7
10
  0.03980000
20
 -0.04300000
30
  0.00000000
40
  0.00250000
41
  0.60000000
1
   0.00m
50
  0.00000000
72
0
73
0
11
  0.03980000
21
 -0.04300000
31
  0.00000000
0
LINE
8
DC
6
CONTINUOUS
62
7
10
  0.03560000
20
 -0.06500000
30
  0.00000000
11
  0.05200000
21
 -0.06500000
31
  0.00000000
0
LINE
8
DC
6
CONTINUOUS
62
7
10
  0.03700000
20
 -0.06500000
30
  0.00000000
11
  0.03560000
21
 -0.06210000
31
  0.00000000
0
LINE
8
DC
6
CONTINUOUS
62
7
10
  0.03560000
20
 -0.06210000
30
  0.00000000
11
  0.03850000
21
 -0.06210000
31
  0.00000000
0
LINE
8
DC
6
CONTINUOUS
62
7
10
  0.03850000
20
 -0.06210000
30
  0.00000000
11
  0.03700000
21
 -0.06500000
31
  0.00000000
0
TEXT
8
DC
62
7
10
  0.03980000
20
 -0.06300000
30
  0.00000000
40
  0.00250000
41
  0.60000000
1
  -1.00m
50
  0.00000000
72
0
73
0
11
  0.03980000
21
 -0.06300000
31
  0.00000000
0
LINE
8
DC
6
CONTINUOUS
62
7
10
  0.03560000
20
 -0.08500000
30
  0.00000000
11
  0.05200000
21
 -0.08500000
31
  0.00000000
0
LINE
8
DC
6
CONTINUOUS
62
7
10
  0.03700000
20
 -0.08500000
30
  0.00000000
11
  0.03560000
21
 -0.08210000
31
  0.00000000
0
LINE
8
DC
6
CONTINUOUS
62
7
10
  0.03560000
20
 -0.08210000
30
  0.00000000
11
  0.03850000
21
 -0.08210000
31
  0.00000000
0
LINE
8
DC
6
CONTINUOUS
62
7
10
  0.03850000
20
 -0.08210000
30
  0.00000000
11
  0.03700000
21
 -0.08500000
31
  0.00000000
0
TEXT
8
DC
62
7
10
  0.03980000
20
 -0.08300000
30
  0.00000000
40
  0.00250000
41
  0.60000000
1
  -2.00m
50
  0.00000000
72
0
73
0
11
  0.03980000
21
 -0.08300000
31
  0.00000000
0
LINE
8
DC
6
CONTINUOUS
62
7
10
  0.03560000
20
 -0.10500000
30
  0.00000000
11
  0.05200000
21
 -0.10500000
31
  0.00000000
0
LINE
8
DC
6
CONTINUOUS
62
7
10
  0.03700000
20
 -0.10500000
30
  0.00000000
11
  0.03560000
21
 -0.10210000
31
  0.00000000
0
LINE
8
DC
6
CONTINUOUS
62
7
10
  0.03560000
20
 -0.10210000
30
  0.00000000
11
  0.03850000
21
 -0.10210000
31
  0.00000000
0
LINE
8
DC
6
CONTINUOUS
62
7
10
  0.03850000
20
 -0.10210000
30
  0.00000000
11
  0.03700000
21
 -0.10500000
31
  0.00000000
0
TEXT
8
DC
62
7
10
  0.03980000
20
 -0.10300000
30
  0.00000000
40
  0.00250000
41
  0.60000000
1
  -3.00m
50
  0.00000000
72
0
73
0
11
  0.03980000
21
 -0.10300000
31
  0.00000000
0
LINE
8
DC
6
CONTINUOUS
62
7
10
  0.03560000
20
 -0.12500000
30
  0.00000000
11
  0.05200000
21
 -0.12500000
31
  0.00000000
0
LINE
8
DC
6
CONTINUOUS
62
7
10
  0.03700000
20
 -0.12500000
30
  0.00000000
11
  0.03560000
21
 -0.12210000
31
  0.00000000
0
LINE
8
DC
6
CONTINUOUS
62
7
10
  0.03560000
20
 -0.12210000
30
  0.00000000
11
  0.03850000
21
 -0.12210000
31
  0.00000000
0
LINE
8
DC
6
CONTINUOUS
62
7
10
  0.03850000
20
 -0.12210000
30
  0.00000000
11
  0.03700000
21
 -0.12500000
31
  0.00000000
0
TEXT
8
DC
62
7
10
  0.03980000
20
 -0.12300000
30
  0.00000000
40
  0.00250000
41
  0.60000000
1
  -4.00m
50
  0.00000000
72
0
73
0
11
  0.03980000
21
 -0.12300000
31
  0.00000000
0
LINE
8
DC
6
CONTINUOUS
62
7
10
  0.03560000
20
 -0.14500000
30
  0.00000000
11
  0.05200000
21
 -0.14500000
31
  0.00000000
0
LINE
8
DC
6
CONTINUOUS
62
7
10
  0.03700000
20
 -0.14500000
30
  0.00000000
11
  0.03560000
21
 -0.14210000
31
  0.00000000
0
LINE
8
DC
6
CONTINUOUS
62
7
10
  0.03560000
20
 -0.14210000
30
  0.00000000
11
  0.03850000
21
 -0.14210000
31
  0.00000000
0
LINE
8
DC
6
CONTINUOUS
62
7
10
  0.03850000
20
 -0.14210000
30
  0.00000000
11
  0.03700000
21
 -0.14500000
31
  0.00000000
0
TEXT
8
DC
62
7
10
  0.03980000
20
 -0.14300000
30
  0.00000000
40
  0.00250000
41
  0.60000000
1
  -5.00m
50
  0.00000000
72
0
73
0
11
  0.03980000
21
 -0.14300000
31
  0.00000000
0
LINE
8
DC
6
CONTINUOUS
62
7
10
  0.03560000
20
 -0.16500000
30
  0.00000000
11
  0.05200000
21
 -0.16500000
31
  0.00000000
0
LINE
8
DC
6
CONTINUOUS
62
7
10
  0.03700000
20
 -0.16500000
30
  0.00000000
11
  0.03560000
21
 -0.16210000
31
  0.00000000
0
LINE
8
DC
6
CONTINUOUS
62
7
10
  0.03560000
20
 -0.16210000
30
  0.00000000
11
  0.03850000
21
 -0.16210000
31
  0.00000000
0
LINE
8
DC
6
CONTINUOUS
62
7
10
  0.03850000
20
 -0.16210000
30
  0.00000000
11
  0.03700000
21
 -0.16500000
31
  0.00000000
0
TEXT
8
DC
62
7
10
  0.03980000
20
 -0.16300000
30
  0.00000000
40
  0.00250000
41
  0.60000000
1
  -6.00m
50
  0.00000000
72
0
73
0
11
  0.03980000
21
 -0.16300000
31
  0.00000000
0
ENDSEC
0
EOF
