0
SECTION
2
HEADER
9
$EXTMIN
10
  0.0000
20
  0.0000
30
  0.0000
9
$EXTMAX
10
  0.2090
20
  0.2960
30
  0.0000
9
$LIMMIN
10
  0.0000
20
  0.0000
9
$LIMMAX
10
  0.2090
20
  0.2960
0
ENDSEC
0
SECTION
2
TABLES
0
TABLE
2
LTYPE
70
5
0
LTYPE
2
CONTINUOUS
70
64
3
CONTINUOUS
72
65
73
2
40
0
0
LTYPE
2
GESTRICHELT
70
64
3
GESTRICHELT
72
65
73
2
40
0.00125
49
0.000875
49
-0.000375
0
LTYPE
2
PUNKT
70
64
3
PUNKT
72
65
73
2
40
0.000625
49
0.000125
49
-0.0005
0
LTYPE
2
STRICHPUNKT
70
64
3
STRICHPUNKT
72
65
73
4
40
0.00175
49
0.000875
49
-0.000375
49
0.000125
49
-0.000375
0
LTYPE
2
GETRENNT
70
64
3
GETRENNT
72
65
73
6
40
0.00225
49
0.000875
49
-0.000375
49
0.000125
49
-0.000375
49
0.000125
49
-0.000375
0
ENDTAB
0
TABLE
2
LAYER
70
2
0
LAYER
2
Rahmen
70
0
62
7
6
CONTINUOUS
0
LAYER
2
DC
70
0
62
7
6
CONTINUOUS
0
ENDTAB
0
ENDSEC
0
SECTION
2
ENTITIES
0
LINE
8
Rahmen
6
CONTINUOUS
62
7
10
  0.00020000
20
 -0.00020000
30
  0.00000000
11
  0.20880000
21
 -0.00020000
31
  0.00000000
0
LINE
8
Rahmen
6
CONTINUOUS
62
7
10
  0.20880000
20
 -0.00020000
30
  0.00000000
11
  0.20880000
21
 -0.29580000
31
  0.00000000
0
LINE
8
Rahmen
6
CONTINUOUS
62
7
10
  0.20880000
20
 -0.29580000
30
  0.00000000
11
  0.00020000
21
 -0.29580000
31
  0.00000000
0
LINE
8
Rahmen
6
CONTINUOUS
62
7
10
  0.00020000
20
 -0.29580000
30
  0.00000000
11
  0.00020000
21
 -0.00020000
31
  0.00000000
0
LINE
8
Rahmen
6
CONTINUOUS
62
7
10
  0.00020000
20
 -0.14790000
30
  0.00000000
11
  0.01020000
21
 -0.14790000
31
  0.00000000
0
SOLID
8
Rahmen
62
255
10
  0.20430000
20
 -0.29530000
30
  0.00000000
11
  0.20830000
21
 -0.29530000
31
  0.00000000
12
  0.20430000
22
 -0.29130000
32
  0.00000000
13
  0.20830000
23
 -0.29130000
33
  0.00000000
0
LINE
8
Rahmen
6
CONTINUOUS
62
7
10
  0.20430000
20
 -0.29530000
30
  0.00000000
11
  0.20830000
21
 -0.29530000
31
  0.00000000
0
LINE
8
Rahmen
6
CONTINUOUS
62
7
10
  0.20830000
20
 -0.29530000
30
  0.00000000
11
  0.20830000
21
 -0.29130000
31
  0.00000000
0
LINE
8
Rahmen
6
CONTINUOUS
62
7
10
  0.20830000
20
 -0.29130000
30
  0.00000000
11
  0.20430000
21
 -0.29130000
31
  0.00000000
0
LINE
8
Rahmen
6
CONTINUOUS
62
7
10
  0.20430000
20
 -0.29130000
30
  0.00000000
11
  0.20430000
21
 -0.29530000
31
  0.00000000
0
TEXT
8
Rahmen
62
7
10
  0.20630000
20
 -0.29450000
30
  0.00000000
40
  0.00191667
41
  0.60000000
1
DC
50
  0.00000000
72
1
73
1
11
  0.20630000
21
 -0.29450000
31
  0.00000000
0
LINE
8
Rahmen
6
CONTINUOUS
62
7
10
  0.02000000
20
 -0.00500000
30
  0.00000000
11
  0.20400000
21
 -0.00500000
31
  0.00000000
0
LINE
8
Rahmen
6
CONTINUOUS
62
7
10
  0.20400000
20
 -0.00500000
30
  0.00000000
11
  0.20400000
21
 -0.29100000
31
  0.00000000
0
LINE
8
Rahmen
6
CONTINUOUS
62
7
10
  0.20400000
20
 -0.29100000
30
  0.00000000
11
  0.02000000
21
 -0.29100000
31
  0.00000000
0
LINE
8
Rahmen
6
CONTINUOUS
62
7
10
  0.02000000
20
 -0.29100000
30
  0.00000000
11
  0.02000000
21
 -0.00500000
31
  0.00000000
0
LINE
8
Rahmen
6
CONTINUOUS
62
7
10
  0.02000000
20
 -0.00500000
30
  0.00000000
11
  0.09000000
21
 -0.00500000
31
  0.00000000
0
LINE
8
Rahmen
6
CONTINUOUS
62
7
10
  0.02000000
20
 -0.01000000
30
  0.00000000
11
  0.09000000
21
 -0.01000000
31
  0.00000000
0
LINE
8
Rahmen
6
CONTINUOUS
62
7
10
  0.02000000
20
 -0.00500000
30
  0.00000000
11
  0.02000000
21
 -0.01000000
31
  0.00000000
0
LINE
8
Rahmen
6
CONTINUOUS
62
7
10
  0.09000000
20
 -0.00500000
30
  0.00000000
11
  0.09000000
21
 -0.01000000
31
  0.00000000
0
TEXT
8
Rahmen
62
7
10
  0.02100000
20
 -0.00970000
30
  0.00000000
40
  0.00300000
41
  0.60000000
1
Ingenieurbüro TBV GmbH
50
  0.00000000
72
0
73
1
11
  0.02100000
21
 -0.00970000
31
  0.00000000
0
LINE
8
Rahmen
6
CONTINUOUS
62
7
10
  0.09000000
20
 -0.00500000
30
  0.00000000
11
  0.20400000
21
 -0.00500000
31
  0.00000000
0
LINE
8
Rahmen
6
CONTINUOUS
62
7
10
  0.09000000
20
 -0.01000000
30
  0.00000000
11
  0.20400000
21
 -0.01000000
31
  0.00000000
0
LINE
8
Rahmen
6
CONTINUOUS
62
7
10
  0.09000000
20
 -0.00500000
30
  0.00000000
11
  0.09000000
21
 -0.01000000
31
  0.00000000
0
LINE
8
Rahmen
6
CONTINUOUS
62
7
10
  0.20400000
20
 -0.00500000
30
  0.00000000
11
  0.20400000
21
 -0.01000000
31
  0.00000000
0
TEXT
8
Rahmen
62
7
10
  0.09100000
20
 -0.00970000
30
  0.00000000
40
  0.00300000
41
  0.60000000
1
Projekt     :
50
  0.00000000
72
0
73
1
11
  0.09100000
21
 -0.00970000
31
  0.00000000
0
TEXT
8
Rahmen
62
7
10
  0.11100000
20
 -0.00970000
30
  0.00000000
40
  0.00300000
41
  0.60000000
1
Neuverlegung VBL SW-Kanal Söhesten-Stößwitz
50
  0.00000000
72
0
73
1
11
  0.11100000
21
 -0.00970000
31
  0.00000000
0
LINE
8
Rahmen
6
CONTINUOUS
62
7
10
  0.02000000
20
 -0.01000000
30
  0.00000000
11
  0.09000000
21
 -0.01000000
31
  0.00000000
0
LINE
8
Rahmen
6
CONTINUOUS
62
7
10
  0.02000000
20
 -0.01500000
30
  0.00000000
11
  0.09000000
21
 -0.01500000
31
  0.00000000
0
LINE
8
Rahmen
6
CONTINUOUS
62
7
10
  0.02000000
20
 -0.01000000
30
  0.00000000
11
  0.02000000
21
 -0.01500000
31
  0.00000000
0
LINE
8
Rahmen
6
CONTINUOUS
62
7
10
  0.09000000
20
 -0.01000000
30
  0.00000000
11
  0.09000000
21
 -0.01500000
31
  0.00000000
0
TEXT
8
Rahmen
62
7
10
  0.02100000
20
 -0.01470000
30
  0.00000000
40
  0.00300000
41
  0.60000000
1
Baenschstraße 6
50
  0.00000000
72
0
73
1
11
  0.02100000
21
 -0.01470000
31
  0.00000000
0
LINE
8
Rahmen
6
CONTINUOUS
62
7
10
  0.09000000
20
 -0.01000000
30
  0.00000000
11
  0.20400000
21
 -0.01000000
31
  0.00000000
0
LINE
8
Rahmen
6
CONTINUOUS
62
7
10
  0.09000000
20
 -0.01500000
30
  0.00000000
11
  0.20400000
21
 -0.01500000
31
  0.00000000
0
LINE
8
Rahmen
6
CONTINUOUS
62
7
10
  0.09000000
20
 -0.01000000
30
  0.00000000
11
  0.09000000
21
 -0.01500000
31
  0.00000000
0
LINE
8
Rahmen
6
CONTINUOUS
62
7
10
  0.20400000
20
 -0.01000000
30
  0.00000000
11
  0.20400000
21
 -0.01500000
31
  0.00000000
0
TEXT
8
Rahmen
62
7
10
  0.09100000
20
 -0.01470000
30
  0.00000000
40
  0.00300000
41
  0.60000000
1
Projektnr.:
50
  0.00000000
72
0
73
1
11
  0.09100000
21
 -0.01470000
31
  0.00000000
0
TEXT
8
Rahmen
62
7
10
  0.11100000
20
 -0.01470000
30
  0.00000000
40
  0.00300000
41
  0.60000000
1
22/12068.3
50
  0.00000000
72
0
73
1
11
  0.11100000
21
 -0.01470000
31
  0.00000000
0
LINE
8
Rahmen
6
CONTINUOUS
62
7
10
  0.02000000
20
 -0.01500000
30
  0.00000000
11
  0.09000000
21
 -0.01500000
31
  0.00000000
0
LINE
8
Rahmen
6
CONTINUOUS
62
7
10
  0.02000000
20
 -0.02000000
30
  0.00000000
11
  0.09000000
21
 -0.02000000
31
  0.00000000
0
LINE
8
Rahmen
6
CONTINUOUS
62
7
10
  0.02000000
20
 -0.01500000
30
  0.00000000
11
  0.02000000
21
 -0.02000000
31
  0.00000000
0
LINE
8
Rahmen
6
CONTINUOUS
62
7
10
  0.09000000
20
 -0.01500000
30
  0.00000000
11
  0.09000000
21
 -0.02000000
31
  0.00000000
0
TEXT
8
Rahmen
62
7
10
  0.02100000
20
 -0.01970000
30
  0.00000000
40
  0.00300000
41
  0.60000000
1
06712 Zeitz
50
  0.00000000
72
0
73
1
11
  0.02100000
21
 -0.01970000
31
  0.00000000
0
LINE
8
Rahmen
6
CONTINUOUS
62
7
10
  0.09000000
20
 -0.01500000
30
  0.00000000
11
  0.20400000
21
 -0.01500000
31
  0.00000000
0
LINE
8
Rahmen
6
CONTINUOUS
62
7
10
  0.09000000
20
 -0.02000000
30
  0.00000000
11
  0.20400000
21
 -0.02000000
31
  0.00000000
0
LINE
8
Rahmen
6
CONTINUOUS
62
7
10
  0.09000000
20
 -0.01500000
30
  0.00000000
11
  0.09000000
21
 -0.02000000
31
  0.00000000
0
LINE
8
Rahmen
6
CONTINUOUS
62
7
10
  0.20400000
20
 -0.01500000
30
  0.00000000
11
  0.20400000
21
 -0.02000000
31
  0.00000000
0
TEXT
8
Rahmen
62
7
10
  0.09100000
20
 -0.01970000
30
  0.00000000
40
  0.00300000
41
  0.60000000
1
Anlage     :
50
  0.00000000
72
0
73
1
11
  0.09100000
21
 -0.01970000
31
  0.00000000
0
TEXT
8
Rahmen
62
7
10
  0.11100000
20
 -0.01970000
30
  0.00000000
40
  0.00300000
41
  0.60000000
1
Bereich 3: VS Söhesten-Göthewitz
50
  0.00000000
72
0
73
1
11
  0.11100000
21
 -0.01970000
31
  0.00000000
0
LINE
8
Rahmen
6
CONTINUOUS
62
7
10
  0.02000000
20
 -0.02000000
30
  0.00000000
11
  0.09000000
21
 -0.02000000
31
  0.00000000
0
LINE
8
Rahmen
6
CONTINUOUS
62
7
10
  0.02000000
20
 -0.02500000
30
  0.00000000
11
  0.09000000
21
 -0.02500000
31
  0.00000000
0
LINE
8
Rahmen
6
CONTINUOUS
62
7
10
  0.02000000
20
 -0.02000000
30
  0.00000000
11
  0.02000000
21
 -0.02500000
31
  0.00000000
0
LINE
8
Rahmen
6
CONTINUOUS
62
7
10
  0.09000000
20
 -0.02000000
30
  0.00000000
11
  0.09000000
21
 -0.02500000
31
  0.00000000
0
TEXT
8
Rahmen
62
7
10
  0.02100000
20
 -0.02470000
30
  0.00000000
40
  0.00300000
41
  0.60000000
1
Tel: 03441 215737
50
  0.00000000
72
0
73
1
11
  0.02100000
21
 -0.02470000
31
  0.00000000
0
LINE
8
Rahmen
6
CONTINUOUS
62
7
10
  0.09000000
20
 -0.02000000
30
  0.00000000
11
  0.20400000
21
 -0.02000000
31
  0.00000000
0
LINE
8
Rahmen
6
CONTINUOUS
62
7
10
  0.09000000
20
 -0.02500000
30
  0.00000000
11
  0.20400000
21
 -0.02500000
31
  0.00000000
0
LINE
8
Rahmen
6
CONTINUOUS
62
7
10
  0.09000000
20
 -0.02000000
30
  0.00000000
11
  0.09000000
21
 -0.02500000
31
  0.00000000
0
LINE
8
Rahmen
6
CONTINUOUS
62
7
10
  0.20400000
20
 -0.02000000
30
  0.00000000
11
  0.20400000
21
 -0.02500000
31
  0.00000000
0
TEXT
8
Rahmen
62
7
10
  0.09100000
20
 -0.02470000
30
  0.00000000
40
  0.00300000
41
  0.60000000
1
Maßstab  :
50
  0.00000000
72
0
73
1
11
  0.09100000
21
 -0.02470000
31
  0.00000000
0
TEXT
8
Rahmen
62
7
10
  0.11100000
20
 -0.02470000
30
  0.00000000
40
  0.00300000
41
  0.60000000
1
1: 50
50
  0.00000000
72
0
73
1
11
  0.11100000
21
 -0.02470000
31
  0.00000000
0
TEXT
8
Rahmen
62
7
10
  0.04500000
20
 -0.28070000
30
  0.00000000
40
  0.00300000
41
  0.60000000
1
Höhe Einfahrt Wirtschaftsweg Göthewitz = 0+000.000
50
  0.00000000
72
0
73
1
11
  0.04500000
21
 -0.28070000
31
  0.00000000
0
TEXT
8
Rahmen
62
7
10
  0.02100000
20
 -0.27570000
30
  0.00000000
40
  0.00300000
41
  0.60000000
1
Bemerkung
50
  0.00000000
72
0
73
1
11
  0.02100000
21
 -0.27570000
31
  0.00000000
0
TEXT
8
Rahmen
62
7
10
  0.04500000
20
 -0.27570000
30
  0.00000000
40
  0.00300000
41
  0.60000000
1
Stationierung: Asphaltschnitt an der Umgehungsstraße Hohenmölsen-Starsiedel
50
  0.00000000
72
0
73
1
11
  0.04500000
21
 -0.27570000
31
  0.00000000
0
LINE
8
Rahmen
6
CONTINUOUS
62
7
10
  0.02000000
20
 -0.00500000
30
  0.00000000
11
  0.09000000
21
 -0.00500000
31
  0.00000000
0
LINE
8
Rahmen
6
CONTINUOUS
62
7
10
  0.02000000
20
 -0.01000000
30
  0.00000000
11
  0.09000000
21
 -0.01000000
31
  0.00000000
0
LINE
8
Rahmen
6
CONTINUOUS
62
7
10
  0.02000000
20
 -0.00500000
30
  0.00000000
11
  0.02000000
21
 -0.01000000
31
  0.00000000
0
LINE
8
Rahmen
6
CONTINUOUS
62
7
10
  0.09000000
20
 -0.00500000
30
  0.00000000
11
  0.09000000
21
 -0.01000000
31
  0.00000000
0
LINE
8
Rahmen
6
CONTINUOUS
62
7
10
  0.09000000
20
 -0.00500000
30
  0.00000000
11
  0.20400000
21
 -0.00500000
31
  0.00000000
0
LINE
8
Rahmen
6
CONTINUOUS
62
7
10
  0.09000000
20
 -0.01000000
30
  0.00000000
11
  0.20400000
21
 -0.01000000
31
  0.00000000
0
LINE
8
Rahmen
6
CONTINUOUS
62
7
10
  0.09000000
20
 -0.00500000
30
  0.00000000
11
  0.09000000
21
 -0.01000000
31
  0.00000000
0
LINE
8
Rahmen
6
CONTINUOUS
62
7
10
  0.20400000
20
 -0.00500000
30
  0.00000000
11
  0.20400000
21
 -0.01000000
31
  0.00000000
0
LINE
8
Rahmen
6
CONTINUOUS
62
7
10
  0.02000000
20
 -0.01000000
30
  0.00000000
11
  0.09000000
21
 -0.01000000
31
  0.00000000
0
LINE
8
Rahmen
6
CONTINUOUS
62
7
10
  0.02000000
20
 -0.01500000
30
  0.00000000
11
  0.09000000
21
 -0.01500000
31
  0.00000000
0
LINE
8
Rahmen
6
CONTINUOUS
62
7
10
  0.02000000
20
 -0.01000000
30
  0.00000000
11
  0.02000000
21
 -0.01500000
31
  0.00000000
0
LINE
8
Rahmen
6
CONTINUOUS
62
7
10
  0.09000000
20
 -0.01000000
30
  0.00000000
11
  0.09000000
21
 -0.01500000
31
  0.00000000
0
LINE
8
Rahmen
6
CONTINUOUS
62
7
10
  0.09000000
20
 -0.01000000
30
  0.00000000
11
  0.20400000
21
 -0.01000000
31
  0.00000000
0
LINE
8
Rahmen
6
CONTINUOUS
62
7
10
  0.09000000
20
 -0.01500000
30
  0.00000000
11
  0.20400000
21
 -0.01500000
31
  0.00000000
0
LINE
8
Rahmen
6
CONTINUOUS
62
7
10
  0.09000000
20
 -0.01000000
30
  0.00000000
11
  0.09000000
21
 -0.01500000
31
  0.00000000
0
LINE
8
Rahmen
6
CONTINUOUS
62
7
10
  0.20400000
20
 -0.01000000
30
  0.00000000
11
  0.20400000
21
 -0.01500000
31
  0.00000000
0
LINE
8
Rahmen
6
CONTINUOUS
62
7
10
  0.02000000
20
 -0.01500000
30
  0.00000000
11
  0.09000000
21
 -0.01500000
31
  0.00000000
0
LINE
8
Rahmen
6
CONTINUOUS
62
7
10
  0.02000000
20
 -0.02000000
30
  0.00000000
11
  0.09000000
21
 -0.02000000
31
  0.00000000
0
LINE
8
Rahmen
6
CONTINUOUS
62
7
10
  0.02000000
20
 -0.01500000
30
  0.00000000
11
  0.02000000
21
 -0.02000000
31
  0.00000000
0
LINE
8
Rahmen
6
CONTINUOUS
62
7
10
  0.09000000
20
 -0.01500000
30
  0.00000000
11
  0.09000000
21
 -0.02000000
31
  0.00000000
0
LINE
8
Rahmen
6
CONTINUOUS
62
7
10
  0.09000000
20
 -0.01500000
30
  0.00000000
11
  0.20400000
21
 -0.01500000
31
  0.00000000
0
LINE
8
Rahmen
6
CONTINUOUS
62
7
10
  0.09000000
20
 -0.02000000
30
  0.00000000
11
  0.20400000
21
 -0.02000000
31
  0.00000000
0
LINE
8
Rahmen
6
CONTINUOUS
62
7
10
  0.09000000
20
 -0.01500000
30
  0.00000000
11
  0.09000000
21
 -0.02000000
31
  0.00000000
0
LINE
8
Rahmen
6
CONTINUOUS
62
7
10
  0.20400000
20
 -0.01500000
30
  0.00000000
11
  0.20400000
21
 -0.02000000
31
  0.00000000
0
LINE
8
Rahmen
6
CONTINUOUS
62
7
10
  0.02000000
20
 -0.02000000
30
  0.00000000
11
  0.09000000
21
 -0.02000000
31
  0.00000000
0
LINE
8
Rahmen
6
CONTINUOUS
62
7
10
  0.02000000
20
 -0.02500000
30
  0.00000000
11
  0.09000000
21
 -0.02500000
31
  0.00000000
0
LINE
8
Rahmen
6
CONTINUOUS
62
7
10
  0.02000000
20
 -0.02000000
30
  0.00000000
11
  0.02000000
21
 -0.02500000
31
  0.00000000
0
LINE
8
Rahmen
6
CONTINUOUS
62
7
10
  0.09000000
20
 -0.02000000
30
  0.00000000
11
  0.09000000
21
 -0.02500000
31
  0.00000000
0
LINE
8
Rahmen
6
CONTINUOUS
62
7
10
  0.09000000
20
 -0.02000000
30
  0.00000000
11
  0.20400000
21
 -0.02000000
31
  0.00000000
0
LINE
8
Rahmen
6
CONTINUOUS
62
7
10
  0.09000000
20
 -0.02500000
30
  0.00000000
11
  0.20400000
21
 -0.02500000
31
  0.00000000
0
LINE
8
Rahmen
6
CONTINUOUS
62
7
10
  0.09000000
20
 -0.02000000
30
  0.00000000
11
  0.09000000
21
 -0.02500000
31
  0.00000000
0
LINE
8
Rahmen
6
CONTINUOUS
62
7
10
  0.20400000
20
 -0.02000000
30
  0.00000000
11
  0.20400000
21
 -0.02500000
31
  0.00000000
0
LINE
8
Rahmen
6
CONTINUOUS
62
7
10
  0.02000000
20
 -0.27100000
30
  0.00000000
11
  0.20400000
21
 -0.27100000
31
  0.00000000
0
LINE
8
Rahmen
6
CONTINUOUS
62
7
10
  0.02000000
20
 -0.00500000
30
  0.00000000
11
  0.20400000
21
 -0.00500000
31
  0.00000000
0
LINE
8
Rahmen
6
CONTINUOUS
62
7
10
  0.20400000
20
 -0.00500000
30
  0.00000000
11
  0.20400000
21
 -0.29100000
31
  0.00000000
0
LINE
8
Rahmen
6
CONTINUOUS
62
7
10
  0.20400000
20
 -0.29100000
30
  0.00000000
11
  0.02000000
21
 -0.29100000
31
  0.00000000
0
LINE
8
Rahmen
6
CONTINUOUS
62
7
10
  0.02000000
20
 -0.29100000
30
  0.00000000
11
  0.02000000
21
 -0.00500000
31
  0.00000000
0
TEXT
8
DC
62
7
10
  0.09820000
20
 -0.14690000
30
  0.00000000
40
  0.00250000
41
  0.60000000
1
Kein Wasser
50
  0.00000000
72
2
73
0
11
  0.09820000
21
 -0.14690000
31
  0.00000000
0
TEXT
8
DC
62
7
10
  0.09820000
20
 -0.15100000
30
  0.00000000
40
  0.00250000
41
  0.60000000
1
(23.11.2022)
50
  0.00000000
72
2
73
0
11
  0.09820000
21
 -0.15100000
31
  0.00000000
0
LINE
8
DC
6
CONTINUOUS
62
7
10
  0.11960000
20
 -0.04500000
30
  0.00000000
11
  0.11860000
21
 -0.04500000
31
  0.00000000
0
LINE
8
DC
6
CONTINUOUS
62
7
10
  0.10920000
20
 -0.04500000
30
  0.00000000
11
  0.11860000
21
 -0.04500000
31
  0.00000000
0
TEXT
8
DC
62
7
10
  0.11860000
20
 -0.04450000
30
  0.00000000
40
  0.00250000
41
  0.60000000
1
    0.00m
50
  0.00000000
72
2
73
0
11
  0.11860000
21
 -0.04450000
31
  0.00000000
0
LINE
8
DC
6
CONTINUOUS
62
7
10
  0.13070000
20
 -0.04630000
30
  0.00000000
11
  0.13070000
21
 -0.04630000
31
  0.00000000
0
LINE
8
DC
6
CONTINUOUS
62
7
10
  0.13053417
20
 -0.04625000
30
  0.00000000
11
  0.13086583
21
 -0.04625000
31
  0.00000000
0
LINE
8
DC
6
CONTINUOUS
62
7
10
  0.13047639
20
 -0.04620000
30
  0.00000000
11
  0.13092361
21
 -0.04620000
31
  0.00000000
0
LINE
8
DC
6
CONTINUOUS
62
7
10
  0.13044019
20
 -0.04615000
30
  0.00000000
11
  0.13095981
21
 -0.04615000
31
  0.00000000
0
LINE
8
DC
6
CONTINUOUS
62
7
10
  0.13041716
20
 -0.04610000
30
  0.00000000
11
  0.13098284
21
 -0.04610000
31
  0.00000000
0
LINE
8
DC
6
CONTINUOUS
62
7
10
  0.13040420
20
 -0.04605000
30
  0.00000000
11
  0.13099580
21
 -0.04605000
31
  0.00000000
0
LINE
8
DC
6
CONTINUOUS
62
7
10
  0.13040000
20
 -0.04600000
30
  0.00000000
11
  0.13100000
21
 -0.04600000
31
  0.00000000
0
LINE
8
DC
6
CONTINUOUS
62
7
10
  0.13040420
20
 -0.04595000
30
  0.00000000
11
  0.13099580
21
 -0.04595000
31
  0.00000000
0
LINE
8
DC
6
CONTINUOUS
62
7
10
  0.13041716
20
 -0.04590000
30
  0.00000000
11
  0.13098284
21
 -0.04590000
31
  0.00000000
0
LINE
8
DC
6
CONTINUOUS
62
7
10
  0.13044019
20
 -0.04585000
30
  0.00000000
11
  0.13095981
21
 -0.04585000
31
  0.00000000
0
LINE
8
DC
6
CONTINUOUS
62
7
10
  0.13047639
20
 -0.04580000
30
  0.00000000
11
  0.13092361
21
 -0.04580000
31
  0.00000000
0
LINE
8
DC
6
CONTINUOUS
62
7
10
  0.13053417
20
 -0.04575000
30
  0.00000000
11
  0.13086583
21
 -0.04575000
31
  0.00000000
0
CIRCLE
8
DC
6
CONTINUOUS
62
7
10
  0.13070000
20
 -0.04600000
30
  0.00000000
40
  0.00030000
0
LINE
8
DC
6
CONTINUOUS
62
7
10
  0.13070000
20
 -0.04830000
30
  0.00000000
11
  0.13070000
21
 -0.04830000
31
  0.00000000
0
LINE
8
DC
6
CONTINUOUS
62
7
10
  0.13053417
20
 -0.04825000
30
  0.00000000
11
  0.13086583
21
 -0.04825000
31
  0.00000000
0
LINE
8
DC
6
CONTINUOUS
62
7
10
  0.13047639
20
 -0.04820000
30
  0.00000000
11
  0.13092361
21
 -0.04820000
31
  0.00000000
0
LINE
8
DC
6
CONTINUOUS
62
7
10
  0.13044019
20
 -0.04815000
30
  0.00000000
11
  0.13095981
21
 -0.04815000
31
  0.00000000
0
LINE
8
DC
6
CONTINUOUS
62
7
10
  0.13041716
20
 -0.04810000
30
  0.00000000
11
  0.13098284
21
 -0.04810000
31
  0.00000000
0
LINE
8
DC
6
CONTINUOUS
62
7
10
  0.13040420
20
 -0.04805000
30
  0.00000000
11
  0.13099580
21
 -0.04805000
31
  0.00000000
0
LINE
8
DC
6
CONTINUOUS
62
7
10
  0.13040000
20
 -0.04800000
30
  0.00000000
11
  0.13100000
21
 -0.04800000
31
  0.00000000
0
LINE
8
DC
6
CONTINUOUS
62
7
10
  0.13040420
20
 -0.04795000
30
  0.00000000
11
  0.13099580
21
 -0.04795000
31
  0.00000000
0
LINE
8
DC
6
CONTINUOUS
62
7
10
  0.13041716
20
 -0.04790000
30
  0.00000000
11
  0.13098284
21
 -0.04790000
31
  0.00000000
0
LINE
8
DC
6
CONTINUOUS
62
7
10
  0.13044019
20
 -0.04785000
30
  0.00000000
11
  0.13095981
21
 -0.04785000
31
  0.00000000
0
LINE
8
DC
6
CONTINUOUS
62
7
10
  0.13047639
20
 -0.04780000
30
  0.00000000
11
  0.13092361
21
 -0.04780000
31
  0.00000000
0
LINE
8
DC
6
CONTINUOUS
62
7
10
  0.13053417
20
 -0.04775000
30
  0.00000000
11
  0.13086583
21
 -0.04775000
31
  0.00000000
0
CIRCLE
8
DC
6
CONTINUOUS
62
7
10
  0.13070000
20
 -0.04800000
30
  0.00000000
40
  0.00030000
0
LINE
8
DC
6
CONTINUOUS
62
7
10
  0.13070000
20
 -0.05030000
30
  0.00000000
11
  0.13070000
21
 -0.05030000
31
  0.00000000
0
LINE
8
DC
6
CONTINUOUS
62
7
10
  0.13053417
20
 -0.05025000
30
  0.00000000
11
  0.13086583
21
 -0.05025000
31
  0.00000000
0
LINE
8
DC
6
CONTINUOUS
62
7
10
  0.13047639
20
 -0.05020000
30
  0.00000000
11
  0.13092361
21
 -0.05020000
31
  0.00000000
0
LINE
8
DC
6
CONTINUOUS
62
7
10
  0.13044019
20
 -0.05015000
30
  0.00000000
11
  0.13095981
21
 -0.05015000
31
  0.00000000
0
LINE
8
DC
6
CONTINUOUS
62
7
10
  0.13041716
20
 -0.05010000
30
  0.00000000
11
  0.13098284
21
 -0.05010000
31
  0.00000000
0
LINE
8
DC
6
CONTINUOUS
62
7
10
  0.13040420
20
 -0.05005000
30
  0.00000000
11
  0.13099580
21
 -0.05005000
31
  0.00000000
0
LINE
8
DC
6
CONTINUOUS
62
7
10
  0.13040000
20
 -0.05000000
30
  0.00000000
11
  0.13100000
21
 -0.05000000
31
  0.00000000
0
LINE
8
DC
6
CONTINUOUS
62
7
10
  0.13040420
20
 -0.04995000
30
  0.00000000
11
  0.13099580
21
 -0.04995000
31
  0.00000000
0
LINE
8
DC
6
CONTINUOUS
62
7
10
  0.13041716
20
 -0.04990000
30
  0.00000000
11
  0.13098284
21
 -0.04990000
31
  0.00000000
0
LINE
8
DC
6
CONTINUOUS
62
7
10
  0.13044019
20
 -0.04985000
30
  0.00000000
11
  0.13095981
21
 -0.04985000
31
  0.00000000
0
LINE
8
DC
6
CONTINUOUS
62
7
10
  0.13047639
20
 -0.04980000
30
  0.00000000
11
  0.13092361
21
 -0.04980000
31
  0.00000000
0
LINE
8
DC
6
CONTINUOUS
62
7
10
  0.13053417
20
 -0.04975000
30
  0.00000000
11
  0.13086583
21
 -0.04975000
31
  0.00000000
0
CIRCLE
8
DC
6
CONTINUOUS
62
7
10
  0.13070000
20
 -0.05000000
30
  0.00000000
40
  0.00030000
0
LINE
8
DC
6
CONTINUOUS
62
7
10
  0.13070000
20
 -0.05230000
30
  0.00000000
11
  0.13070000
21
 -0.05230000
31
  0.00000000
0
LINE
8
DC
6
CONTINUOUS
62
7
10
  0.13053417
20
 -0.05225000
30
  0.00000000
11
  0.13086583
21
 -0.05225000
31
  0.00000000
0
LINE
8
DC
6
CONTINUOUS
62
7
10
  0.13047639
20
 -0.05220000
30
  0.00000000
11
  0.13092361
21
 -0.05220000
31
  0.00000000
0
LINE
8
DC
6
CONTINUOUS
62
7
10
  0.13044019
20
 -0.05215000
30
  0.00000000
11
  0.13095981
21
 -0.05215000
31
  0.00000000
0
LINE
8
DC
6
CONTINUOUS
62
7
10
  0.13041716
20
 -0.05210000
30
  0.00000000
11
  0.13098284
21
 -0.05210000
31
  0.00000000
0
LINE
8
DC
6
CONTINUOUS
62
7
10
  0.13040420
20
 -0.05205000
30
  0.00000000
11
  0.13099580
21
 -0.05205000
31
  0.00000000
0
LINE
8
DC
6
CONTINUOUS
62
7
10
  0.13040000
20
 -0.05200000
30
  0.00000000
11
  0.13100000
21
 -0.05200000
31
  0.00000000
0
LINE
8
DC
6
CONTINUOUS
62
7
10
  0.13040420
20
 -0.05195000
30
  0.00000000
11
  0.13099580
21
 -0.05195000
31
  0.00000000
0
LINE
8
DC
6
CONTINUOUS
62
7
10
  0.13041716
20
 -0.05190000
30
  0.00000000
11
  0.13098284
21
 -0.05190000
31
  0.00000000
0
LINE
8
DC
6
CONTINUOUS
62
7
10
  0.13044019
20
 -0.05185000
30
  0.00000000
11
  0.13095981
21
 -0.05185000
31
  0.00000000
0
LINE
8
DC
6
CONTINUOUS
62
7
10
  0.13047639
20
 -0.05180000
30
  0.00000000
11
  0.13092361
21
 -0.05180000
31
  0.00000000
0
LINE
8
DC
6
CONTINUOUS
62
7
10
  0.13053417
20
 -0.05175000
30
  0.00000000
11
  0.13086583
21
 -0.05175000
31
  0.00000000
0
CIRCLE
8
DC
6
CONTINUOUS
62
7
10
  0.13070000
20
 -0.05200000
30
  0.00000000
40
  0.00030000
0
LINE
8
DC
6
CONTINUOUS
62
7
10
  0.13070000
20
 -0.05430000
30
  0.00000000
11
  0.13070000
21
 -0.05430000
31
  0.00000000
0
LINE
8
DC
6
CONTINUOUS
62
7
10
  0.13053417
20
 -0.05425000
30
  0.00000000
11
  0.13086583
21
 -0.05425000
31
  0.00000000
0
LINE
8
DC
6
CONTINUOUS
62
7
10
  0.13047639
20
 -0.05420000
30
  0.00000000
11
  0.13092361
21
 -0.05420000
31
  0.00000000
0
LINE
8
DC
6
CONTINUOUS
62
7
10
  0.13044019
20
 -0.05415000
30
  0.00000000
11
  0.13095981
21
 -0.05415000
31
  0.00000000
0
LINE
8
DC
6
CONTINUOUS
62
7
10
  0.13041716
20
 -0.05410000
30
  0.00000000
11
  0.13098284
21
 -0.05410000
31
  0.00000000
0
LINE
8
DC
6
CONTINUOUS
62
7
10
  0.13040420
20
 -0.05405000
30
  0.00000000
11
  0.13099580
21
 -0.05405000
31
  0.00000000
0
LINE
8
DC
6
CONTINUOUS
62
7
10
  0.13040000
20
 -0.05400000
30
  0.00000000
11
  0.13100000
21
 -0.05400000
31
  0.00000000
0
LINE
8
DC
6
CONTINUOUS
62
7
10
  0.13040420
20
 -0.05395000
30
  0.00000000
11
  0.13099580
21
 -0.05395000
31
  0.00000000
0
LINE
8
DC
6
CONTINUOUS
62
7
10
  0.13041716
20
 -0.05390000
30
  0.00000000
11
  0.13098284
21
 -0.05390000
31
  0.00000000
0
LINE
8
DC
6
CONTINUOUS
62
7
10
  0.13044019
20
 -0.05385000
30
  0.00000000
11
  0.13095981
21
 -0.05385000
31
  0.00000000
0
LINE
8
DC
6
CONTINUOUS
62
7
10
  0.13047639
20
 -0.05380000
30
  0.00000000
11
  0.13092361
21
 -0.05380000
31
  0.00000000
0
LINE
8
DC
6
CONTINUOUS
62
7
10
  0.13053417
20
 -0.05375000
30
  0.00000000
11
  0.13086583
21
 -0.05375000
31
  0.00000000
0
CIRCLE
8
DC
6
CONTINUOUS
62
7
10
  0.13070000
20
 -0.05400000
30
  0.00000000
40
  0.00030000
0
LINE
8
DC
6
CONTINUOUS
62
7
10
  0.13170000
20
 -0.04630000
30
  0.00000000
11
  0.13170000
21
 -0.04630000
31
  0.00000000
0
LINE
8
DC
6
CONTINUOUS
62
7
10
  0.13153417
20
 -0.04625000
30
  0.00000000
11
  0.13186583
21
 -0.04625000
31
  0.00000000
0
LINE
8
DC
6
CONTINUOUS
62
7
10
  0.13147639
20
 -0.04620000
30
  0.00000000
11
  0.13192361
21
 -0.04620000
31
  0.00000000
0
LINE
8
DC
6
CONTINUOUS
62
7
10
  0.13144019
20
 -0.04615000
30
  0.00000000
11
  0.13195981
21
 -0.04615000
31
  0.00000000
0
LINE
8
DC
6
CONTINUOUS
62
7
10
  0.13141716
20
 -0.04610000
30
  0.00000000
11
  0.13198284
21
 -0.04610000
31
  0.00000000
0
LINE
8
DC
6
CONTINUOUS
62
7
10
  0.13140420
20
 -0.04605000
30
  0.00000000
11
  0.13199580
21
 -0.04605000
31
  0.00000000
0
LINE
8
DC
6
CONTINUOUS
62
7
10
  0.13140000
20
 -0.04600000
30
  0.00000000
11
  0.13200000
21
 -0.04600000
31
  0.00000000
0
LINE
8
DC
6
CONTINUOUS
62
7
10
  0.13140420
20
 -0.04595000
30
  0.00000000
11
  0.13199580
21
 -0.04595000
31
  0.00000000
0
LINE
8
DC
6
CONTINUOUS
62
7
10
  0.13141716
20
 -0.04590000
30
  0.00000000
11
  0.13198284
21
 -0.04590000
31
  0.00000000
0
LINE
8
DC
6
CONTINUOUS
62
7
10
  0.13144019
20
 -0.04585000
30
  0.00000000
11
  0.13195981
21
 -0.04585000
31
  0.00000000
0
LINE
8
DC
6
CONTINUOUS
62
7
10
  0.13147639
20
 -0.04580000
30
  0.00000000
11
  0.13192361
21
 -0.04580000
31
  0.00000000
0
LINE
8
DC
6
CONTINUOUS
62
7
10
  0.13153417
20
 -0.04575000
30
  0.00000000
11
  0.13186583
21
 -0.04575000
31
  0.00000000
0
CIRCLE
8
DC
6
CONTINUOUS
62
7
10
  0.13170000
20
 -0.04600000
30
  0.00000000
40
  0.00030000
0
LINE
8
DC
6
CONTINUOUS
62
7
10
  0.13170000
20
 -0.04830000
30
  0.00000000
11
  0.13170000
21
 -0.04830000
31
  0.00000000
0
LINE
8
DC
6
CONTINUOUS
62
7
10
  0.13153417
20
 -0.04825000
30
  0.00000000
11
  0.13186583
21
 -0.04825000
31
  0.00000000
0
LINE
8
DC
6
CONTINUOUS
62
7
10
  0.13147639
20
 -0.04820000
30
  0.00000000
11
  0.13192361
21
 -0.04820000
31
  0.00000000
0
LINE
8
DC
6
CONTINUOUS
62
7
10
  0.13144019
20
 -0.04815000
30
  0.00000000
11
  0.13195981
21
 -0.04815000
31
  0.00000000
0
LINE
8
DC
6
CONTINUOUS
62
7
10
  0.13141716
20
 -0.04810000
30
  0.00000000
11
  0.13198284
21
 -0.04810000
31
  0.00000000
0
LINE
8
DC
6
CONTINUOUS
62
7
10
  0.13140420
20
 -0.04805000
30
  0.00000000
11
  0.13199580
21
 -0.04805000
31
  0.00000000
0
LINE
8
DC
6
CONTINUOUS
62
7
10
  0.13140000
20
 -0.04800000
30
  0.00000000
11
  0.13200000
21
 -0.04800000
31
  0.00000000
0
LINE
8
DC
6
CONTINUOUS
62
7
10
  0.13140420
20
 -0.04795000
30
  0.00000000
11
  0.13199580
21
 -0.04795000
31
  0.00000000
0
LINE
8
DC
6
CONTINUOUS
62
7
10
  0.13141716
20
 -0.04790000
30
  0.00000000
11
  0.13198284
21
 -0.04790000
31
  0.00000000
0
LINE
8
DC
6
CONTINUOUS
62
7
10
  0.13144019
20
 -0.04785000
30
  0.00000000
11
  0.13195981
21
 -0.04785000
31
  0.00000000
0
LINE
8
DC
6
CONTINUOUS
62
7
10
  0.13147639
20
 -0.04780000
30
  0.00000000
11
  0.13192361
21
 -0.04780000
31
  0.00000000
0
LINE
8
DC
6
CONTINUOUS
62
7
10
  0.13153417
20
 -0.04775000
30
  0.00000000
11
  0.13186583
21
 -0.04775000
31
  0.00000000
0
CIRCLE
8
DC
6
CONTINUOUS
62
7
10
  0.13170000
20
 -0.04800000
30
  0.00000000
40
  0.00030000
0
LINE
8
DC
6
CONTINUOUS
62
7
10
  0.13170000
20
 -0.05030000
30
  0.00000000
11
  0.13170000
21
 -0.05030000
31
  0.00000000
0
LINE
8
DC
6
CONTINUOUS
62
7
10
  0.13153417
20
 -0.05025000
30
  0.00000000
11
  0.13186583
21
 -0.05025000
31
  0.00000000
0
LINE
8
DC
6
CONTINUOUS
62
7
10
  0.13147639
20
 -0.05020000
30
  0.00000000
11
  0.13192361
21
 -0.05020000
31
  0.00000000
0
LINE
8
DC
6
CONTINUOUS
62
7
10
  0.13144019
20
 -0.05015000
30
  0.00000000
11
  0.13195981
21
 -0.05015000
31
  0.00000000
0
LINE
8
DC
6
CONTINUOUS
62
7
10
  0.13141716
20
 -0.05010000
30
  0.00000000
11
  0.13198284
21
 -0.05010000
31
  0.00000000
0
LINE
8
DC
6
CONTINUOUS
62
7
10
  0.13140420
20
 -0.05005000
30
  0.00000000
11
  0.13199580
21
 -0.05005000
31
  0.00000000
0
LINE
8
DC
6
CONTINUOUS
62
7
10
  0.13140000
20
 -0.05000000
30
  0.00000000
11
  0.13200000
21
 -0.05000000
31
  0.00000000
0
LINE
8
DC
6
CONTINUOUS
62
7
10
  0.13140420
20
 -0.04995000
30
  0.00000000
11
  0.13199580
21
 -0.04995000
31
  0.00000000
0
LINE
8
DC
6
CONTINUOUS
62
7
10
  0.13141716
20
 -0.04990000
30
  0.00000000
11
  0.13198284
21
 -0.04990000
31
  0.00000000
0
LINE
8
DC
6
CONTINUOUS
62
7
10
  0.13144019
20
 -0.04985000
30
  0.00000000
11
  0.13195981
21
 -0.04985000
31
  0.00000000
0
LINE
8
DC
6
CONTINUOUS
62
7
10
  0.13147639
20
 -0.04980000
30
  0.00000000
11
  0.13192361
21
 -0.04980000
31
  0.00000000
0
LINE
8
DC
6
CONTINUOUS
62
7
10
  0.13153417
20
 -0.04975000
30
  0.00000000
11
  0.13186583
21
 -0.04975000
31
  0.00000000
0
CIRCLE
8
DC
6
CONTINUOUS
62
7
10
  0.13170000
20
 -0.05000000
30
  0.00000000
40
  0.00030000
0
LINE
8
DC
6
CONTINUOUS
62
7
10
  0.13170000
20
 -0.05230000
30
  0.00000000
11
  0.13170000
21
 -0.05230000
31
  0.00000000
0
LINE
8
DC
6
CONTINUOUS
62
7
10
  0.13153417
20
 -0.05225000
30
  0.00000000
11
  0.13186583
21
 -0.05225000
31
  0.00000000
0
LINE
8
DC
6
CONTINUOUS
62
7
10
  0.13147639
20
 -0.05220000
30
  0.00000000
11
  0.13192361
21
 -0.05220000
31
  0.00000000
0
LINE
8
DC
6
CONTINUOUS
62
7
10
  0.13144019
20
 -0.05215000
30
  0.00000000
11
  0.13195981
21
 -0.05215000
31
  0.00000000
0
LINE
8
DC
6
CONTINUOUS
62
7
10
  0.13141716
20
 -0.05210000
30
  0.00000000
11
  0.13198284
21
 -0.05210000
31
  0.00000000
0
LINE
8
DC
6
CONTINUOUS
62
7
10
  0.13140420
20
 -0.05205000
30
  0.00000000
11
  0.13199580
21
 -0.05205000
31
  0.00000000
0
LINE
8
DC
6
CONTINUOUS
62
7
10
  0.13140000
20
 -0.05200000
30
  0.00000000
11
  0.13200000
21
 -0.05200000
31
  0.00000000
0
LINE
8
DC
6
CONTINUOUS
62
7
10
  0.13140420
20
 -0.05195000
30
  0.00000000
11
  0.13199580
21
 -0.05195000
31
  0.00000000
0
LINE
8
DC
6
CONTINUOUS
62
7
10
  0.13141716
20
 -0.05190000
30
  0.00000000
11
  0.13198284
21
 -0.05190000
31
  0.00000000
0
LINE
8
DC
6
CONTINUOUS
62
7
10
  0.13144019
20
 -0.05185000
30
  0.00000000
11
  0.13195981
21
 -0.05185000
31
  0.00000000
0
LINE
8
DC
6
CONTINUOUS
62
7
10
  0.13147639
20
 -0.05180000
30
  0.00000000
11
  0.13192361
21
 -0.05180000
31
  0.00000000
0
LINE
8
DC
6
CONTINUOUS
62
7
10
  0.13153417
20
 -0.05175000
30
  0.00000000
11
  0.13186583
21
 -0.05175000
31
  0.00000000
0
CIRCLE
8
DC
6
CONTINUOUS
62
7
10
  0.13170000
20
 -0.05200000
30
  0.00000000
40
  0.00030000
0
LINE
8
DC
6
CONTINUOUS
62
7
10
  0.13170000
20
 -0.05430000
30
  0.00000000
11
  0.13170000
21
 -0.05430000
31
  0.00000000
0
LINE
8
DC
6
CONTINUOUS
62
7
10
  0.13153417
20
 -0.05425000
30
  0.00000000
11
  0.13186583
21
 -0.05425000
31
  0.00000000
0
LINE
8
DC
6
CONTINUOUS
62
7
10
  0.13147639
20
 -0.05420000
30
  0.00000000
11
  0.13192361
21
 -0.05420000
31
  0.00000000
0
LINE
8
DC
6
CONTINUOUS
62
7
10
  0.13144019
20
 -0.05415000
30
  0.00000000
11
  0.13195981
21
 -0.05415000
31
  0.00000000
0
LINE
8
DC
6
CONTINUOUS
62
7
10
  0.13141716
20
 -0.05410000
30
  0.00000000
11
  0.13198284
21
 -0.05410000
31
  0.00000000
0
LINE
8
DC
6
CONTINUOUS
62
7
10
  0.13140420
20
 -0.05405000
30
  0.00000000
11
  0.13199580
21
 -0.05405000
31
  0.00000000
0
LINE
8
DC
6
CONTINUOUS
62
7
10
  0.13140000
20
 -0.05400000
30
  0.00000000
11
  0.13200000
21
 -0.05400000
31
  0.00000000
0
LINE
8
DC
6
CONTINUOUS
62
7
10
  0.13140420
20
 -0.05395000
30
  0.00000000
11
  0.13199580
21
 -0.05395000
31
  0.00000000
0
LINE
8
DC
6
CONTINUOUS
62
7
10
  0.13141716
20
 -0.05390000
30
  0.00000000
11
  0.13198284
21
 -0.05390000
31
  0.00000000
0
LINE
8
DC
6
CONTINUOUS
62
7
10
  0.13144019
20
 -0.05385000
30
  0.00000000
11
  0.13195981
21
 -0.05385000
31
  0.00000000
0
LINE
8
DC
6
CONTINUOUS
62
7
10
  0.13147639
20
 -0.05380000
30
  0.00000000
11
  0.13192361
21
 -0.05380000
31
  0.00000000
0
LINE
8
DC
6
CONTINUOUS
62
7
10
  0.13153417
20
 -0.05375000
30
  0.00000000
11
  0.13186583
21
 -0.05375000
31
  0.00000000
0
CIRCLE
8
DC
6
CONTINUOUS
62
7
10
  0.13170000
20
 -0.05400000
30
  0.00000000
40
  0.00030000
0
SOLID
8
DC
62
255
10
  0.11960000
20
 -0.04500000
30
  0.00000000
11
  0.12470000
21
 -0.04500000
31
  0.00000000
12
  0.11960000
22
 -0.05510000
32
  0.00000000
13
  0.12470000
23
 -0.05510000
33
  0.00000000
0
LINE
8
DC
6
CONTINUOUS
62
7
10
  0.11960000
20
 -0.04500000
30
  0.00000000
11
  0.12470000
21
 -0.04500000
31
  0.00000000
0
LINE
8
DC
6
CONTINUOUS
62
7
10
  0.12470000
20
 -0.04500000
30
  0.00000000
11
  0.12470000
21
 -0.05510000
31
  0.00000000
0
LINE
8
DC
6
CONTINUOUS
62
7
10
  0.12470000
20
 -0.05510000
30
  0.00000000
11
  0.11960000
21
 -0.05510000
31
  0.00000000
0
LINE
8
DC
6
CONTINUOUS
62
7
10
  0.11960000
20
 -0.05510000
30
  0.00000000
11
  0.11960000
21
 -0.04500000
31
  0.00000000
0
SOLID
8
DC
62
2
10
  0.12470000
20
 -0.04500000
30
  0.00000000
11
  0.12970000
21
 -0.04500000
31
  0.00000000
12
  0.12470000
22
 -0.05510000
32
  0.00000000
13
  0.12970000
23
 -0.05510000
33
  0.00000000
0
LINE
8
DC
6
CONTINUOUS
62
7
10
  0.12470000
20
 -0.04500000
30
  0.00000000
11
  0.12970000
21
 -0.04500000
31
  0.00000000
0
LINE
8
DC
6
CONTINUOUS
62
7
10
  0.12970000
20
 -0.04500000
30
  0.00000000
11
  0.12970000
21
 -0.05510000
31
  0.00000000
0
LINE
8
DC
6
CONTINUOUS
62
7
10
  0.12970000
20
 -0.05510000
30
  0.00000000
11
  0.12470000
21
 -0.05510000
31
  0.00000000
0
LINE
8
DC
6
CONTINUOUS
62
7
10
  0.12470000
20
 -0.05510000
30
  0.00000000
11
  0.12470000
21
 -0.04500000
31
  0.00000000
0
TEXT
8
DC
62
7
10
  0.12210000
20
 -0.04520000
30
  0.00000000
40
  0.00325000
41
  0.60000000
1
A
50
  0.00000000
72
1
73
3
11
  0.12210000
21
 -0.04520000
31
  0.00000000
0
CIRCLE
8
DC
6
CONTINUOUS
62
7
10
  0.12310000
20
 -0.05230000
30
  0.00000000
40
  0.00050000
0
CIRCLE
8
DC
6
CONTINUOUS
62
7
10
  0.12110000
20
 -0.05090000
30
  0.00000000
40
  0.00050000
0
LINE
8
DC
6
CONTINUOUS
62
7
10
  0.12610000
20
 -0.04620000
30
  0.00000000
11
  0.12610000
21
 -0.04620000
31
  0.00000000
0
LINE
8
DC
6
CONTINUOUS
62
7
10
  0.12593417
20
 -0.04615000
30
  0.00000000
11
  0.12626583
21
 -0.04615000
31
  0.00000000
0
LINE
8
DC
6
CONTINUOUS
62
7
10
  0.12587639
20
 -0.04610000
30
  0.00000000
11
  0.12632361
21
 -0.04610000
31
  0.00000000
0
LINE
8
DC
6
CONTINUOUS
62
7
10
  0.12584019
20
 -0.04605000
30
  0.00000000
11
  0.12635981
21
 -0.04605000
31
  0.00000000
0
LINE
8
DC
6
CONTINUOUS
62
7
10
  0.12581716
20
 -0.04600000
30
  0.00000000
11
  0.12638284
21
 -0.04600000
31
  0.00000000
0
LINE
8
DC
6
CONTINUOUS
62
7
10
  0.12580420
20
 -0.04595000
30
  0.00000000
11
  0.12639580
21
 -0.04595000
31
  0.00000000
0
LINE
8
DC
6
CONTINUOUS
62
7
10
  0.12580000
20
 -0.04590000
30
  0.00000000
11
  0.12640000
21
 -0.04590000
31
  0.00000000
0
LINE
8
DC
6
CONTINUOUS
62
7
10
  0.12580420
20
 -0.04585000
30
  0.00000000
11
  0.12639580
21
 -0.04585000
31
  0.00000000
0
LINE
8
DC
6
CONTINUOUS
62
7
10
  0.12581716
20
 -0.04580000
30
  0.00000000
11
  0.12638284
21
 -0.04580000
31
  0.00000000
0
LINE
8
DC
6
CONTINUOUS
62
7
10
  0.12584019
20
 -0.04575000
30
  0.00000000
11
  0.12635981
21
 -0.04575000
31
  0.00000000
0
LINE
8
DC
6
CONTINUOUS
62
7
10
  0.12587639
20
 -0.04570000
30
  0.00000000
11
  0.12632361
21
 -0.04570000
31
  0.00000000
0
LINE
8
DC
6
CONTINUOUS
62
7
10
  0.12593417
20
 -0.04565000
30
  0.00000000
11
  0.12626583
21
 -0.04565000
31
  0.00000000
0
CIRCLE
8
DC
6
CONTINUOUS
62
7
10
  0.12610000
20
 -0.04590000
30
  0.00000000
40
  0.00030000
0
LINE
8
DC
6
CONTINUOUS
62
7
10
  0.12810000
20
 -0.04750000
30
  0.00000000
11
  0.12810000
21
 -0.04750000
31
  0.00000000
0
LINE
8
DC
6
CONTINUOUS
62
7
10
  0.12796771
20
 -0.04745000
30
  0.00000000
11
  0.12823229
21
 -0.04745000
31
  0.00000000
0
LINE
8
DC
6
CONTINUOUS
62
7
10
  0.12792679
20
 -0.04740000
30
  0.00000000
11
  0.12827321
21
 -0.04740000
31
  0.00000000
0
LINE
8
DC
6
CONTINUOUS
62
7
10
  0.12790635
20
 -0.04735000
30
  0.00000000
11
  0.12829365
21
 -0.04735000
31
  0.00000000
0
LINE
8
DC
6
CONTINUOUS
62
7
10
  0.12790000
20
 -0.04730000
30
  0.00000000
11
  0.12830000
21
 -0.04730000
31
  0.00000000
0
LINE
8
DC
6
CONTINUOUS
62
7
10
  0.12790635
20
 -0.04725000
30
  0.00000000
11
  0.12829365
21
 -0.04725000
31
  0.00000000
0
LINE
8
DC
6
CONTINUOUS
62
7
10
  0.12792679
20
 -0.04720000
30
  0.00000000
11
  0.12827321
21
 -0.04720000
31
  0.00000000
0
LINE
8
DC
6
CONTINUOUS
62
7
10
  0.12796771
20
 -0.04715000
30
  0.00000000
11
  0.12823229
21
 -0.04715000
31
  0.00000000
0
CIRCLE
8
DC
6
CONTINUOUS
62
7
10
  0.12810000
20
 -0.04730000
30
  0.00000000
40
  0.00020000
0
LINE
8
DC
6
CONTINUOUS
62
7
10
  0.12610000
20
 -0.04730000
30
  0.00000000
11
  0.12620000
21
 -0.04730000
31
  0.00000000
0
LINE
8
DC
6
CONTINUOUS
62
7
10
  0.12810000
20
 -0.04590000
30
  0.00000000
11
  0.12820000
21
 -0.04590000
31
  0.00000000
0
TEXT
8
DC
62
7
10
  0.12710000
20
 -0.04850000
30
  0.00000000
40
  0.00325000
41
  0.60000000
1
A
50
  0.00000000
72
1
73
3
11
  0.12710000
21
 -0.04850000
31
  0.00000000
0
CIRCLE
8
DC
6
CONTINUOUS
62
7
10
  0.12610000
20
 -0.05420000
30
  0.00000000
40
  0.00050000
0
LINE
8
DC
6
CONTINUOUS
62
7
10
  0.11960000
20
 -0.04500000
30
  0.00000000
11
  0.17660000
21
 -0.04500000
31
  0.00000000
0
LINE
8
DC
6
CONTINUOUS
62
7
10
  0.11960000
20
 -0.05500000
30
  0.00000000
11
  0.11860000
21
 -0.05500000
31
  0.00000000
0
LINE
8
DC
6
CONTINUOUS
62
7
10
  0.10920000
20
 -0.05500000
30
  0.00000000
11
  0.11860000
21
 -0.05500000
31
  0.00000000
0
TEXT
8
DC
62
7
10
  0.11860000
20
 -0.05450000
30
  0.00000000
40
  0.00250000
41
  0.60000000
1
    0.50m
50
  0.00000000
72
2
73
0
11
  0.11860000
21
 -0.05450000
31
  0.00000000
0
TEXT
8
DC
62
7
10
  0.13660000
20
 -0.04860000
30
  0.00000000
40
  0.00216667
41
  0.60000000
1
Auffüllung, Fein- bis Mittelkies,
50
  0.00000000
72
0
73
1
11
  0.13660000
21
 -0.04860000
31
  0.00000000
0
TEXT
8
DC
62
7
10
  0.13660000
20
 -0.05170000
30
  0.00000000
40
  0.00216667
41
  0.60000000
1
stark sandig, Ziegelsplitter
50
  0.00000000
72
0
73
1
11
  0.13660000
21
 -0.05170000
31
  0.00000000
0
TEXT
8
DC
62
7
10
  0.13660000
20
 -0.05480000
30
  0.00000000
40
  0.00216667
41
  0.60000000
1
mitteldicht
50
  0.00000000
72
0
73
1
11
  0.13660000
21
 -0.05480000
31
  0.00000000
0
TEXT
8
DC
62
7
10
  0.13660000
20
 -0.05790000
30
  0.00000000
40
  0.00216667
41
  0.60000000
1
erdfeucht
50
  0.00000000
72
0
73
1
11
  0.13660000
21
 -0.05790000
31
  0.00000000
0
TEXT
8
DC
62
7
10
  0.13660000
20
 -0.06100000
30
  0.00000000
40
  0.00216667
41
  0.60000000
1
braungrau
50
  0.00000000
72
0
73
1
11
  0.13660000
21
 -0.06100000
31
  0.00000000
0
CIRCLE
8
DC
6
CONTINUOUS
62
7
10
  0.18290000
20
 -0.05300000
30
  0.00000000
40
  0.00530000
0
TEXT
8
DC
62
7
10
  0.17930000
20
 -0.05500000
30
  0.00000000
40
  0.00250000
41
  0.60000000
1
[GW]
50
  0.00000000
72
0
73
1
11
  0.17930000
21
 -0.05500000
31
  0.00000000
0
LINE
8
DC
6
CONTINUOUS
62
7
10
  0.17040000
20
 -0.04990000
30
  0.00000000
11
  0.17660000
21
 -0.04990000
31
  0.00000000
0
LINE
8
DC
6
CONTINUOUS
62
7
10
  0.17660000
20
 -0.04990000
30
  0.00000000
11
  0.17660000
21
 -0.05610000
31
  0.00000000
0
LINE
8
DC
6
CONTINUOUS
62
7
10
  0.17660000
20
 -0.05610000
30
  0.00000000
11
  0.17040000
21
 -0.05610000
31
  0.00000000
0
LINE
8
DC
6
CONTINUOUS
62
7
10
  0.17040000
20
 -0.05610000
30
  0.00000000
11
  0.17040000
21
 -0.04990000
31
  0.00000000
0
TEXT
8
DC
62
7
10
  0.17350000
20
 -0.05500000
30
  0.00000000
40
  0.00250000
41
  0.60000000
1
3
50
  0.00000000
72
1
73
1
11
  0.17350000
21
 -0.05500000
31
  0.00000000
0
LINE
8
DC
6
GESTRICHELT
62
7
10
  0.13120000
20
 -0.05500000
30
  0.00000000
11
  0.13120000
21
 -0.08500000
31
  0.00000000
0
SOLID
8
DC
62
255
10
  0.11960000
20
 -0.05500000
30
  0.00000000
11
  0.12470000
21
 -0.05500000
31
  0.00000000
12
  0.11960000
22
 -0.08510000
32
  0.00000000
13
  0.12470000
23
 -0.08510000
33
  0.00000000
0
LINE
8
DC
6
CONTINUOUS
62
7
10
  0.11960000
20
 -0.05500000
30
  0.00000000
11
  0.12470000
21
 -0.05500000
31
  0.00000000
0
LINE
8
DC
6
CONTINUOUS
62
7
10
  0.12470000
20
 -0.05500000
30
  0.00000000
11
  0.12470000
21
 -0.08510000
31
  0.00000000
0
LINE
8
DC
6
CONTINUOUS
62
7
10
  0.12470000
20
 -0.08510000
30
  0.00000000
11
  0.11960000
21
 -0.08510000
31
  0.00000000
0
LINE
8
DC
6
CONTINUOUS
62
7
10
  0.11960000
20
 -0.08510000
30
  0.00000000
11
  0.11960000
21
 -0.05500000
31
  0.00000000
0
SOLID
8
DC
62
200
10
  0.12470000
20
 -0.05500000
30
  0.00000000
11
  0.12970000
21
 -0.05500000
31
  0.00000000
12
  0.12470000
22
 -0.08510000
32
  0.00000000
13
  0.12970000
23
 -0.08510000
33
  0.00000000
0
LINE
8
DC
6
CONTINUOUS
62
7
10
  0.12470000
20
 -0.05500000
30
  0.00000000
11
  0.12970000
21
 -0.05500000
31
  0.00000000
0
LINE
8
DC
6
CONTINUOUS
62
7
10
  0.12970000
20
 -0.05500000
30
  0.00000000
11
  0.12970000
21
 -0.08510000
31
  0.00000000
0
LINE
8
DC
6
CONTINUOUS
62
7
10
  0.12970000
20
 -0.08510000
30
  0.00000000
11
  0.12470000
21
 -0.08510000
31
  0.00000000
0
LINE
8
DC
6
CONTINUOUS
62
7
10
  0.12470000
20
 -0.08510000
30
  0.00000000
11
  0.12470000
21
 -0.05500000
31
  0.00000000
0
TEXT
8
DC
62
7
10
  0.12210000
20
 -0.05520000
30
  0.00000000
40
  0.00325000
41
  0.60000000
1
A
50
  0.00000000
72
1
73
3
11
  0.12210000
21
 -0.05520000
31
  0.00000000
0
LINE
8
DC
6
CONTINUOUS
62
7
10
  0.12010000
20
 -0.06080000
30
  0.00000000
11
  0.12310000
21
 -0.06080000
31
  0.00000000
0
LINE
8
DC
6
CONTINUOUS
62
7
10
  0.12110000
20
 -0.06240000
30
  0.00000000
11
  0.12410000
21
 -0.06240000
31
  0.00000000
0
TEXT
8
DC
62
7
10
  0.12210000
20
 -0.06350000
30
  0.00000000
40
  0.00325000
41
  0.60000000
1
A
50
  0.00000000
72
1
73
3
11
  0.12210000
21
 -0.06350000
31
  0.00000000
0
LINE
8
DC
6
CONTINUOUS
62
7
10
  0.12010000
20
 -0.06910000
30
  0.00000000
11
  0.12310000
21
 -0.06910000
31
  0.00000000
0
LINE
8
DC
6
CONTINUOUS
62
7
10
  0.12110000
20
 -0.07070000
30
  0.00000000
11
  0.12410000
21
 -0.07070000
31
  0.00000000
0
TEXT
8
DC
62
7
10
  0.12210000
20
 -0.07180000
30
  0.00000000
40
  0.00325000
41
  0.60000000
1
A
50
  0.00000000
72
1
73
3
11
  0.12210000
21
 -0.07180000
31
  0.00000000
0
LINE
8
DC
6
CONTINUOUS
62
7
10
  0.12010000
20
 -0.07740000
30
  0.00000000
11
  0.12310000
21
 -0.07740000
31
  0.00000000
0
LINE
8
DC
6
CONTINUOUS
62
7
10
  0.12110000
20
 -0.07900000
30
  0.00000000
11
  0.12410000
21
 -0.07900000
31
  0.00000000
0
TEXT
8
DC
62
7
10
  0.12210000
20
 -0.08010000
30
  0.00000000
40
  0.00325000
41
  0.60000000
1
A
50
  0.00000000
72
1
73
3
11
  0.12210000
21
 -0.08010000
31
  0.00000000
0
LINE
8
DC
6
CONTINUOUS
62
7
10
  0.12620000
20
 -0.05710000
30
  0.00000000
11
  0.12620000
21
 -0.05710000
31
  0.00000000
0
LINE
8
DC
6
CONTINUOUS
62
7
10
  0.12598206
20
 -0.05705000
30
  0.00000000
11
  0.12641794
21
 -0.05705000
31
  0.00000000
0
LINE
8
DC
6
CONTINUOUS
62
7
10
  0.12590000
20
 -0.05700000
30
  0.00000000
11
  0.12650000
21
 -0.05700000
31
  0.00000000
0
LINE
8
DC
6
CONTINUOUS
62
7
10
  0.12584293
20
 -0.05695000
30
  0.00000000
11
  0.12655707
21
 -0.05695000
31
  0.00000000
0
LINE
8
DC
6
CONTINUOUS
62
7
10
  0.12580000
20
 -0.05690000
30
  0.00000000
11
  0.12660000
21
 -0.05690000
31
  0.00000000
0
LINE
8
DC
6
CONTINUOUS
62
7
10
  0.12576699
20
 -0.05685000
30
  0.00000000
11
  0.12663301
21
 -0.05685000
31
  0.00000000
0
LINE
8
DC
6
CONTINUOUS
62
7
10
  0.12574174
20
 -0.05680000
30
  0.00000000
11
  0.12665826
21
 -0.05680000
31
  0.00000000
0
LINE
8
DC
6
CONTINUOUS
62
7
10
  0.12572303
20
 -0.05675000
30
  0.00000000
11
  0.12667697
21
 -0.05675000
31
  0.00000000
0
LINE
8
DC
6
CONTINUOUS
62
7
10
  0.12571010
20
 -0.05670000
30
  0.00000000
11
  0.12668990
21
 -0.05670000
31
  0.00000000
0
LINE
8
DC
6
CONTINUOUS
62
7
10
  0.12570251
20
 -0.05665000
30
  0.00000000
11
  0.12669749
21
 -0.05665000
31
  0.00000000
0
LINE
8
DC
6
CONTINUOUS
62
7
10
  0.12570000
20
 -0.05660000
30
  0.00000000
11
  0.12670000
21
 -0.05660000
31
  0.00000000
0
LINE
8
DC
6
CONTINUOUS
62
7
10
  0.12570251
20
 -0.05655000
30
  0.00000000
11
  0.12669749
21
 -0.05655000
31
  0.00000000
0
LINE
8
DC
6
CONTINUOUS
62
7
10
  0.12571010
20
 -0.05650000
30
  0.00000000
11
  0.12668990
21
 -0.05650000
31
  0.00000000
0
LINE
8
DC
6
CONTINUOUS
62
7
10
  0.12572303
20
 -0.05645000
30
  0.00000000
11
  0.12667697
21
 -0.05645000
31
  0.00000000
0
LINE
8
DC
6
CONTINUOUS
62
7
10
  0.12574174
20
 -0.05640000
30
  0.00000000
11
  0.12665826
21
 -0.05640000
31
  0.00000000
0
LINE
8
DC
6
CONTINUOUS
62
7
10
  0.12576699
20
 -0.05635000
30
  0.00000000
11
  0.12663301
21
 -0.05635000
31
  0.00000000
0
LINE
8
DC
6
CONTINUOUS
62
7
10
  0.12580000
20
 -0.05630000
30
  0.00000000
11
  0.12660000
21
 -0.05630000
31
  0.00000000
0
LINE
8
DC
6
CONTINUOUS
62
7
10
  0.12584293
20
 -0.05625000
30
  0.00000000
11
  0.12655707
21
 -0.05625000
31
  0.00000000
0
LINE
8
DC
6
CONTINUOUS
62
7
10
  0.12590000
20
 -0.05620000
30
  0.00000000
11
  0.12650000
21
 -0.05620000
31
  0.00000000
0
LINE
8
DC
6
CONTINUOUS
62
7
10
  0.12598206
20
 -0.05615000
30
  0.00000000
11
  0.12641794
21
 -0.05615000
31
  0.00000000
0
CIRCLE
8
DC
6
CONTINUOUS
62
7
10
  0.12620000
20
 -0.05660000
30
  0.00000000
40
  0.00050000
0
LINE
8
DC
6
CONTINUOUS
62
7
10
  0.12780000
20
 -0.05710000
30
  0.00000000
11
  0.12780000
21
 -0.05710000
31
  0.00000000
0
LINE
8
DC
6
CONTINUOUS
62
7
10
  0.12758206
20
 -0.05705000
30
  0.00000000
11
  0.12801794
21
 -0.05705000
31
  0.00000000
0
LINE
8
DC
6
CONTINUOUS
62
7
10
  0.12750000
20
 -0.05700000
30
  0.00000000
11
  0.12810000
21
 -0.05700000
31
  0.00000000
0
LINE
8
DC
6
CONTINUOUS
62
7
10
  0.12744293
20
 -0.05695000
30
  0.00000000
11
  0.12815707
21
 -0.05695000
31
  0.00000000
0
LINE
8
DC
6
CONTINUOUS
62
7
10
  0.12740000
20
 -0.05690000
30
  0.00000000
11
  0.12820000
21
 -0.05690000
31
  0.00000000
0
LINE
8
DC
6
CONTINUOUS
62
7
10
  0.12736699
20
 -0.05685000
30
  0.00000000
11
  0.12823301
21
 -0.05685000
31
  0.00000000
0
LINE
8
DC
6
CONTINUOUS
62
7
10
  0.12734174
20
 -0.05680000
30
  0.00000000
11
  0.12825826
21
 -0.05680000
31
  0.00000000
0
LINE
8
DC
6
CONTINUOUS
62
7
10
  0.12732303
20
 -0.05675000
30
  0.00000000
11
  0.12827697
21
 -0.05675000
31
  0.00000000
0
LINE
8
DC
6
CONTINUOUS
62
7
10
  0.12731010
20
 -0.05670000
30
  0.00000000
11
  0.12828990
21
 -0.05670000
31
  0.00000000
0
LINE
8
DC
6
CONTINUOUS
62
7
10
  0.12730251
20
 -0.05665000
30
  0.00000000
11
  0.12829749
21
 -0.05665000
31
  0.00000000
0
LINE
8
DC
6
CONTINUOUS
62
7
10
  0.12730000
20
 -0.05660000
30
  0.00000000
11
  0.12830000
21
 -0.05660000
31
  0.00000000
0
LINE
8
DC
6
CONTINUOUS
62
7
10
  0.12730251
20
 -0.05655000
30
  0.00000000
11
  0.12829749
21
 -0.05655000
31
  0.00000000
0
LINE
8
DC
6
CONTINUOUS
62
7
10
  0.12731010
20
 -0.05650000
30
  0.00000000
11
  0.12828990
21
 -0.05650000
31
  0.00000000
0
LINE
8
DC
6
CONTINUOUS
62
7
10
  0.12732303
20
 -0.05645000
30
  0.00000000
11
  0.12827697
21
 -0.05645000
31
  0.00000000
0
LINE
8
DC
6
CONTINUOUS
62
7
10
  0.12734174
20
 -0.05640000
30
  0.00000000
11
  0.12825826
21
 -0.05640000
31
  0.00000000
0
LINE
8
DC
6
CONTINUOUS
62
7
10
  0.12736699
20
 -0.05635000
30
  0.00000000
11
  0.12823301
21
 -0.05635000
31
  0.00000000
0
LINE
8
DC
6
CONTINUOUS
62
7
10
  0.12740000
20
 -0.05630000
30
  0.00000000
11
  0.12820000
21
 -0.05630000
31
  0.00000000
0
LINE
8
DC
6
CONTINUOUS
62
7
10
  0.12744293
20
 -0.05625000
30
  0.00000000
11
  0.12815707
21
 -0.05625000
31
  0.00000000
0
LINE
8
DC
6
CONTINUOUS
62
7
10
  0.12750000
20
 -0.05620000
30
  0.00000000
11
  0.12810000
21
 -0.05620000
31
  0.00000000
0
LINE
8
DC
6
CONTINUOUS
62
7
10
  0.12758206
20
 -0.05615000
30
  0.00000000
11
  0.12801794
21
 -0.05615000
31
  0.00000000
0
CIRCLE
8
DC
6
CONTINUOUS
62
7
10
  0.12780000
20
 -0.05660000
30
  0.00000000
40
  0.00050000
0
LINE
8
DC
6
CONTINUOUS
62
7
10
  0.12560000
20
 -0.05710000
30
  0.00000000
11
  0.12860000
21
 -0.05710000
31
  0.00000000
0
LINE
8
DC
6
CONTINUOUS
62
7
10
  0.12480000
20
 -0.05900000
30
  0.00000000
11
  0.12480000
21
 -0.05900000
31
  0.00000000
0
LINE
8
DC
6
CONTINUOUS
62
7
10
  0.12466771
20
 -0.05895000
30
  0.00000000
11
  0.12493229
21
 -0.05895000
31
  0.00000000
0
LINE
8
DC
6
CONTINUOUS
62
7
10
  0.12462679
20
 -0.05890000
30
  0.00000000
11
  0.12497321
21
 -0.05890000
31
  0.00000000
0
LINE
8
DC
6
CONTINUOUS
62
7
10
  0.12460635
20
 -0.05885000
30
  0.00000000
11
  0.12499365
21
 -0.05885000
31
  0.00000000
0
LINE
8
DC
6
CONTINUOUS
62
7
10
  0.12460000
20
 -0.05880000
30
  0.00000000
11
  0.12500000
21
 -0.05880000
31
  0.00000000
0
LINE
8
DC
6
CONTINUOUS
62
7
10
  0.12460635
20
 -0.05875000
30
  0.00000000
11
  0.12499365
21
 -0.05875000
31
  0.00000000
0
LINE
8
DC
6
CONTINUOUS
62
7
10
  0.12462679
20
 -0.05870000
30
  0.00000000
11
  0.12497321
21
 -0.05870000
31
  0.00000000
0
LINE
8
DC
6
CONTINUOUS
62
7
10
  0.12466771
20
 -0.05865000
30
  0.00000000
11
  0.12493229
21
 -0.05865000
31
  0.00000000
0
CIRCLE
8
DC
6
CONTINUOUS
62
7
10
  0.12480000
20
 -0.05880000
30
  0.00000000
40
  0.00020000
0
LINE
8
DC
6
CONTINUOUS
62
7
10
  0.12580000
20
 -0.05900000
30
  0.00000000
11
  0.12580000
21
 -0.05900000
31
  0.00000000
0
LINE
8
DC
6
CONTINUOUS
62
7
10
  0.12566771
20
 -0.05895000
30
  0.00000000
11
  0.12593229
21
 -0.05895000
31
  0.00000000
0
LINE
8
DC
6
CONTINUOUS
62
7
10
  0.12562679
20
 -0.05890000
30
  0.00000000
11
  0.12597321
21
 -0.05890000
31
  0.00000000
0
LINE
8
DC
6
CONTINUOUS
62
7
10
  0.12560635
20
 -0.05885000
30
  0.00000000
11
  0.12599365
21
 -0.05885000
31
  0.00000000
0
LINE
8
DC
6
CONTINUOUS
62
7
10
  0.12560000
20
 -0.05880000
30
  0.00000000
11
  0.12600000
21
 -0.05880000
31
  0.00000000
0
LINE
8
DC
6
CONTINUOUS
62
7
10
  0.12560635
20
 -0.05875000
30
  0.00000000
11
  0.12599365
21
 -0.05875000
31
  0.00000000
0
LINE
8
DC
6
CONTINUOUS
62
7
10
  0.12562679
20
 -0.05870000
30
  0.00000000
11
  0.12597321
21
 -0.05870000
31
  0.00000000
0
LINE
8
DC
6
CONTINUOUS
62
7
10
  0.12566771
20
 -0.05865000
30
  0.00000000
11
  0.12593229
21
 -0.05865000
31
  0.00000000
0
CIRCLE
8
DC
6
CONTINUOUS
62
7
10
  0.12580000
20
 -0.05880000
30
  0.00000000
40
  0.00020000
0
LINE
8
DC
6
CONTINUOUS
62
7
10
  0.12680000
20
 -0.05900000
30
  0.00000000
11
  0.12680000
21
 -0.05900000
31
  0.00000000
0
LINE
8
DC
6
CONTINUOUS
62
7
10
  0.12666771
20
 -0.05895000
30
  0.00000000
11
  0.12693229
21
 -0.05895000
31
  0.00000000
0
LINE
8
DC
6
CONTINUOUS
62
7
10
  0.12662679
20
 -0.05890000
30
  0.00000000
11
  0.12697321
21
 -0.05890000
31
  0.00000000
0
LINE
8
DC
6
CONTINUOUS
62
7
10
  0.12660635
20
 -0.05885000
30
  0.00000000
11
  0.12699365
21
 -0.05885000
31
  0.00000000
0
LINE
8
DC
6
CONTINUOUS
62
7
10
  0.12660000
20
 -0.05880000
30
  0.00000000
11
  0.12700000
21
 -0.05880000
31
  0.00000000
0
LINE
8
DC
6
CONTINUOUS
62
7
10
  0.12660635
20
 -0.05875000
30
  0.00000000
11
  0.12699365
21
 -0.05875000
31
  0.00000000
0
LINE
8
DC
6
CONTINUOUS
62
7
10
  0.12662679
20
 -0.05870000
30
  0.00000000
11
  0.12697321
21
 -0.05870000
31
  0.00000000
0
LINE
8
DC
6
CONTINUOUS
62
7
10
  0.12666771
20
 -0.05865000
30
  0.00000000
11
  0.12693229
21
 -0.05865000
31
  0.00000000
0
CIRCLE
8
DC
6
CONTINUOUS
62
7
10
  0.12680000
20
 -0.05880000
30
  0.00000000
40
  0.00020000
0
LINE
8
DC
6
CONTINUOUS
62
7
10
  0.12780000
20
 -0.05900000
30
  0.00000000
11
  0.12780000
21
 -0.05900000
31
  0.00000000
0
LINE
8
DC
6
CONTINUOUS
62
7
10
  0.12766771
20
 -0.05895000
30
  0.00000000
11
  0.12793229
21
 -0.05895000
31
  0.00000000
0
LINE
8
DC
6
CONTINUOUS
62
7
10
  0.12762679
20
 -0.05890000
30
  0.00000000
11
  0.12797321
21
 -0.05890000
31
  0.00000000
0
LINE
8
DC
6
CONTINUOUS
62
7
10
  0.12760635
20
 -0.05885000
30
  0.00000000
11
  0.12799365
21
 -0.05885000
31
  0.00000000
0
LINE
8
DC
6
CONTINUOUS
62
7
10
  0.12760000
20
 -0.05880000
30
  0.00000000
11
  0.12800000
21
 -0.05880000
31
  0.00000000
0
LINE
8
DC
6
CONTINUOUS
62
7
10
  0.12760635
20
 -0.05875000
30
  0.00000000
11
  0.12799365
21
 -0.05875000
31
  0.00000000
0
LINE
8
DC
6
CONTINUOUS
62
7
10
  0.12762679
20
 -0.05870000
30
  0.00000000
11
  0.12797321
21
 -0.05870000
31
  0.00000000
0
LINE
8
DC
6
CONTINUOUS
62
7
10
  0.12766771
20
 -0.05865000
30
  0.00000000
11
  0.12793229
21
 -0.05865000
31
  0.00000000
0
CIRCLE
8
DC
6
CONTINUOUS
62
7
10
  0.12780000
20
 -0.05880000
30
  0.00000000
40
  0.00020000
0
LINE
8
DC
6
CONTINUOUS
62
7
10
  0.12880000
20
 -0.05900000
30
  0.00000000
11
  0.12880000
21
 -0.05900000
31
  0.00000000
0
LINE
8
DC
6
CONTINUOUS
62
7
10
  0.12866771
20
 -0.05895000
30
  0.00000000
11
  0.12893229
21
 -0.05895000
31
  0.00000000
0
LINE
8
DC
6
CONTINUOUS
62
7
10
  0.12862679
20
 -0.05890000
30
  0.00000000
11
  0.12897321
21
 -0.05890000
31
  0.00000000
0
LINE
8
DC
6
CONTINUOUS
62
7
10
  0.12860635
20
 -0.05885000
30
  0.00000000
11
  0.12899365
21
 -0.05885000
31
  0.00000000
0
LINE
8
DC
6
CONTINUOUS
62
7
10
  0.12860000
20
 -0.05880000
30
  0.00000000
11
  0.12900000
21
 -0.05880000
31
  0.00000000
0
LINE
8
DC
6
CONTINUOUS
62
7
10
  0.12860635
20
 -0.05875000
30
  0.00000000
11
  0.12899365
21
 -0.05875000
31
  0.00000000
0
LINE
8
DC
6
CONTINUOUS
62
7
10
  0.12862679
20
 -0.05870000
30
  0.00000000
11
  0.12897321
21
 -0.05870000
31
  0.00000000
0
LINE
8
DC
6
CONTINUOUS
62
7
10
  0.12866771
20
 -0.05865000
30
  0.00000000
11
  0.12893229
21
 -0.05865000
31
  0.00000000
0
CIRCLE
8
DC
6
CONTINUOUS
62
7
10
  0.12880000
20
 -0.05880000
30
  0.00000000
40
  0.00020000
0
LINE
8
DC
6
CONTINUOUS
62
7
10
  0.12480000
20
 -0.06120000
30
  0.00000000
11
  0.12480000
21
 -0.06120000
31
  0.00000000
0
LINE
8
DC
6
CONTINUOUS
62
7
10
  0.12466771
20
 -0.06115000
30
  0.00000000
11
  0.12493229
21
 -0.06115000
31
  0.00000000
0
LINE
8
DC
6
CONTINUOUS
62
7
10
  0.12462679
20
 -0.06110000
30
  0.00000000
11
  0.12497321
21
 -0.06110000
31
  0.00000000
0
LINE
8
DC
6
CONTINUOUS
62
7
10
  0.12460635
20
 -0.06105000
30
  0.00000000
11
  0.12499365
21
 -0.06105000
31
  0.00000000
0
LINE
8
DC
6
CONTINUOUS
62
7
10
  0.12460000
20
 -0.06100000
30
  0.00000000
11
  0.12500000
21
 -0.06100000
31
  0.00000000
0
LINE
8
DC
6
CONTINUOUS
62
7
10
  0.12460635
20
 -0.06095000
30
  0.00000000
11
  0.12499365
21
 -0.06095000
31
  0.00000000
0
LINE
8
DC
6
CONTINUOUS
62
7
10
  0.12462679
20
 -0.06090000
30
  0.00000000
11
  0.12497321
21
 -0.06090000
31
  0.00000000
0
LINE
8
DC
6
CONTINUOUS
62
7
10
  0.12466771
20
 -0.06085000
30
  0.00000000
11
  0.12493229
21
 -0.06085000
31
  0.00000000
0
CIRCLE
8
DC
6
CONTINUOUS
62
7
10
  0.12480000
20
 -0.06100000
30
  0.00000000
40
  0.00020000
0
LINE
8
DC
6
CONTINUOUS
62
7
10
  0.12580000
20
 -0.06120000
30
  0.00000000
11
  0.12580000
21
 -0.06120000
31
  0.00000000
0
LINE
8
DC
6
CONTINUOUS
62
7
10
  0.12566771
20
 -0.06115000
30
  0.00000000
11
  0.12593229
21
 -0.06115000
31
  0.00000000
0
LINE
8
DC
6
CONTINUOUS
62
7
10
  0.12562679
20
 -0.06110000
30
  0.00000000
11
  0.12597321
21
 -0.06110000
31
  0.00000000
0
LINE
8
DC
6
CONTINUOUS
62
7
10
  0.12560635
20
 -0.06105000
30
  0.00000000
11
  0.12599365
21
 -0.06105000
31
  0.00000000
0
LINE
8
DC
6
CONTINUOUS
62
7
10
  0.12560000
20
 -0.06100000
30
  0.00000000
11
  0.12600000
21
 -0.06100000
31
  0.00000000
0
LINE
8
DC
6
CONTINUOUS
62
7
10
  0.12560635
20
 -0.06095000
30
  0.00000000
11
  0.12599365
21
 -0.06095000
31
  0.00000000
0
LINE
8
DC
6
CONTINUOUS
62
7
10
  0.12562679
20
 -0.06090000
30
  0.00000000
11
  0.12597321
21
 -0.06090000
31
  0.00000000
0
LINE
8
DC
6
CONTINUOUS
62
7
10
  0.12566771
20
 -0.06085000
30
  0.00000000
11
  0.12593229
21
 -0.06085000
31
  0.00000000
0
CIRCLE
8
DC
6
CONTINUOUS
62
7
10
  0.12580000
20
 -0.06100000
30
  0.00000000
40
  0.00020000
0
LINE
8
DC
6
CONTINUOUS
62
7
10
  0.12680000
20
 -0.06120000
30
  0.00000000
11
  0.12680000
21
 -0.06120000
31
  0.00000000
0
LINE
8
DC
6
CONTINUOUS
62
7
10
  0.12666771
20
 -0.06115000
30
  0.00000000
11
  0.12693229
21
 -0.06115000
31
  0.00000000
0
LINE
8
DC
6
CONTINUOUS
62
7
10
  0.12662679
20
 -0.06110000
30
  0.00000000
11
  0.12697321
21
 -0.06110000
31
  0.00000000
0
LINE
8
DC
6
CONTINUOUS
62
7
10
  0.12660635
20
 -0.06105000
30
  0.00000000
11
  0.12699365
21
 -0.06105000
31
  0.00000000
0
LINE
8
DC
6
CONTINUOUS
62
7
10
  0.12660000
20
 -0.06100000
30
  0.00000000
11
  0.12700000
21
 -0.06100000
31
  0.00000000
0
LINE
8
DC
6
CONTINUOUS
62
7
10
  0.12660635
20
 -0.06095000
30
  0.00000000
11
  0.12699365
21
 -0.06095000
31
  0.00000000
0
LINE
8
DC
6
CONTINUOUS
62
7
10
  0.12662679
20
 -0.06090000
30
  0.00000000
11
  0.12697321
21
 -0.06090000
31
  0.00000000
0
LINE
8
DC
6
CONTINUOUS
62
7
10
  0.12666771
20
 -0.06085000
30
  0.00000000
11
  0.12693229
21
 -0.06085000
31
  0.00000000
0
CIRCLE
8
DC
6
CONTINUOUS
62
7
10
  0.12680000
20
 -0.06100000
30
  0.00000000
40
  0.00020000
0
LINE
8
DC
6
CONTINUOUS
62
7
10
  0.12780000
20
 -0.06120000
30
  0.00000000
11
  0.12780000
21
 -0.06120000
31
  0.00000000
0
LINE
8
DC
6
CONTINUOUS
62
7
10
  0.12766771
20
 -0.06115000
30
  0.00000000
11
  0.12793229
21
 -0.06115000
31
  0.00000000
0
LINE
8
DC
6
CONTINUOUS
62
7
10
  0.12762679
20
 -0.06110000
30
  0.00000000
11
  0.12797321
21
 -0.06110000
31
  0.00000000
0
LINE
8
DC
6
CONTINUOUS
62
7
10
  0.12760635
20
 -0.06105000
30
  0.00000000
11
  0.12799365
21
 -0.06105000
31
  0.00000000
0
LINE
8
DC
6
CONTINUOUS
62
7
10
  0.12760000
20
 -0.06100000
30
  0.00000000
11
  0.12800000
21
 -0.06100000
31
  0.00000000
0
LINE
8
DC
6
CONTINUOUS
62
7
10
  0.12760635
20
 -0.06095000
30
  0.00000000
11
  0.12799365
21
 -0.06095000
31
  0.00000000
0
LINE
8
DC
6
CONTINUOUS
62
7
10
  0.12762679
20
 -0.06090000
30
  0.00000000
11
  0.12797321
21
 -0.06090000
31
  0.00000000
0
LINE
8
DC
6
CONTINUOUS
62
7
10
  0.12766771
20
 -0.06085000
30
  0.00000000
11
  0.12793229
21
 -0.06085000
31
  0.00000000
0
CIRCLE
8
DC
6
CONTINUOUS
62
7
10
  0.12780000
20
 -0.06100000
30
  0.00000000
40
  0.00020000
0
LINE
8
DC
6
CONTINUOUS
62
7
10
  0.12880000
20
 -0.06120000
30
  0.00000000
11
  0.12880000
21
 -0.06120000
31
  0.00000000
0
LINE
8
DC
6
CONTINUOUS
62
7
10
  0.12866771
20
 -0.06115000
30
  0.00000000
11
  0.12893229
21
 -0.06115000
31
  0.00000000
0
LINE
8
DC
6
CONTINUOUS
62
7
10
  0.12862679
20
 -0.06110000
30
  0.00000000
11
  0.12897321
21
 -0.06110000
31
  0.00000000
0
LINE
8
DC
6
CONTINUOUS
62
7
10
  0.12860635
20
 -0.06105000
30
  0.00000000
11
  0.12899365
21
 -0.06105000
31
  0.00000000
0
LINE
8
DC
6
CONTINUOUS
62
7
10
  0.12860000
20
 -0.06100000
30
  0.00000000
11
  0.12900000
21
 -0.06100000
31
  0.00000000
0
LINE
8
DC
6
CONTINUOUS
62
7
10
  0.12860635
20
 -0.06095000
30
  0.00000000
11
  0.12899365
21
 -0.06095000
31
  0.00000000
0
LINE
8
DC
6
CONTINUOUS
62
7
10
  0.12862679
20
 -0.06090000
30
  0.00000000
11
  0.12897321
21
 -0.06090000
31
  0.00000000
0
LINE
8
DC
6
CONTINUOUS
62
7
10
  0.12866771
20
 -0.06085000
30
  0.00000000
11
  0.12893229
21
 -0.06085000
31
  0.00000000
0
CIRCLE
8
DC
6
CONTINUOUS
62
7
10
  0.12880000
20
 -0.06100000
30
  0.00000000
40
  0.00020000
0
LINE
8
DC
6
CONTINUOUS
62
7
10
  0.12530000
20
 -0.06010000
30
  0.00000000
11
  0.12530000
21
 -0.06010000
31
  0.00000000
0
LINE
8
DC
6
CONTINUOUS
62
7
10
  0.12516771
20
 -0.06005000
30
  0.00000000
11
  0.12543229
21
 -0.06005000
31
  0.00000000
0
LINE
8
DC
6
CONTINUOUS
62
7
10
  0.12512679
20
 -0.06000000
30
  0.00000000
11
  0.12547321
21
 -0.06000000
31
  0.00000000
0
LINE
8
DC
6
CONTINUOUS
62
7
10
  0.12510635
20
 -0.05995000
30
  0.00000000
11
  0.12549365
21
 -0.05995000
31
  0.00000000
0
LINE
8
DC
6
CONTINUOUS
62
7
10
  0.12510000
20
 -0.05990000
30
  0.00000000
11
  0.12550000
21
 -0.05990000
31
  0.00000000
0
LINE
8
DC
6
CONTINUOUS
62
7
10
  0.12510635
20
 -0.05985000
30
  0.00000000
11
  0.12549365
21
 -0.05985000
31
  0.00000000
0
LINE
8
DC
6
CONTINUOUS
62
7
10
  0.12512679
20
 -0.05980000
30
  0.00000000
11
  0.12547321
21
 -0.05980000
31
  0.00000000
0
LINE
8
DC
6
CONTINUOUS
62
7
10
  0.12516771
20
 -0.05975000
30
  0.00000000
11
  0.12543229
21
 -0.05975000
31
  0.00000000
0
CIRCLE
8
DC
6
CONTINUOUS
62
7
10
  0.12530000
20
 -0.05990000
30
  0.00000000
40
  0.00020000
0
LINE
8
DC
6
CONTINUOUS
62
7
10
  0.12630000
20
 -0.06010000
30
  0.00000000
11
  0.12630000
21
 -0.06010000
31
  0.00000000
0
LINE
8
DC
6
CONTINUOUS
62
7
10
  0.12616771
20
 -0.06005000
30
  0.00000000
11
  0.12643229
21
 -0.06005000
31
  0.00000000
0
LINE
8
DC
6
CONTINUOUS
62
7
10
  0.12612679
20
 -0.06000000
30
  0.00000000
11
  0.12647321
21
 -0.06000000
31
  0.00000000
0
LINE
8
DC
6
CONTINUOUS
62
7
10
  0.12610635
20
 -0.05995000
30
  0.00000000
11
  0.12649365
21
 -0.05995000
31
  0.00000000
0
LINE
8
DC
6
CONTINUOUS
62
7
10
  0.12610000
20
 -0.05990000
30
  0.00000000
11
  0.12650000
21
 -0.05990000
31
  0.00000000
0
LINE
8
DC
6
CONTINUOUS
62
7
10
  0.12610635
20
 -0.05985000
30
  0.00000000
11
  0.12649365
21
 -0.05985000
31
  0.00000000
0
LINE
8
DC
6
CONTINUOUS
62
7
10
  0.12612679
20
 -0.05980000
30
  0.00000000
11
  0.12647321
21
 -0.05980000
31
  0.00000000
0
LINE
8
DC
6
CONTINUOUS
62
7
10
  0.12616771
20
 -0.05975000
30
  0.00000000
11
  0.12643229
21
 -0.05975000
31
  0.00000000
0
CIRCLE
8
DC
6
CONTINUOUS
62
7
10
  0.12630000
20
 -0.05990000
30
  0.00000000
40
  0.00020000
0
LINE
8
DC
6
CONTINUOUS
62
7
10
  0.12730000
20
 -0.06010000
30
  0.00000000
11
  0.12730000
21
 -0.06010000
31
  0.00000000
0
LINE
8
DC
6
CONTINUOUS
62
7
10
  0.12716771
20
 -0.06005000
30
  0.00000000
11
  0.12743229
21
 -0.06005000
31
  0.00000000
0
LINE
8
DC
6
CONTINUOUS
62
7
10
  0.12712679
20
 -0.06000000
30
  0.00000000
11
  0.12747321
21
 -0.06000000
31
  0.00000000
0
LINE
8
DC
6
CONTINUOUS
62
7
10
  0.12710635
20
 -0.05995000
30
  0.00000000
11
  0.12749365
21
 -0.05995000
31
  0.00000000
0
LINE
8
DC
6
CONTINUOUS
62
7
10
  0.12710000
20
 -0.05990000
30
  0.00000000
11
  0.12750000
21
 -0.05990000
31
  0.00000000
0
LINE
8
DC
6
CONTINUOUS
62
7
10
  0.12710635
20
 -0.05985000
30
  0.00000000
11
  0.12749365
21
 -0.05985000
31
  0.00000000
0
LINE
8
DC
6
CONTINUOUS
62
7
10
  0.12712679
20
 -0.05980000
30
  0.00000000
11
  0.12747321
21
 -0.05980000
31
  0.00000000
0
LINE
8
DC
6
CONTINUOUS
62
7
10
  0.12716771
20
 -0.05975000
30
  0.00000000
11
  0.12743229
21
 -0.05975000
31
  0.00000000
0
CIRCLE
8
DC
6
CONTINUOUS
62
7
10
  0.12730000
20
 -0.05990000
30
  0.00000000
40
  0.00020000
0
LINE
8
DC
6
CONTINUOUS
62
7
10
  0.12830000
20
 -0.06010000
30
  0.00000000
11
  0.12830000
21
 -0.06010000
31
  0.00000000
0
LINE
8
DC
6
CONTINUOUS
62
7
10
  0.12816771
20
 -0.06005000
30
  0.00000000
11
  0.12843229
21
 -0.06005000
31
  0.00000000
0
LINE
8
DC
6
CONTINUOUS
62
7
10
  0.12812679
20
 -0.06000000
30
  0.00000000
11
  0.12847321
21
 -0.06000000
31
  0.00000000
0
LINE
8
DC
6
CONTINUOUS
62
7
10
  0.12810635
20
 -0.05995000
30
  0.00000000
11
  0.12849365
21
 -0.05995000
31
  0.00000000
0
LINE
8
DC
6
CONTINUOUS
62
7
10
  0.12810000
20
 -0.05990000
30
  0.00000000
11
  0.12850000
21
 -0.05990000
31
  0.00000000
0
LINE
8
DC
6
CONTINUOUS
62
7
10
  0.12810635
20
 -0.05985000
30
  0.00000000
11
  0.12849365
21
 -0.05985000
31
  0.00000000
0
LINE
8
DC
6
CONTINUOUS
62
7
10
  0.12812679
20
 -0.05980000
30
  0.00000000
11
  0.12847321
21
 -0.05980000
31
  0.00000000
0
LINE
8
DC
6
CONTINUOUS
62
7
10
  0.12816771
20
 -0.05975000
30
  0.00000000
11
  0.12843229
21
 -0.05975000
31
  0.00000000
0
CIRCLE
8
DC
6
CONTINUOUS
62
7
10
  0.12830000
20
 -0.05990000
30
  0.00000000
40
  0.00020000
0
LINE
8
DC
6
CONTINUOUS
62
7
10
  0.12930000
20
 -0.06010000
30
  0.00000000
11
  0.12930000
21
 -0.06010000
31
  0.00000000
0
LINE
8
DC
6
CONTINUOUS
62
7
10
  0.12916771
20
 -0.06005000
30
  0.00000000
11
  0.12943229
21
 -0.06005000
31
  0.00000000
0
LINE
8
DC
6
CONTINUOUS
62
7
10
  0.12912679
20
 -0.06000000
30
  0.00000000
11
  0.12947321
21
 -0.06000000
31
  0.00000000
0
LINE
8
DC
6
CONTINUOUS
62
7
10
  0.12910635
20
 -0.05995000
30
  0.00000000
11
  0.12949365
21
 -0.05995000
31
  0.00000000
0
LINE
8
DC
6
CONTINUOUS
62
7
10
  0.12910000
20
 -0.05990000
30
  0.00000000
11
  0.12950000
21
 -0.05990000
31
  0.00000000
0
LINE
8
DC
6
CONTINUOUS
62
7
10
  0.12910635
20
 -0.05985000
30
  0.00000000
11
  0.12949365
21
 -0.05985000
31
  0.00000000
0
LINE
8
DC
6
CONTINUOUS
62
7
10
  0.12912679
20
 -0.05980000
30
  0.00000000
11
  0.12947321
21
 -0.05980000
31
  0.00000000
0
LINE
8
DC
6
CONTINUOUS
62
7
10
  0.12916771
20
 -0.05975000
30
  0.00000000
11
  0.12943229
21
 -0.05975000
31
  0.00000000
0
CIRCLE
8
DC
6
CONTINUOUS
62
7
10
  0.12930000
20
 -0.05990000
30
  0.00000000
40
  0.00020000
0
TEXT
8
DC
62
7
10
  0.12710000
20
 -0.06180000
30
  0.00000000
40
  0.00325000
41
  0.60000000
1
A
50
  0.00000000
72
1
73
3
11
  0.12710000
21
 -0.06180000
31
  0.00000000
0
LINE
8
DC
6
CONTINUOUS
62
7
10
  0.12510000
20
 -0.06740000
30
  0.00000000
11
  0.12810000
21
 -0.06740000
31
  0.00000000
0
LINE
8
DC
6
CONTINUOUS
62
7
10
  0.12610000
20
 -0.06900000
30
  0.00000000
11
  0.12910000
21
 -0.06900000
31
  0.00000000
0
LINE
8
DC
6
CONTINUOUS
62
7
10
  0.12620000
20
 -0.07200000
30
  0.00000000
11
  0.12620000
21
 -0.07200000
31
  0.00000000
0
LINE
8
DC
6
CONTINUOUS
62
7
10
  0.12598206
20
 -0.07195000
30
  0.00000000
11
  0.12641794
21
 -0.07195000
31
  0.00000000
0
LINE
8
DC
6
CONTINUOUS
62
7
10
  0.12590000
20
 -0.07190000
30
  0.00000000
11
  0.12650000
21
 -0.07190000
31
  0.00000000
0
LINE
8
DC
6
CONTINUOUS
62
7
10
  0.12584293
20
 -0.07185000
30
  0.00000000
11
  0.12655707
21
 -0.07185000
31
  0.00000000
0
LINE
8
DC
6
CONTINUOUS
62
7
10
  0.12580000
20
 -0.07180000
30
  0.00000000
11
  0.12660000
21
 -0.07180000
31
  0.00000000
0
LINE
8
DC
6
CONTINUOUS
62
7
10
  0.12576699
20
 -0.07175000
30
  0.00000000
11
  0.12663301
21
 -0.07175000
31
  0.00000000
0
LINE
8
DC
6
CONTINUOUS
62
7
10
  0.12574174
20
 -0.07170000
30
  0.00000000
11
  0.12665826
21
 -0.07170000
31
  0.00000000
0
LINE
8
DC
6
CONTINUOUS
62
7
10
  0.12572303
20
 -0.07165000
30
  0.00000000
11
  0.12667697
21
 -0.07165000
31
  0.00000000
0
LINE
8
DC
6
CONTINUOUS
62
7
10
  0.12571010
20
 -0.07160000
30
  0.00000000
11
  0.12668990
21
 -0.07160000
31
  0.00000000
0
LINE
8
DC
6
CONTINUOUS
62
7
10
  0.12570251
20
 -0.07155000
30
  0.00000000
11
  0.12669749
21
 -0.07155000
31
  0.00000000
0
LINE
8
DC
6
CONTINUOUS
62
7
10
  0.12570000
20
 -0.07150000
30
  0.00000000
11
  0.12670000
21
 -0.07150000
31
  0.00000000
0
LINE
8
DC
6
CONTINUOUS
62
7
10
  0.12570251
20
 -0.07145000
30
  0.00000000
11
  0.12669749
21
 -0.07145000
31
  0.00000000
0
LINE
8
DC
6
CONTINUOUS
62
7
10
  0.12571010
20
 -0.07140000
30
  0.00000000
11
  0.12668990
21
 -0.07140000
31
  0.00000000
0
LINE
8
DC
6
CONTINUOUS
62
7
10
  0.12572303
20
 -0.07135000
30
  0.00000000
11
  0.12667697
21
 -0.07135000
31
  0.00000000
0
LINE
8
DC
6
CONTINUOUS
62
7
10
  0.12574174
20
 -0.07130000
30
  0.00000000
11
  0.12665826
21
 -0.07130000
31
  0.00000000
0
LINE
8
DC
6
CONTINUOUS
62
7
10
  0.12576699
20
 -0.07125000
30
  0.00000000
11
  0.12663301
21
 -0.07125000
31
  0.00000000
0
LINE
8
DC
6
CONTINUOUS
62
7
10
  0.12580000
20
 -0.07120000
30
  0.00000000
11
  0.12660000
21
 -0.07120000
31
  0.00000000
0
LINE
8
DC
6
CONTINUOUS
62
7
10
  0.12584293
20
 -0.07115000
30
  0.00000000
11
  0.12655707
21
 -0.07115000
31
  0.00000000
0
LINE
8
DC
6
CONTINUOUS
62
7
10
  0.12590000
20
 -0.07110000
30
  0.00000000
11
  0.12650000
21
 -0.07110000
31
  0.00000000
0
LINE
8
DC
6
CONTINUOUS
62
7
10
  0.12598206
20
 -0.07105000
30
  0.00000000
11
  0.12641794
21
 -0.07105000
31
  0.00000000
0
CIRCLE
8
DC
6
CONTINUOUS
62
7
10
  0.12620000
20
 -0.07150000
30
  0.00000000
40
  0.00050000
0
LINE
8
DC
6
CONTINUOUS
62
7
10
  0.12780000
20
 -0.07200000
30
  0.00000000
11
  0.12780000
21
 -0.07200000
31
  0.00000000
0
LINE
8
DC
6
CONTINUOUS
62
7
10
  0.12758206
20
 -0.07195000
30
  0.00000000
11
  0.12801794
21
 -0.07195000
31
  0.00000000
0
LINE
8
DC
6
CONTINUOUS
62
7
10
  0.12750000
20
 -0.07190000
30
  0.00000000
11
  0.12810000
21
 -0.07190000
31
  0.00000000
0
LINE
8
DC
6
CONTINUOUS
62
7
10
  0.12744293
20
 -0.07185000
30
  0.00000000
11
  0.12815707
21
 -0.07185000
31
  0.00000000
0
LINE
8
DC
6
CONTINUOUS
62
7
10
  0.12740000
20
 -0.07180000
30
  0.00000000
11
  0.12820000
21
 -0.07180000
31
  0.00000000
0
LINE
8
DC
6
CONTINUOUS
62
7
10
  0.12736699
20
 -0.07175000
30
  0.00000000
11
  0.12823301
21
 -0.07175000
31
  0.00000000
0
LINE
8
DC
6
CONTINUOUS
62
7
10
  0.12734174
20
 -0.07170000
30
  0.00000000
11
  0.12825826
21
 -0.07170000
31
  0.00000000
0
LINE
8
DC
6
CONTINUOUS
62
7
10
  0.12732303
20
 -0.07165000
30
  0.00000000
11
  0.12827697
21
 -0.07165000
31
  0.00000000
0
LINE
8
DC
6
CONTINUOUS
62
7
10
  0.12731010
20
 -0.07160000
30
  0.00000000
11
  0.12828990
21
 -0.07160000
31
  0.00000000
0
LINE
8
DC
6
CONTINUOUS
62
7
10
  0.12730251
20
 -0.07155000
30
  0.00000000
11
  0.12829749
21
 -0.07155000
31
  0.00000000
0
LINE
8
DC
6
CONTINUOUS
62
7
10
  0.12730000
20
 -0.07150000
30
  0.00000000
11
  0.12830000
21
 -0.07150000
31
  0.00000000
0
LINE
8
DC
6
CONTINUOUS
62
7
10
  0.12730251
20
 -0.07145000
30
  0.00000000
11
  0.12829749
21
 -0.07145000
31
  0.00000000
0
LINE
8
DC
6
CONTINUOUS
62
7
10
  0.12731010
20
 -0.07140000
30
  0.00000000
11
  0.12828990
21
 -0.07140000
31
  0.00000000
0
LINE
8
DC
6
CONTINUOUS
62
7
10
  0.12732303
20
 -0.07135000
30
  0.00000000
11
  0.12827697
21
 -0.07135000
31
  0.00000000
0
LINE
8
DC
6
CONTINUOUS
62
7
10
  0.12734174
20
 -0.07130000
30
  0.00000000
11
  0.12825826
21
 -0.07130000
31
  0.00000000
0
LINE
8
DC
6
CONTINUOUS
62
7
10
  0.12736699
20
 -0.07125000
30
  0.00000000
11
  0.12823301
21
 -0.07125000
31
  0.00000000
0
LINE
8
DC
6
CONTINUOUS
62
7
10
  0.12740000
20
 -0.07120000
30
  0.00000000
11
  0.12820000
21
 -0.07120000
31
  0.00000000
0
LINE
8
DC
6
CONTINUOUS
62
7
10
  0.12744293
20
 -0.07115000
30
  0.00000000
11
  0.12815707
21
 -0.07115000
31
  0.00000000
0
LINE
8
DC
6
CONTINUOUS
62
7
10
  0.12750000
20
 -0.07110000
30
  0.00000000
11
  0.12810000
21
 -0.07110000
31
  0.00000000
0
LINE
8
DC
6
CONTINUOUS
62
7
10
  0.12758206
20
 -0.07105000
30
  0.00000000
11
  0.12801794
21
 -0.07105000
31
  0.00000000
0
CIRCLE
8
DC
6
CONTINUOUS
62
7
10
  0.12780000
20
 -0.07150000
30
  0.00000000
40
  0.00050000
0
LINE
8
DC
6
CONTINUOUS
62
7
10
  0.12560000
20
 -0.07200000
30
  0.00000000
11
  0.12860000
21
 -0.07200000
31
  0.00000000
0
LINE
8
DC
6
CONTINUOUS
62
7
10
  0.12480000
20
 -0.07390000
30
  0.00000000
11
  0.12480000
21
 -0.07390000
31
  0.00000000
0
LINE
8
DC
6
CONTINUOUS
62
7
10
  0.12466771
20
 -0.07385000
30
  0.00000000
11
  0.12493229
21
 -0.07385000
31
  0.00000000
0
LINE
8
DC
6
CONTINUOUS
62
7
10
  0.12462679
20
 -0.07380000
30
  0.00000000
11
  0.12497321
21
 -0.07380000
31
  0.00000000
0
LINE
8
DC
6
CONTINUOUS
62
7
10
  0.12460635
20
 -0.07375000
30
  0.00000000
11
  0.12499365
21
 -0.07375000
31
  0.00000000
0
LINE
8
DC
6
CONTINUOUS
62
7
10
  0.12460000
20
 -0.07370000
30
  0.00000000
11
  0.12500000
21
 -0.07370000
31
  0.00000000
0
LINE
8
DC
6
CONTINUOUS
62
7
10
  0.12460635
20
 -0.07365000
30
  0.00000000
11
  0.12499365
21
 -0.07365000
31
  0.00000000
0
LINE
8
DC
6
CONTINUOUS
62
7
10
  0.12462679
20
 -0.07360000
30
  0.00000000
11
  0.12497321
21
 -0.07360000
31
  0.00000000
0
LINE
8
DC
6
CONTINUOUS
62
7
10
  0.12466771
20
 -0.07355000
30
  0.00000000
11
  0.12493229
21
 -0.07355000
31
  0.00000000
0
CIRCLE
8
DC
6
CONTINUOUS
62
7
10
  0.12480000
20
 -0.07370000
30
  0.00000000
40
  0.00020000
0
LINE
8
DC
6
CONTINUOUS
62
7
10
  0.12580000
20
 -0.07390000
30
  0.00000000
11
  0.12580000
21
 -0.07390000
31
  0.00000000
0
LINE
8
DC
6
CONTINUOUS
62
7
10
  0.12566771
20
 -0.07385000
30
  0.00000000
11
  0.12593229
21
 -0.07385000
31
  0.00000000
0
LINE
8
DC
6
CONTINUOUS
62
7
10
  0.12562679
20
 -0.07380000
30
  0.00000000
11
  0.12597321
21
 -0.07380000
31
  0.00000000
0
LINE
8
DC
6
CONTINUOUS
62
7
10
  0.12560635
20
 -0.07375000
30
  0.00000000
11
  0.12599365
21
 -0.07375000
31
  0.00000000
0
LINE
8
DC
6
CONTINUOUS
62
7
10
  0.12560000
20
 -0.07370000
30
  0.00000000
11
  0.12600000
21
 -0.07370000
31
  0.00000000
0
LINE
8
DC
6
CONTINUOUS
62
7
10
  0.12560635
20
 -0.07365000
30
  0.00000000
11
  0.12599365
21
 -0.07365000
31
  0.00000000
0
LINE
8
DC
6
CONTINUOUS
62
7
10
  0.12562679
20
 -0.07360000
30
  0.00000000
11
  0.12597321
21
 -0.07360000
31
  0.00000000
0
LINE
8
DC
6
CONTINUOUS
62
7
10
  0.12566771
20
 -0.07355000
30
  0.00000000
11
  0.12593229
21
 -0.07355000
31
  0.00000000
0
CIRCLE
8
DC
6
CONTINUOUS
62
7
10
  0.12580000
20
 -0.07370000
30
  0.00000000
40
  0.00020000
0
LINE
8
DC
6
CONTINUOUS
62
7
10
  0.12680000
20
 -0.07390000
30
  0.00000000
11
  0.12680000
21
 -0.07390000
31
  0.00000000
0
LINE
8
DC
6
CONTINUOUS
62
7
10
  0.12666771
20
 -0.07385000
30
  0.00000000
11
  0.12693229
21
 -0.07385000
31
  0.00000000
0
LINE
8
DC
6
CONTINUOUS
62
7
10
  0.12662679
20
 -0.07380000
30
  0.00000000
11
  0.12697321
21
 -0.07380000
31
  0.00000000
0
LINE
8
DC
6
CONTINUOUS
62
7
10
  0.12660635
20
 -0.07375000
30
  0.00000000
11
  0.12699365
21
 -0.07375000
31
  0.00000000
0
LINE
8
DC
6
CONTINUOUS
62
7
10
  0.12660000
20
 -0.07370000
30
  0.00000000
11
  0.12700000
21
 -0.07370000
31
  0.00000000
0
LINE
8
DC
6
CONTINUOUS
62
7
10
  0.12660635
20
 -0.07365000
30
  0.00000000
11
  0.12699365
21
 -0.07365000
31
  0.00000000
0
LINE
8
DC
6
CONTINUOUS
62
7
10
  0.12662679
20
 -0.07360000
30
  0.00000000
11
  0.12697321
21
 -0.07360000
31
  0.00000000
0
LINE
8
DC
6
CONTINUOUS
62
7
10
  0.12666771
20
 -0.07355000
30
  0.00000000
11
  0.12693229
21
 -0.07355000
31
  0.00000000
0
CIRCLE
8
DC
6
CONTINUOUS
62
7
10
  0.12680000
20
 -0.07370000
30
  0.00000000
40
  0.00020000
0
LINE
8
DC
6
CONTINUOUS
62
7
10
  0.12780000
20
 -0.07390000
30
  0.00000000
11
  0.12780000
21
 -0.07390000
31
  0.00000000
0
LINE
8
DC
6
CONTINUOUS
62
7
10
  0.12766771
20
 -0.07385000
30
  0.00000000
11
  0.12793229
21
 -0.07385000
31
  0.00000000
0
LINE
8
DC
6
CONTINUOUS
62
7
10
  0.12762679
20
 -0.07380000
30
  0.00000000
11
  0.12797321
21
 -0.07380000
31
  0.00000000
0
LINE
8
DC
6
CONTINUOUS
62
7
10
  0.12760635
20
 -0.07375000
30
  0.00000000
11
  0.12799365
21
 -0.07375000
31
  0.00000000
0
LINE
8
DC
6
CONTINUOUS
62
7
10
  0.12760000
20
 -0.07370000
30
  0.00000000
11
  0.12800000
21
 -0.07370000
31
  0.00000000
0
LINE
8
DC
6
CONTINUOUS
62
7
10
  0.12760635
20
 -0.07365000
30
  0.00000000
11
  0.12799365
21
 -0.07365000
31
  0.00000000
0
LINE
8
DC
6
CONTINUOUS
62
7
10
  0.12762679
20
 -0.07360000
30
  0.00000000
11
  0.12797321
21
 -0.07360000
31
  0.00000000
0
LINE
8
DC
6
CONTINUOUS
62
7
10
  0.12766771
20
 -0.07355000
30
  0.00000000
11
  0.12793229
21
 -0.07355000
31
  0.00000000
0
CIRCLE
8
DC
6
CONTINUOUS
62
7
10
  0.12780000
20
 -0.07370000
30
  0.00000000
40
  0.00020000
0
LINE
8
DC
6
CONTINUOUS
62
7
10
  0.12880000
20
 -0.07390000
30
  0.00000000
11
  0.12880000
21
 -0.07390000
31
  0.00000000
0
LINE
8
DC
6
CONTINUOUS
62
7
10
  0.12866771
20
 -0.07385000
30
  0.00000000
11
  0.12893229
21
 -0.07385000
31
  0.00000000
0
LINE
8
DC
6
CONTINUOUS
62
7
10
  0.12862679
20
 -0.07380000
30
  0.00000000
11
  0.12897321
21
 -0.07380000
31
  0.00000000
0
LINE
8
DC
6
CONTINUOUS
62
7
10
  0.12860635
20
 -0.07375000
30
  0.00000000
11
  0.12899365
21
 -0.07375000
31
  0.00000000
0
LINE
8
DC
6
CONTINUOUS
62
7
10
  0.12860000
20
 -0.07370000
30
  0.00000000
11
  0.12900000
21
 -0.07370000
31
  0.00000000
0
LINE
8
DC
6
CONTINUOUS
62
7
10
  0.12860635
20
 -0.07365000
30
  0.00000000
11
  0.12899365
21
 -0.07365000
31
  0.00000000
0
LINE
8
DC
6
CONTINUOUS
62
7
10
  0.12862679
20
 -0.07360000
30
  0.00000000
11
  0.12897321
21
 -0.07360000
31
  0.00000000
0
LINE
8
DC
6
CONTINUOUS
62
7
10
  0.12866771
20
 -0.07355000
30
  0.00000000
11
  0.12893229
21
 -0.07355000
31
  0.00000000
0
CIRCLE
8
DC
6
CONTINUOUS
62
7
10
  0.12880000
20
 -0.07370000
30
  0.00000000
40
  0.00020000
0
LINE
8
DC
6
CONTINUOUS
62
7
10
  0.12480000
20
 -0.07610000
30
  0.00000000
11
  0.12480000
21
 -0.07610000
31
  0.00000000
0
LINE
8
DC
6
CONTINUOUS
62
7
10
  0.12466771
20
 -0.07605000
30
  0.00000000
11
  0.12493229
21
 -0.07605000
31
  0.00000000
0
LINE
8
DC
6
CONTINUOUS
62
7
10
  0.12462679
20
 -0.07600000
30
  0.00000000
11
  0.12497321
21
 -0.07600000
31
  0.00000000
0
LINE
8
DC
6
CONTINUOUS
62
7
10
  0.12460635
20
 -0.07595000
30
  0.00000000
11
  0.12499365
21
 -0.07595000
31
  0.00000000
0
LINE
8
DC
6
CONTINUOUS
62
7
10
  0.12460000
20
 -0.07590000
30
  0.00000000
11
  0.12500000
21
 -0.07590000
31
  0.00000000
0
LINE
8
DC
6
CONTINUOUS
62
7
10
  0.12460635
20
 -0.07585000
30
  0.00000000
11
  0.12499365
21
 -0.07585000
31
  0.00000000
0
LINE
8
DC
6
CONTINUOUS
62
7
10
  0.12462679
20
 -0.07580000
30
  0.00000000
11
  0.12497321
21
 -0.07580000
31
  0.00000000
0
LINE
8
DC
6
CONTINUOUS
62
7
10
  0.12466771
20
 -0.07575000
30
  0.00000000
11
  0.12493229
21
 -0.07575000
31
  0.00000000
0
CIRCLE
8
DC
6
CONTINUOUS
62
7
10
  0.12480000
20
 -0.07590000
30
  0.00000000
40
  0.00020000
0
LINE
8
DC
6
CONTINUOUS
62
7
10
  0.12580000
20
 -0.07610000
30
  0.00000000
11
  0.12580000
21
 -0.07610000
31
  0.00000000
0
LINE
8
DC
6
CONTINUOUS
62
7
10
  0.12566771
20
 -0.07605000
30
  0.00000000
11
  0.12593229
21
 -0.07605000
31
  0.00000000
0
LINE
8
DC
6
CONTINUOUS
62
7
10
  0.12562679
20
 -0.07600000
30
  0.00000000
11
  0.12597321
21
 -0.07600000
31
  0.00000000
0
LINE
8
DC
6
CONTINUOUS
62
7
10
  0.12560635
20
 -0.07595000
30
  0.00000000
11
  0.12599365
21
 -0.07595000
31
  0.00000000
0
LINE
8
DC
6
CONTINUOUS
62
7
10
  0.12560000
20
 -0.07590000
30
  0.00000000
11
  0.12600000
21
 -0.07590000
31
  0.00000000
0
LINE
8
DC
6
CONTINUOUS
62
7
10
  0.12560635
20
 -0.07585000
30
  0.00000000
11
  0.12599365
21
 -0.07585000
31
  0.00000000
0
LINE
8
DC
6
CONTINUOUS
62
7
10
  0.12562679
20
 -0.07580000
30
  0.00000000
11
  0.12597321
21
 -0.07580000
31
  0.00000000
0
LINE
8
DC
6
CONTINUOUS
62
7
10
  0.12566771
20
 -0.07575000
30
  0.00000000
11
  0.12593229
21
 -0.07575000
31
  0.00000000
0
CIRCLE
8
DC
6
CONTINUOUS
62
7
10
  0.12580000
20
 -0.07590000
30
  0.00000000
40
  0.00020000
0
LINE
8
DC
6
CONTINUOUS
62
7
10
  0.12680000
20
 -0.07610000
30
  0.00000000
11
  0.12680000
21
 -0.07610000
31
  0.00000000
0
LINE
8
DC
6
CONTINUOUS
62
7
10
  0.12666771
20
 -0.07605000
30
  0.00000000
11
  0.12693229
21
 -0.07605000
31
  0.00000000
0
LINE
8
DC
6
CONTINUOUS
62
7
10
  0.12662679
20
 -0.07600000
30
  0.00000000
11
  0.12697321
21
 -0.07600000
31
  0.00000000
0
LINE
8
DC
6
CONTINUOUS
62
7
10
  0.12660635
20
 -0.07595000
30
  0.00000000
11
  0.12699365
21
 -0.07595000
31
  0.00000000
0
LINE
8
DC
6
CONTINUOUS
62
7
10
  0.12660000
20
 -0.07590000
30
  0.00000000
11
  0.12700000
21
 -0.07590000
31
  0.00000000
0
LINE
8
DC
6
CONTINUOUS
62
7
10
  0.12660635
20
 -0.07585000
30
  0.00000000
11
  0.12699365
21
 -0.07585000
31
  0.00000000
0
LINE
8
DC
6
CONTINUOUS
62
7
10
  0.12662679
20
 -0.07580000
30
  0.00000000
11
  0.12697321
21
 -0.07580000
31
  0.00000000
0
LINE
8
DC
6
CONTINUOUS
62
7
10
  0.12666771
20
 -0.07575000
30
  0.00000000
11
  0.12693229
21
 -0.07575000
31
  0.00000000
0
CIRCLE
8
DC
6
CONTINUOUS
62
7
10
  0.12680000
20
 -0.07590000
30
  0.00000000
40
  0.00020000
0
LINE
8
DC
6
CONTINUOUS
62
7
10
  0.12780000
20
 -0.07610000
30
  0.00000000
11
  0.12780000
21
 -0.07610000
31
  0.00000000
0
LINE
8
DC
6
CONTINUOUS
62
7
10
  0.12766771
20
 -0.07605000
30
  0.00000000
11
  0.12793229
21
 -0.07605000
31
  0.00000000
0
LINE
8
DC
6
CONTINUOUS
62
7
10
  0.12762679
20
 -0.07600000
30
  0.00000000
11
  0.12797321
21
 -0.07600000
31
  0.00000000
0
LINE
8
DC
6
CONTINUOUS
62
7
10
  0.12760635
20
 -0.07595000
30
  0.00000000
11
  0.12799365
21
 -0.07595000
31
  0.00000000
0
LINE
8
DC
6
CONTINUOUS
62
7
10
  0.12760000
20
 -0.07590000
30
  0.00000000
11
  0.12800000
21
 -0.07590000
31
  0.00000000
0
LINE
8
DC
6
CONTINUOUS
62
7
10
  0.12760635
20
 -0.07585000
30
  0.00000000
11
  0.12799365
21
 -0.07585000
31
  0.00000000
0
LINE
8
DC
6
CONTINUOUS
62
7
10
  0.12762679
20
 -0.07580000
30
  0.00000000
11
  0.12797321
21
 -0.07580000
31
  0.00000000
0
LINE
8
DC
6
CONTINUOUS
62
7
10
  0.12766771
20
 -0.07575000
30
  0.00000000
11
  0.12793229
21
 -0.07575000
31
  0.00000000
0
CIRCLE
8
DC
6
CONTINUOUS
62
7
10
  0.12780000
20
 -0.07590000
30
  0.00000000
40
  0.00020000
0
LINE
8
DC
6
CONTINUOUS
62
7
10
  0.12880000
20
 -0.07610000
30
  0.00000000
11
  0.12880000
21
 -0.07610000
31
  0.00000000
0
LINE
8
DC
6
CONTINUOUS
62
7
10
  0.12866771
20
 -0.07605000
30
  0.00000000
11
  0.12893229
21
 -0.07605000
31
  0.00000000
0
LINE
8
DC
6
CONTINUOUS
62
7
10
  0.12862679
20
 -0.07600000
30
  0.00000000
11
  0.12897321
21
 -0.07600000
31
  0.00000000
0
LINE
8
DC
6
CONTINUOUS
62
7
10
  0.12860635
20
 -0.07595000
30
  0.00000000
11
  0.12899365
21
 -0.07595000
31
  0.00000000
0
LINE
8
DC
6
CONTINUOUS
62
7
10
  0.12860000
20
 -0.07590000
30
  0.00000000
11
  0.12900000
21
 -0.07590000
31
  0.00000000
0
LINE
8
DC
6
CONTINUOUS
62
7
10
  0.12860635
20
 -0.07585000
30
  0.00000000
11
  0.12899365
21
 -0.07585000
31
  0.00000000
0
LINE
8
DC
6
CONTINUOUS
62
7
10
  0.12862679
20
 -0.07580000
30
  0.00000000
11
  0.12897321
21
 -0.07580000
31
  0.00000000
0
LINE
8
DC
6
CONTINUOUS
62
7
10
  0.12866771
20
 -0.07575000
30
  0.00000000
11
  0.12893229
21
 -0.07575000
31
  0.00000000
0
CIRCLE
8
DC
6
CONTINUOUS
62
7
10
  0.12880000
20
 -0.07590000
30
  0.00000000
40
  0.00020000
0
LINE
8
DC
6
CONTINUOUS
62
7
10
  0.12530000
20
 -0.07500000
30
  0.00000000
11
  0.12530000
21
 -0.07500000
31
  0.00000000
0
LINE
8
DC
6
CONTINUOUS
62
7
10
  0.12516771
20
 -0.07495000
30
  0.00000000
11
  0.12543229
21
 -0.07495000
31
  0.00000000
0
LINE
8
DC
6
CONTINUOUS
62
7
10
  0.12512679
20
 -0.07490000
30
  0.00000000
11
  0.12547321
21
 -0.07490000
31
  0.00000000
0
LINE
8
DC
6
CONTINUOUS
62
7
10
  0.12510635
20
 -0.07485000
30
  0.00000000
11
  0.12549365
21
 -0.07485000
31
  0.00000000
0
LINE
8
DC
6
CONTINUOUS
62
7
10
  0.12510000
20
 -0.07480000
30
  0.00000000
11
  0.12550000
21
 -0.07480000
31
  0.00000000
0
LINE
8
DC
6
CONTINUOUS
62
7
10
  0.12510635
20
 -0.07475000
30
  0.00000000
11
  0.12549365
21
 -0.07475000
31
  0.00000000
0
LINE
8
DC
6
CONTINUOUS
62
7
10
  0.12512679
20
 -0.07470000
30
  0.00000000
11
  0.12547321
21
 -0.07470000
31
  0.00000000
0
LINE
8
DC
6
CONTINUOUS
62
7
10
  0.12516771
20
 -0.07465000
30
  0.00000000
11
  0.12543229
21
 -0.07465000
31
  0.00000000
0
CIRCLE
8
DC
6
CONTINUOUS
62
7
10
  0.12530000
20
 -0.07480000
30
  0.00000000
40
  0.00020000
0
LINE
8
DC
6
CONTINUOUS
62
7
10
  0.12630000
20
 -0.07500000
30
  0.00000000
11
  0.12630000
21
 -0.07500000
31
  0.00000000
0
LINE
8
DC
6
CONTINUOUS
62
7
10
  0.12616771
20
 -0.07495000
30
  0.00000000
11
  0.12643229
21
 -0.07495000
31
  0.00000000
0
LINE
8
DC
6
CONTINUOUS
62
7
10
  0.12612679
20
 -0.07490000
30
  0.00000000
11
  0.12647321
21
 -0.07490000
31
  0.00000000
0
LINE
8
DC
6
CONTINUOUS
62
7
10
  0.12610635
20
 -0.07485000
30
  0.00000000
11
  0.12649365
21
 -0.07485000
31
  0.00000000
0
LINE
8
DC
6
CONTINUOUS
62
7
10
  0.12610000
20
 -0.07480000
30
  0.00000000
11
  0.12650000
21
 -0.07480000
31
  0.00000000
0
LINE
8
DC
6
CONTINUOUS
62
7
10
  0.12610635
20
 -0.07475000
30
  0.00000000
11
  0.12649365
21
 -0.07475000
31
  0.00000000
0
LINE
8
DC
6
CONTINUOUS
62
7
10
  0.12612679
20
 -0.07470000
30
  0.00000000
11
  0.12647321
21
 -0.07470000
31
  0.00000000
0
LINE
8
DC
6
CONTINUOUS
62
7
10
  0.12616771
20
 -0.07465000
30
  0.00000000
11
  0.12643229
21
 -0.07465000
31
  0.00000000
0
CIRCLE
8
DC
6
CONTINUOUS
62
7
10
  0.12630000
20
 -0.07480000
30
  0.00000000
40
  0.00020000
0
LINE
8
DC
6
CONTINUOUS
62
7
10
  0.12730000
20
 -0.07500000
30
  0.00000000
11
  0.12730000
21
 -0.07500000
31
  0.00000000
0
LINE
8
DC
6
CONTINUOUS
62
7
10
  0.12716771
20
 -0.07495000
30
  0.00000000
11
  0.12743229
21
 -0.07495000
31
  0.00000000
0
LINE
8
DC
6
CONTINUOUS
62
7
10
  0.12712679
20
 -0.07490000
30
  0.00000000
11
  0.12747321
21
 -0.07490000
31
  0.00000000
0
LINE
8
DC
6
CONTINUOUS
62
7
10
  0.12710635
20
 -0.07485000
30
  0.00000000
11
  0.12749365
21
 -0.07485000
31
  0.00000000
0
LINE
8
DC
6
CONTINUOUS
62
7
10
  0.12710000
20
 -0.07480000
30
  0.00000000
11
  0.12750000
21
 -0.07480000
31
  0.00000000
0
LINE
8
DC
6
CONTINUOUS
62
7
10
  0.12710635
20
 -0.07475000
30
  0.00000000
11
  0.12749365
21
 -0.07475000
31
  0.00000000
0
LINE
8
DC
6
CONTINUOUS
62
7
10
  0.12712679
20
 -0.07470000
30
  0.00000000
11
  0.12747321
21
 -0.07470000
31
  0.00000000
0
LINE
8
DC
6
CONTINUOUS
62
7
10
  0.12716771
20
 -0.07465000
30
  0.00000000
11
  0.12743229
21
 -0.07465000
31
  0.00000000
0
CIRCLE
8
DC
6
CONTINUOUS
62
7
10
  0.12730000
20
 -0.07480000
30
  0.00000000
40
  0.00020000
0
LINE
8
DC
6
CONTINUOUS
62
7
10
  0.12830000
20
 -0.07500000
30
  0.00000000
11
  0.12830000
21
 -0.07500000
31
  0.00000000
0
LINE
8
DC
6
CONTINUOUS
62
7
10
  0.12816771
20
 -0.07495000
30
  0.00000000
11
  0.12843229
21
 -0.07495000
31
  0.00000000
0
LINE
8
DC
6
CONTINUOUS
62
7
10
  0.12812679
20
 -0.07490000
30
  0.00000000
11
  0.12847321
21
 -0.07490000
31
  0.00000000
0
LINE
8
DC
6
CONTINUOUS
62
7
10
  0.12810635
20
 -0.07485000
30
  0.00000000
11
  0.12849365
21
 -0.07485000
31
  0.00000000
0
LINE
8
DC
6
CONTINUOUS
62
7
10
  0.12810000
20
 -0.07480000
30
  0.00000000
11
  0.12850000
21
 -0.07480000
31
  0.00000000
0
LINE
8
DC
6
CONTINUOUS
62
7
10
  0.12810635
20
 -0.07475000
30
  0.00000000
11
  0.12849365
21
 -0.07475000
31
  0.00000000
0
LINE
8
DC
6
CONTINUOUS
62
7
10
  0.12812679
20
 -0.07470000
30
  0.00000000
11
  0.12847321
21
 -0.07470000
31
  0.00000000
0
LINE
8
DC
6
CONTINUOUS
62
7
10
  0.12816771
20
 -0.07465000
30
  0.00000000
11
  0.12843229
21
 -0.07465000
31
  0.00000000
0
CIRCLE
8
DC
6
CONTINUOUS
62
7
10
  0.12830000
20
 -0.07480000
30
  0.00000000
40
  0.00020000
0
LINE
8
DC
6
CONTINUOUS
62
7
10
  0.12930000
20
 -0.07500000
30
  0.00000000
11
  0.12930000
21
 -0.07500000
31
  0.00000000
0
LINE
8
DC
6
CONTINUOUS
62
7
10
  0.12916771
20
 -0.07495000
30
  0.00000000
11
  0.12943229
21
 -0.07495000
31
  0.00000000
0
LINE
8
DC
6
CONTINUOUS
62
7
10
  0.12912679
20
 -0.07490000
30
  0.00000000
11
  0.12947321
21
 -0.07490000
31
  0.00000000
0
LINE
8
DC
6
CONTINUOUS
62
7
10
  0.12910635
20
 -0.07485000
30
  0.00000000
11
  0.12949365
21
 -0.07485000
31
  0.00000000
0
LINE
8
DC
6
CONTINUOUS
62
7
10
  0.12910000
20
 -0.07480000
30
  0.00000000
11
  0.12950000
21
 -0.07480000
31
  0.00000000
0
LINE
8
DC
6
CONTINUOUS
62
7
10
  0.12910635
20
 -0.07475000
30
  0.00000000
11
  0.12949365
21
 -0.07475000
31
  0.00000000
0
LINE
8
DC
6
CONTINUOUS
62
7
10
  0.12912679
20
 -0.07470000
30
  0.00000000
11
  0.12947321
21
 -0.07470000
31
  0.00000000
0
LINE
8
DC
6
CONTINUOUS
62
7
10
  0.12916771
20
 -0.07465000
30
  0.00000000
11
  0.12943229
21
 -0.07465000
31
  0.00000000
0
CIRCLE
8
DC
6
CONTINUOUS
62
7
10
  0.12930000
20
 -0.07480000
30
  0.00000000
40
  0.00020000
0
TEXT
8
DC
62
7
10
  0.12710000
20
 -0.07670000
30
  0.00000000
40
  0.00325000
41
  0.60000000
1
A
50
  0.00000000
72
1
73
3
11
  0.12710000
21
 -0.07670000
31
  0.00000000
0
LINE
8
DC
6
CONTINUOUS
62
7
10
  0.12510000
20
 -0.08230000
30
  0.00000000
11
  0.12810000
21
 -0.08230000
31
  0.00000000
0
LINE
8
DC
6
CONTINUOUS
62
7
10
  0.11960000
20
 -0.05500000
30
  0.00000000
11
  0.13460000
21
 -0.05500000
31
  0.00000000
0
LINE
8
DC
6
CONTINUOUS
62
7
10
  0.13460000
20
 -0.05500000
30
  0.00000000
11
  0.13560000
21
 -0.06100000
31
  0.00000000
0
LINE
8
DC
6
CONTINUOUS
62
7
10
  0.13560000
20
 -0.06100000
30
  0.00000000
11
  0.17660000
21
 -0.06100000
31
  0.00000000
0
LINE
8
DC
6
CONTINUOUS
62
7
10
  0.11960000
20
 -0.08500000
30
  0.00000000
11
  0.11860000
21
 -0.08500000
31
  0.00000000
0
LINE
8
DC
6
CONTINUOUS
62
7
10
  0.10920000
20
 -0.08500000
30
  0.00000000
11
  0.11860000
21
 -0.08500000
31
  0.00000000
0
TEXT
8
DC
62
7
10
  0.11860000
20
 -0.08450000
30
  0.00000000
40
  0.00250000
41
  0.60000000
1
    2.00m
50
  0.00000000
72
2
73
0
11
  0.11860000
21
 -0.08450000
31
  0.00000000
0
TEXT
8
DC
62
7
10
  0.13660000
20
 -0.06830000
30
  0.00000000
40
  0.00216667
41
  0.60000000
1
Auffüllung, Ton, stark schluffig,
50
  0.00000000
72
0
73
1
11
  0.13660000
21
 -0.06830000
31
  0.00000000
0
TEXT
8
DC
62
7
10
  0.13660000
20
 -0.07140000
30
  0.00000000
40
  0.00216667
41
  0.60000000
1
schwach feinsandig
50
  0.00000000
72
0
73
1
11
  0.13660000
21
 -0.07140000
31
  0.00000000
0
TEXT
8
DC
62
7
10
  0.13660000
20
 -0.07450000
30
  0.00000000
40
  0.00216667
41
  0.60000000
1
steif
50
  0.00000000
72
0
73
1
11
  0.13660000
21
 -0.07450000
31
  0.00000000
0
TEXT
8
DC
62
7
10
  0.13660000
20
 -0.07760000
30
  0.00000000
40
  0.00216667
41
  0.60000000
1
erdfeucht
50
  0.00000000
72
0
73
1
11
  0.13660000
21
 -0.07760000
31
  0.00000000
0
TEXT
8
DC
62
7
10
  0.13660000
20
 -0.08070000
30
  0.00000000
40
  0.00216667
41
  0.60000000
1
braun
50
  0.00000000
72
0
73
1
11
  0.13660000
21
 -0.08070000
31
  0.00000000
0
CIRCLE
8
DC
6
CONTINUOUS
62
7
10
  0.18290000
20
 -0.07300000
30
  0.00000000
40
  0.00530000
0
TEXT
8
DC
62
7
10
  0.17990000
20
 -0.07500000
30
  0.00000000
40
  0.00250000
41
  0.60000000
1
[TL]
50
  0.00000000
72
0
73
1
11
  0.17990000
21
 -0.07500000
31
  0.00000000
0
LINE
8
DC
6
CONTINUOUS
62
7
10
  0.17040000
20
 -0.06990000
30
  0.00000000
11
  0.17660000
21
 -0.06990000
31
  0.00000000
0
LINE
8
DC
6
CONTINUOUS
62
7
10
  0.17660000
20
 -0.06990000
30
  0.00000000
11
  0.17660000
21
 -0.07610000
31
  0.00000000
0
LINE
8
DC
6
CONTINUOUS
62
7
10
  0.17660000
20
 -0.07610000
30
  0.00000000
11
  0.17040000
21
 -0.07610000
31
  0.00000000
0
LINE
8
DC
6
CONTINUOUS
62
7
10
  0.17040000
20
 -0.07610000
30
  0.00000000
11
  0.17040000
21
 -0.06990000
31
  0.00000000
0
TEXT
8
DC
62
7
10
  0.17350000
20
 -0.07500000
30
  0.00000000
40
  0.00250000
41
  0.60000000
1
4
50
  0.00000000
72
1
73
1
11
  0.17350000
21
 -0.07500000
31
  0.00000000
0
LINE
8
DC
6
CONTINUOUS
62
7
10
  0.13120000
20
 -0.08500000
30
  0.00000000
11
  0.13120000
21
 -0.08530000
31
  0.00000000
0
LINE
8
DC
6
CONTINUOUS
62
7
10
  0.13120000
20
 -0.08530000
30
  0.00000000
11
  0.13150000
21
 -0.08560000
31
  0.00000000
0
LINE
8
DC
6
CONTINUOUS
62
7
10
  0.13150000
20
 -0.08560000
30
  0.00000000
11
  0.13180000
21
 -0.08590000
31
  0.00000000
0
LINE
8
DC
6
CONTINUOUS
62
7
10
  0.13180000
20
 -0.08590000
30
  0.00000000
11
  0.13190000
21
 -0.08620000
31
  0.00000000
0
LINE
8
DC
6
CONTINUOUS
62
7
10
  0.13190000
20
 -0.08620000
30
  0.00000000
11
  0.13180000
21
 -0.08650000
31
  0.00000000
0
LINE
8
DC
6
CONTINUOUS
62
7
10
  0.13180000
20
 -0.08650000
30
  0.00000000
11
  0.13150000
21
 -0.08680000
31
  0.00000000
0
LINE
8
DC
6
CONTINUOUS
62
7
10
  0.13150000
20
 -0.08680000
30
  0.00000000
11
  0.13120000
21
 -0.08710000
31
  0.00000000
0
LINE
8
DC
6
CONTINUOUS
62
7
10
  0.13120000
20
 -0.08710000
30
  0.00000000
11
  0.13090000
21
 -0.08740000
31
  0.00000000
0
LINE
8
DC
6
CONTINUOUS
62
7
10
  0.13090000
20
 -0.08740000
30
  0.00000000
11
  0.13060000
21
 -0.08770000
31
  0.00000000
0
LINE
8
DC
6
CONTINUOUS
62
7
10
  0.13060000
20
 -0.08770000
30
  0.00000000
11
  0.13050000
21
 -0.08800000
31
  0.00000000
0
LINE
8
DC
6
CONTINUOUS
62
7
10
  0.13050000
20
 -0.08800000
30
  0.00000000
11
  0.13060000
21
 -0.08830000
31
  0.00000000
0
LINE
8
DC
6
CONTINUOUS
62
7
10
  0.13060000
20
 -0.08830000
30
  0.00000000
11
  0.13090000
21
 -0.08860000
31
  0.00000000
0
LINE
8
DC
6
CONTINUOUS
62
7
10
  0.13090000
20
 -0.08860000
30
  0.00000000
11
  0.13120000
21
 -0.08890000
31
  0.00000000
0
LINE
8
DC
6
CONTINUOUS
62
7
10
  0.13120000
20
 -0.08890000
30
  0.00000000
11
  0.13150000
21
 -0.08920000
31
  0.00000000
0
LINE
8
DC
6
CONTINUOUS
62
7
10
  0.13150000
20
 -0.08920000
30
  0.00000000
11
  0.13180000
21
 -0.08950000
31
  0.00000000
0
LINE
8
DC
6
CONTINUOUS
62
7
10
  0.13180000
20
 -0.08950000
30
  0.00000000
11
  0.13190000
21
 -0.08980000
31
  0.00000000
0
LINE
8
DC
6
CONTINUOUS
62
7
10
  0.13190000
20
 -0.08980000
30
  0.00000000
11
  0.13180000
21
 -0.09010000
31
  0.00000000
0
LINE
8
DC
6
CONTINUOUS
62
7
10
  0.13180000
20
 -0.09010000
30
  0.00000000
11
  0.13150000
21
 -0.09040000
31
  0.00000000
0
LINE
8
DC
6
CONTINUOUS
62
7
10
  0.13150000
20
 -0.09040000
30
  0.00000000
11
  0.13120000
21
 -0.09070000
31
  0.00000000
0
LINE
8
DC
6
CONTINUOUS
62
7
10
  0.13120000
20
 -0.09070000
30
  0.00000000
11
  0.13090000
21
 -0.09100000
31
  0.00000000
0
LINE
8
DC
6
CONTINUOUS
62
7
10
  0.13090000
20
 -0.09100000
30
  0.00000000
11
  0.13060000
21
 -0.09130000
31
  0.00000000
0
LINE
8
DC
6
CONTINUOUS
62
7
10
  0.13060000
20
 -0.09130000
30
  0.00000000
11
  0.13050000
21
 -0.09160000
31
  0.00000000
0
LINE
8
DC
6
CONTINUOUS
62
7
10
  0.13050000
20
 -0.09160000
30
  0.00000000
11
  0.13060000
21
 -0.09190000
31
  0.00000000
0
LINE
8
DC
6
CONTINUOUS
62
7
10
  0.13060000
20
 -0.09190000
30
  0.00000000
11
  0.13090000
21
 -0.09220000
31
  0.00000000
0
LINE
8
DC
6
CONTINUOUS
62
7
10
  0.13090000
20
 -0.09220000
30
  0.00000000
11
  0.13120000
21
 -0.09250000
31
  0.00000000
0
LINE
8
DC
6
CONTINUOUS
62
7
10
  0.13120000
20
 -0.09250000
30
  0.00000000
11
  0.13150000
21
 -0.09280000
31
  0.00000000
0
LINE
8
DC
6
CONTINUOUS
62
7
10
  0.13150000
20
 -0.09280000
30
  0.00000000
11
  0.13180000
21
 -0.09310000
31
  0.00000000
0
LINE
8
DC
6
CONTINUOUS
62
7
10
  0.13180000
20
 -0.09310000
30
  0.00000000
11
  0.13190000
21
 -0.09340000
31
  0.00000000
0
LINE
8
DC
6
CONTINUOUS
62
7
10
  0.13190000
20
 -0.09340000
30
  0.00000000
11
  0.13180000
21
 -0.09370000
31
  0.00000000
0
LINE
8
DC
6
CONTINUOUS
62
7
10
  0.13180000
20
 -0.09370000
30
  0.00000000
11
  0.13150000
21
 -0.09400000
31
  0.00000000
0
LINE
8
DC
6
CONTINUOUS
62
7
10
  0.13150000
20
 -0.09400000
30
  0.00000000
11
  0.13120000
21
 -0.09430000
31
  0.00000000
0
LINE
8
DC
6
CONTINUOUS
62
7
10
  0.13120000
20
 -0.09430000
30
  0.00000000
11
  0.13090000
21
 -0.09460000
31
  0.00000000
0
LINE
8
DC
6
CONTINUOUS
62
7
10
  0.13090000
20
 -0.09460000
30
  0.00000000
11
  0.13060000
21
 -0.09490000
31
  0.00000000
0
LINE
8
DC
6
CONTINUOUS
62
7
10
  0.13060000
20
 -0.09490000
30
  0.00000000
11
  0.13050000
21
 -0.09520000
31
  0.00000000
0
LINE
8
DC
6
CONTINUOUS
62
7
10
  0.13050000
20
 -0.09520000
30
  0.00000000
11
  0.13060000
21
 -0.09550000
31
  0.00000000
0
LINE
8
DC
6
CONTINUOUS
62
7
10
  0.13060000
20
 -0.09550000
30
  0.00000000
11
  0.13090000
21
 -0.09580000
31
  0.00000000
0
LINE
8
DC
6
CONTINUOUS
62
7
10
  0.13090000
20
 -0.09580000
30
  0.00000000
11
  0.13120000
21
 -0.09610000
31
  0.00000000
0
LINE
8
DC
6
CONTINUOUS
62
7
10
  0.13120000
20
 -0.09610000
30
  0.00000000
11
  0.13150000
21
 -0.09640000
31
  0.00000000
0
LINE
8
DC
6
CONTINUOUS
62
7
10
  0.13150000
20
 -0.09640000
30
  0.00000000
11
  0.13180000
21
 -0.09670000
31
  0.00000000
0
LINE
8
DC
6
CONTINUOUS
62
7
10
  0.13180000
20
 -0.09670000
30
  0.00000000
11
  0.13190000
21
 -0.09700000
31
  0.00000000
0
LINE
8
DC
6
CONTINUOUS
62
7
10
  0.13190000
20
 -0.09700000
30
  0.00000000
11
  0.13180000
21
 -0.09730000
31
  0.00000000
0
LINE
8
DC
6
CONTINUOUS
62
7
10
  0.13180000
20
 -0.09730000
30
  0.00000000
11
  0.13150000
21
 -0.09760000
31
  0.00000000
0
LINE
8
DC
6
CONTINUOUS
62
7
10
  0.13150000
20
 -0.09760000
30
  0.00000000
11
  0.13120000
21
 -0.09790000
31
  0.00000000
0
LINE
8
DC
6
CONTINUOUS
62
7
10
  0.13120000
20
 -0.09790000
30
  0.00000000
11
  0.13090000
21
 -0.09820000
31
  0.00000000
0
LINE
8
DC
6
CONTINUOUS
62
7
10
  0.13090000
20
 -0.09820000
30
  0.00000000
11
  0.13060000
21
 -0.09850000
31
  0.00000000
0
LINE
8
DC
6
CONTINUOUS
62
7
10
  0.13060000
20
 -0.09850000
30
  0.00000000
11
  0.13050000
21
 -0.09880000
31
  0.00000000
0
LINE
8
DC
6
CONTINUOUS
62
7
10
  0.13050000
20
 -0.09880000
30
  0.00000000
11
  0.13060000
21
 -0.09910000
31
  0.00000000
0
LINE
8
DC
6
CONTINUOUS
62
7
10
  0.13060000
20
 -0.09910000
30
  0.00000000
11
  0.13090000
21
 -0.09940000
31
  0.00000000
0
LINE
8
DC
6
CONTINUOUS
62
7
10
  0.13090000
20
 -0.09940000
30
  0.00000000
11
  0.13120000
21
 -0.09970000
31
  0.00000000
0
LINE
8
DC
6
CONTINUOUS
62
7
10
  0.13120000
20
 -0.09970000
30
  0.00000000
11
  0.13150000
21
 -0.10000000
31
  0.00000000
0
LINE
8
DC
6
CONTINUOUS
62
7
10
  0.13150000
20
 -0.10000000
30
  0.00000000
11
  0.13180000
21
 -0.10030000
31
  0.00000000
0
LINE
8
DC
6
CONTINUOUS
62
7
10
  0.13180000
20
 -0.10030000
30
  0.00000000
11
  0.13190000
21
 -0.10060000
31
  0.00000000
0
LINE
8
DC
6
CONTINUOUS
62
7
10
  0.13190000
20
 -0.10060000
30
  0.00000000
11
  0.13180000
21
 -0.10090000
31
  0.00000000
0
LINE
8
DC
6
CONTINUOUS
62
7
10
  0.13180000
20
 -0.10090000
30
  0.00000000
11
  0.13150000
21
 -0.10120000
31
  0.00000000
0
LINE
8
DC
6
CONTINUOUS
62
7
10
  0.13150000
20
 -0.10120000
30
  0.00000000
11
  0.13120000
21
 -0.10150000
31
  0.00000000
0
LINE
8
DC
6
CONTINUOUS
62
7
10
  0.13120000
20
 -0.10150000
30
  0.00000000
11
  0.13090000
21
 -0.10180000
31
  0.00000000
0
LINE
8
DC
6
CONTINUOUS
62
7
10
  0.13090000
20
 -0.10180000
30
  0.00000000
11
  0.13060000
21
 -0.10210000
31
  0.00000000
0
LINE
8
DC
6
CONTINUOUS
62
7
10
  0.13060000
20
 -0.10210000
30
  0.00000000
11
  0.13050000
21
 -0.10240000
31
  0.00000000
0
LINE
8
DC
6
CONTINUOUS
62
7
10
  0.13050000
20
 -0.10240000
30
  0.00000000
11
  0.13060000
21
 -0.10270000
31
  0.00000000
0
LINE
8
DC
6
CONTINUOUS
62
7
10
  0.13060000
20
 -0.10270000
30
  0.00000000
11
  0.13090000
21
 -0.10300000
31
  0.00000000
0
LINE
8
DC
6
CONTINUOUS
62
7
10
  0.13090000
20
 -0.10300000
30
  0.00000000
11
  0.13120000
21
 -0.10330000
31
  0.00000000
0
LINE
8
DC
6
CONTINUOUS
62
7
10
  0.13120000
20
 -0.10330000
30
  0.00000000
11
  0.13150000
21
 -0.10360000
31
  0.00000000
0
LINE
8
DC
6
CONTINUOUS
62
7
10
  0.13150000
20
 -0.10360000
30
  0.00000000
11
  0.13180000
21
 -0.10390000
31
  0.00000000
0
LINE
8
DC
6
CONTINUOUS
62
7
10
  0.13180000
20
 -0.10390000
30
  0.00000000
11
  0.13190000
21
 -0.10420000
31
  0.00000000
0
LINE
8
DC
6
CONTINUOUS
62
7
10
  0.13190000
20
 -0.10420000
30
  0.00000000
11
  0.13180000
21
 -0.10450000
31
  0.00000000
0
LINE
8
DC
6
CONTINUOUS
62
7
10
  0.13180000
20
 -0.10450000
30
  0.00000000
11
  0.13150000
21
 -0.10480000
31
  0.00000000
0
LINE
8
DC
6
CONTINUOUS
62
7
10
  0.13150000
20
 -0.10480000
30
  0.00000000
11
  0.13120000
21
 -0.10510000
31
  0.00000000
0
LINE
8
DC
6
CONTINUOUS
62
7
10
  0.13120000
20
 -0.10510000
30
  0.00000000
11
  0.13090000
21
 -0.10540000
31
  0.00000000
0
LINE
8
DC
6
CONTINUOUS
62
7
10
  0.13090000
20
 -0.10540000
30
  0.00000000
11
  0.13060000
21
 -0.10570000
31
  0.00000000
0
LINE
8
DC
6
CONTINUOUS
62
7
10
  0.13060000
20
 -0.10570000
30
  0.00000000
11
  0.13050000
21
 -0.10600000
31
  0.00000000
0
LINE
8
DC
6
CONTINUOUS
62
7
10
  0.13050000
20
 -0.10600000
30
  0.00000000
11
  0.13060000
21
 -0.10630000
31
  0.00000000
0
LINE
8
DC
6
CONTINUOUS
62
7
10
  0.13060000
20
 -0.10630000
30
  0.00000000
11
  0.13090000
21
 -0.10660000
31
  0.00000000
0
LINE
8
DC
6
CONTINUOUS
62
7
10
  0.13090000
20
 -0.10660000
30
  0.00000000
11
  0.13120000
21
 -0.10690000
31
  0.00000000
0
LINE
8
DC
6
CONTINUOUS
62
7
10
  0.13120000
20
 -0.10690000
30
  0.00000000
11
  0.13150000
21
 -0.10720000
31
  0.00000000
0
LINE
8
DC
6
CONTINUOUS
62
7
10
  0.13150000
20
 -0.10720000
30
  0.00000000
11
  0.13180000
21
 -0.10750000
31
  0.00000000
0
LINE
8
DC
6
CONTINUOUS
62
7
10
  0.13180000
20
 -0.10750000
30
  0.00000000
11
  0.13190000
21
 -0.10780000
31
  0.00000000
0
LINE
8
DC
6
CONTINUOUS
62
7
10
  0.13190000
20
 -0.10780000
30
  0.00000000
11
  0.13180000
21
 -0.10810000
31
  0.00000000
0
LINE
8
DC
6
CONTINUOUS
62
7
10
  0.13180000
20
 -0.10810000
30
  0.00000000
11
  0.13150000
21
 -0.10840000
31
  0.00000000
0
LINE
8
DC
6
CONTINUOUS
62
7
10
  0.13150000
20
 -0.10840000
30
  0.00000000
11
  0.13120000
21
 -0.10870000
31
  0.00000000
0
LINE
8
DC
6
CONTINUOUS
62
7
10
  0.13120000
20
 -0.10870000
30
  0.00000000
11
  0.13090000
21
 -0.10900000
31
  0.00000000
0
LINE
8
DC
6
CONTINUOUS
62
7
10
  0.13090000
20
 -0.10900000
30
  0.00000000
11
  0.13060000
21
 -0.10930000
31
  0.00000000
0
LINE
8
DC
6
CONTINUOUS
62
7
10
  0.13060000
20
 -0.10930000
30
  0.00000000
11
  0.13050000
21
 -0.10960000
31
  0.00000000
0
LINE
8
DC
6
CONTINUOUS
62
7
10
  0.13050000
20
 -0.10960000
30
  0.00000000
11
  0.13060000
21
 -0.10990000
31
  0.00000000
0
LINE
8
DC
6
CONTINUOUS
62
7
10
  0.13060000
20
 -0.10990000
30
  0.00000000
11
  0.13090000
21
 -0.11020000
31
  0.00000000
0
LINE
8
DC
6
CONTINUOUS
62
7
10
  0.13090000
20
 -0.11020000
30
  0.00000000
11
  0.13120000
21
 -0.11050000
31
  0.00000000
0
LINE
8
DC
6
CONTINUOUS
62
7
10
  0.13120000
20
 -0.11050000
30
  0.00000000
11
  0.13150000
21
 -0.11080000
31
  0.00000000
0
LINE
8
DC
6
CONTINUOUS
62
7
10
  0.13150000
20
 -0.11080000
30
  0.00000000
11
  0.13180000
21
 -0.11110000
31
  0.00000000
0
LINE
8
DC
6
CONTINUOUS
62
7
10
  0.13180000
20
 -0.11110000
30
  0.00000000
11
  0.13190000
21
 -0.11140000
31
  0.00000000
0
LINE
8
DC
6
CONTINUOUS
62
7
10
  0.13190000
20
 -0.11140000
30
  0.00000000
11
  0.13180000
21
 -0.11170000
31
  0.00000000
0
LINE
8
DC
6
CONTINUOUS
62
7
10
  0.13180000
20
 -0.11170000
30
  0.00000000
11
  0.13150000
21
 -0.11200000
31
  0.00000000
0
LINE
8
DC
6
CONTINUOUS
62
7
10
  0.13150000
20
 -0.11200000
30
  0.00000000
11
  0.13120000
21
 -0.11230000
31
  0.00000000
0
LINE
8
DC
6
CONTINUOUS
62
7
10
  0.13120000
20
 -0.11230000
30
  0.00000000
11
  0.13090000
21
 -0.11260000
31
  0.00000000
0
LINE
8
DC
6
CONTINUOUS
62
7
10
  0.13090000
20
 -0.11260000
30
  0.00000000
11
  0.13060000
21
 -0.11290000
31
  0.00000000
0
LINE
8
DC
6
CONTINUOUS
62
7
10
  0.13060000
20
 -0.11290000
30
  0.00000000
11
  0.13050000
21
 -0.11320000
31
  0.00000000
0
LINE
8
DC
6
CONTINUOUS
62
7
10
  0.13050000
20
 -0.11320000
30
  0.00000000
11
  0.13060000
21
 -0.11350000
31
  0.00000000
0
LINE
8
DC
6
CONTINUOUS
62
7
10
  0.13060000
20
 -0.11350000
30
  0.00000000
11
  0.13090000
21
 -0.11380000
31
  0.00000000
0
LINE
8
DC
6
CONTINUOUS
62
7
10
  0.13090000
20
 -0.11380000
30
  0.00000000
11
  0.13120000
21
 -0.11410000
31
  0.00000000
0
LINE
8
DC
6
CONTINUOUS
62
7
10
  0.13120000
20
 -0.11410000
30
  0.00000000
11
  0.13150000
21
 -0.11440000
31
  0.00000000
0
LINE
8
DC
6
CONTINUOUS
62
7
10
  0.13150000
20
 -0.11440000
30
  0.00000000
11
  0.13180000
21
 -0.11470000
31
  0.00000000
0
LINE
8
DC
6
CONTINUOUS
62
7
10
  0.13180000
20
 -0.11470000
30
  0.00000000
11
  0.13190000
21
 -0.11500000
31
  0.00000000
0
LINE
8
DC
6
CONTINUOUS
62
7
10
  0.13190000
20
 -0.11500000
30
  0.00000000
11
  0.13180000
21
 -0.11530000
31
  0.00000000
0
LINE
8
DC
6
CONTINUOUS
62
7
10
  0.13180000
20
 -0.11530000
30
  0.00000000
11
  0.13150000
21
 -0.11560000
31
  0.00000000
0
LINE
8
DC
6
CONTINUOUS
62
7
10
  0.13150000
20
 -0.11560000
30
  0.00000000
11
  0.13120000
21
 -0.11590000
31
  0.00000000
0
LINE
8
DC
6
CONTINUOUS
62
7
10
  0.13120000
20
 -0.11590000
30
  0.00000000
11
  0.13090000
21
 -0.11620000
31
  0.00000000
0
LINE
8
DC
6
CONTINUOUS
62
7
10
  0.13090000
20
 -0.11620000
30
  0.00000000
11
  0.13060000
21
 -0.11650000
31
  0.00000000
0
LINE
8
DC
6
CONTINUOUS
62
7
10
  0.13060000
20
 -0.11650000
30
  0.00000000
11
  0.13050000
21
 -0.11680000
31
  0.00000000
0
LINE
8
DC
6
CONTINUOUS
62
7
10
  0.13050000
20
 -0.11680000
30
  0.00000000
11
  0.13060000
21
 -0.11710000
31
  0.00000000
0
LINE
8
DC
6
CONTINUOUS
62
7
10
  0.13060000
20
 -0.11710000
30
  0.00000000
11
  0.13090000
21
 -0.11740000
31
  0.00000000
0
LINE
8
DC
6
CONTINUOUS
62
7
10
  0.13090000
20
 -0.11740000
30
  0.00000000
11
  0.13120000
21
 -0.11770000
31
  0.00000000
0
LINE
8
DC
6
CONTINUOUS
62
7
10
  0.13120000
20
 -0.11770000
30
  0.00000000
11
  0.13150000
21
 -0.11800000
31
  0.00000000
0
LINE
8
DC
6
CONTINUOUS
62
7
10
  0.13150000
20
 -0.11800000
30
  0.00000000
11
  0.13180000
21
 -0.11830000
31
  0.00000000
0
LINE
8
DC
6
CONTINUOUS
62
7
10
  0.13180000
20
 -0.11830000
30
  0.00000000
11
  0.13190000
21
 -0.11860000
31
  0.00000000
0
LINE
8
DC
6
CONTINUOUS
62
7
10
  0.13190000
20
 -0.11860000
30
  0.00000000
11
  0.13180000
21
 -0.11890000
31
  0.00000000
0
LINE
8
DC
6
CONTINUOUS
62
7
10
  0.13180000
20
 -0.11890000
30
  0.00000000
11
  0.13150000
21
 -0.11920000
31
  0.00000000
0
LINE
8
DC
6
CONTINUOUS
62
7
10
  0.13150000
20
 -0.11920000
30
  0.00000000
11
  0.13120000
21
 -0.11950000
31
  0.00000000
0
LINE
8
DC
6
CONTINUOUS
62
7
10
  0.13120000
20
 -0.11950000
30
  0.00000000
11
  0.13090000
21
 -0.11980000
31
  0.00000000
0
LINE
8
DC
6
CONTINUOUS
62
7
10
  0.13090000
20
 -0.11980000
30
  0.00000000
11
  0.13060000
21
 -0.12010000
31
  0.00000000
0
LINE
8
DC
6
CONTINUOUS
62
7
10
  0.13060000
20
 -0.12010000
30
  0.00000000
11
  0.13050000
21
 -0.12040000
31
  0.00000000
0
LINE
8
DC
6
CONTINUOUS
62
7
10
  0.13050000
20
 -0.12040000
30
  0.00000000
11
  0.13060000
21
 -0.12070000
31
  0.00000000
0
LINE
8
DC
6
CONTINUOUS
62
7
10
  0.13060000
20
 -0.12070000
30
  0.00000000
11
  0.13090000
21
 -0.12100000
31
  0.00000000
0
LINE
8
DC
6
CONTINUOUS
62
7
10
  0.13090000
20
 -0.12100000
30
  0.00000000
11
  0.13120000
21
 -0.12130000
31
  0.00000000
0
LINE
8
DC
6
CONTINUOUS
62
7
10
  0.13120000
20
 -0.12130000
30
  0.00000000
11
  0.13150000
21
 -0.12160000
31
  0.00000000
0
LINE
8
DC
6
CONTINUOUS
62
7
10
  0.13150000
20
 -0.12160000
30
  0.00000000
11
  0.13180000
21
 -0.12190000
31
  0.00000000
0
LINE
8
DC
6
CONTINUOUS
62
7
10
  0.13180000
20
 -0.12190000
30
  0.00000000
11
  0.13190000
21
 -0.12220000
31
  0.00000000
0
LINE
8
DC
6
CONTINUOUS
62
7
10
  0.13190000
20
 -0.12220000
30
  0.00000000
11
  0.13180000
21
 -0.12250000
31
  0.00000000
0
LINE
8
DC
6
CONTINUOUS
62
7
10
  0.13180000
20
 -0.12250000
30
  0.00000000
11
  0.13150000
21
 -0.12280000
31
  0.00000000
0
LINE
8
DC
6
CONTINUOUS
62
7
10
  0.13150000
20
 -0.12280000
30
  0.00000000
11
  0.13120000
21
 -0.12310000
31
  0.00000000
0
LINE
8
DC
6
CONTINUOUS
62
7
10
  0.13120000
20
 -0.12310000
30
  0.00000000
11
  0.13090000
21
 -0.12340000
31
  0.00000000
0
LINE
8
DC
6
CONTINUOUS
62
7
10
  0.13090000
20
 -0.12340000
30
  0.00000000
11
  0.13060000
21
 -0.12370000
31
  0.00000000
0
LINE
8
DC
6
CONTINUOUS
62
7
10
  0.13060000
20
 -0.12370000
30
  0.00000000
11
  0.13050000
21
 -0.12400000
31
  0.00000000
0
LINE
8
DC
6
CONTINUOUS
62
7
10
  0.13050000
20
 -0.12400000
30
  0.00000000
11
  0.13060000
21
 -0.12430000
31
  0.00000000
0
LINE
8
DC
6
CONTINUOUS
62
7
10
  0.13060000
20
 -0.12430000
30
  0.00000000
11
  0.13090000
21
 -0.12460000
31
  0.00000000
0
LINE
8
DC
6
CONTINUOUS
62
7
10
  0.13090000
20
 -0.12460000
30
  0.00000000
11
  0.13120000
21
 -0.12490000
31
  0.00000000
0
LINE
8
DC
6
CONTINUOUS
62
7
10
  0.13120000
20
 -0.12490000
30
  0.00000000
11
  0.13150000
21
 -0.12500000
31
  0.00000000
0
LINE
8
DC
6
GESTRICHELT
62
7
10
  0.13280000
20
 -0.08500000
30
  0.00000000
11
  0.13280000
21
 -0.12500000
31
  0.00000000
0
SOLID
8
DC
62
255
10
  0.11960000
20
 -0.08500000
30
  0.00000000
11
  0.12470000
21
 -0.08500000
31
  0.00000000
12
  0.11960000
22
 -0.12510000
32
  0.00000000
13
  0.12470000
23
 -0.12510000
33
  0.00000000
0
LINE
8
DC
6
CONTINUOUS
62
7
10
  0.11960000
20
 -0.08500000
30
  0.00000000
11
  0.12470000
21
 -0.08500000
31
  0.00000000
0
LINE
8
DC
6
CONTINUOUS
62
7
10
  0.12470000
20
 -0.08500000
30
  0.00000000
11
  0.12470000
21
 -0.12510000
31
  0.00000000
0
LINE
8
DC
6
CONTINUOUS
62
7
10
  0.12470000
20
 -0.12510000
30
  0.00000000
11
  0.11960000
21
 -0.12510000
31
  0.00000000
0
LINE
8
DC
6
CONTINUOUS
62
7
10
  0.11960000
20
 -0.12510000
30
  0.00000000
11
  0.11960000
21
 -0.08500000
31
  0.00000000
0
SOLID
8
DC
62
200
10
  0.12470000
20
 -0.08500000
30
  0.00000000
11
  0.12970000
21
 -0.08500000
31
  0.00000000
12
  0.12470000
22
 -0.12510000
32
  0.00000000
13
  0.12970000
23
 -0.12510000
33
  0.00000000
0
LINE
8
DC
6
CONTINUOUS
62
7
10
  0.12470000
20
 -0.08500000
30
  0.00000000
11
  0.12970000
21
 -0.08500000
31
  0.00000000
0
LINE
8
DC
6
CONTINUOUS
62
7
10
  0.12970000
20
 -0.08500000
30
  0.00000000
11
  0.12970000
21
 -0.12510000
31
  0.00000000
0
LINE
8
DC
6
CONTINUOUS
62
7
10
  0.12970000
20
 -0.12510000
30
  0.00000000
11
  0.12470000
21
 -0.12510000
31
  0.00000000
0
LINE
8
DC
6
CONTINUOUS
62
7
10
  0.12470000
20
 -0.12510000
30
  0.00000000
11
  0.12470000
21
 -0.08500000
31
  0.00000000
0
TEXT
8
DC
62
7
10
  0.12210000
20
 -0.08520000
30
  0.00000000
40
  0.00325000
41
  0.60000000
1
A
50
  0.00000000
72
1
73
3
11
  0.12210000
21
 -0.08520000
31
  0.00000000
0
LINE
8
DC
6
CONTINUOUS
62
7
10
  0.12010000
20
 -0.09080000
30
  0.00000000
11
  0.12310000
21
 -0.09080000
31
  0.00000000
0
LINE
8
DC
6
CONTINUOUS
62
7
10
  0.12110000
20
 -0.09240000
30
  0.00000000
11
  0.12410000
21
 -0.09240000
31
  0.00000000
0
TEXT
8
DC
62
7
10
  0.12210000
20
 -0.09350000
30
  0.00000000
40
  0.00325000
41
  0.60000000
1
A
50
  0.00000000
72
1
73
3
11
  0.12210000
21
 -0.09350000
31
  0.00000000
0
LINE
8
DC
6
CONTINUOUS
62
7
10
  0.12010000
20
 -0.09910000
30
  0.00000000
11
  0.12310000
21
 -0.09910000
31
  0.00000000
0
LINE
8
DC
6
CONTINUOUS
62
7
10
  0.12110000
20
 -0.10070000
30
  0.00000000
11
  0.12410000
21
 -0.10070000
31
  0.00000000
0
TEXT
8
DC
62
7
10
  0.12210000
20
 -0.10180000
30
  0.00000000
40
  0.00325000
41
  0.60000000
1
A
50
  0.00000000
72
1
73
3
11
  0.12210000
21
 -0.10180000
31
  0.00000000
0
LINE
8
DC
6
CONTINUOUS
62
7
10
  0.12010000
20
 -0.10740000
30
  0.00000000
11
  0.12310000
21
 -0.10740000
31
  0.00000000
0
LINE
8
DC
6
CONTINUOUS
62
7
10
  0.12110000
20
 -0.10900000
30
  0.00000000
11
  0.12410000
21
 -0.10900000
31
  0.00000000
0
TEXT
8
DC
62
7
10
  0.12210000
20
 -0.11010000
30
  0.00000000
40
  0.00325000
41
  0.60000000
1
A
50
  0.00000000
72
1
73
3
11
  0.12210000
21
 -0.11010000
31
  0.00000000
0
LINE
8
DC
6
CONTINUOUS
62
7
10
  0.12010000
20
 -0.11570000
30
  0.00000000
11
  0.12310000
21
 -0.11570000
31
  0.00000000
0
LINE
8
DC
6
CONTINUOUS
62
7
10
  0.12110000
20
 -0.11730000
30
  0.00000000
11
  0.12410000
21
 -0.11730000
31
  0.00000000
0
TEXT
8
DC
62
7
10
  0.12210000
20
 -0.11840000
30
  0.00000000
40
  0.00325000
41
  0.60000000
1
A
50
  0.00000000
72
1
73
3
11
  0.12210000
21
 -0.11840000
31
  0.00000000
0
LINE
8
DC
6
CONTINUOUS
62
7
10
  0.12620000
20
 -0.08710000
30
  0.00000000
11
  0.12620000
21
 -0.08710000
31
  0.00000000
0
LINE
8
DC
6
CONTINUOUS
62
7
10
  0.12598206
20
 -0.08705000
30
  0.00000000
11
  0.12641794
21
 -0.08705000
31
  0.00000000
0
LINE
8
DC
6
CONTINUOUS
62
7
10
  0.12590000
20
 -0.08700000
30
  0.00000000
11
  0.12650000
21
 -0.08700000
31
  0.00000000
0
LINE
8
DC
6
CONTINUOUS
62
7
10
  0.12584293
20
 -0.08695000
30
  0.00000000
11
  0.12655707
21
 -0.08695000
31
  0.00000000
0
LINE
8
DC
6
CONTINUOUS
62
7
10
  0.12580000
20
 -0.08690000
30
  0.00000000
11
  0.12660000
21
 -0.08690000
31
  0.00000000
0
LINE
8
DC
6
CONTINUOUS
62
7
10
  0.12576699
20
 -0.08685000
30
  0.00000000
11
  0.12663301
21
 -0.08685000
31
  0.00000000
0
LINE
8
DC
6
CONTINUOUS
62
7
10
  0.12574174
20
 -0.08680000
30
  0.00000000
11
  0.12665826
21
 -0.08680000
31
  0.00000000
0
LINE
8
DC
6
CONTINUOUS
62
7
10
  0.12572303
20
 -0.08675000
30
  0.00000000
11
  0.12667697
21
 -0.08675000
31
  0.00000000
0
LINE
8
DC
6
CONTINUOUS
62
7
10
  0.12571010
20
 -0.08670000
30
  0.00000000
11
  0.12668990
21
 -0.08670000
31
  0.00000000
0
LINE
8
DC
6
CONTINUOUS
62
7
10
  0.12570251
20
 -0.08665000
30
  0.00000000
11
  0.12669749
21
 -0.08665000
31
  0.00000000
0
LINE
8
DC
6
CONTINUOUS
62
7
10
  0.12570000
20
 -0.08660000
30
  0.00000000
11
  0.12670000
21
 -0.08660000
31
  0.00000000
0
LINE
8
DC
6
CONTINUOUS
62
7
10
  0.12570251
20
 -0.08655000
30
  0.00000000
11
  0.12669749
21
 -0.08655000
31
  0.00000000
0
LINE
8
DC
6
CONTINUOUS
62
7
10
  0.12571010
20
 -0.08650000
30
  0.00000000
11
  0.12668990
21
 -0.08650000
31
  0.00000000
0
LINE
8
DC
6
CONTINUOUS
62
7
10
  0.12572303
20
 -0.08645000
30
  0.00000000
11
  0.12667697
21
 -0.08645000
31
  0.00000000
0
LINE
8
DC
6
CONTINUOUS
62
7
10
  0.12574174
20
 -0.08640000
30
  0.00000000
11
  0.12665826
21
 -0.08640000
31
  0.00000000
0
LINE
8
DC
6
CONTINUOUS
62
7
10
  0.12576699
20
 -0.08635000
30
  0.00000000
11
  0.12663301
21
 -0.08635000
31
  0.00000000
0
LINE
8
DC
6
CONTINUOUS
62
7
10
  0.12580000
20
 -0.08630000
30
  0.00000000
11
  0.12660000
21
 -0.08630000
31
  0.00000000
0
LINE
8
DC
6
CONTINUOUS
62
7
10
  0.12584293
20
 -0.08625000
30
  0.00000000
11
  0.12655707
21
 -0.08625000
31
  0.00000000
0
LINE
8
DC
6
CONTINUOUS
62
7
10
  0.12590000
20
 -0.08620000
30
  0.00000000
11
  0.12650000
21
 -0.08620000
31
  0.00000000
0
LINE
8
DC
6
CONTINUOUS
62
7
10
  0.12598206
20
 -0.08615000
30
  0.00000000
11
  0.12641794
21
 -0.08615000
31
  0.00000000
0
CIRCLE
8
DC
6
CONTINUOUS
62
7
10
  0.12620000
20
 -0.08660000
30
  0.00000000
40
  0.00050000
0
LINE
8
DC
6
CONTINUOUS
62
7
10
  0.12780000
20
 -0.08710000
30
  0.00000000
11
  0.12780000
21
 -0.08710000
31
  0.00000000
0
LINE
8
DC
6
CONTINUOUS
62
7
10
  0.12758206
20
 -0.08705000
30
  0.00000000
11
  0.12801794
21
 -0.08705000
31
  0.00000000
0
LINE
8
DC
6
CONTINUOUS
62
7
10
  0.12750000
20
 -0.08700000
30
  0.00000000
11
  0.12810000
21
 -0.08700000
31
  0.00000000
0
LINE
8
DC
6
CONTINUOUS
62
7
10
  0.12744293
20
 -0.08695000
30
  0.00000000
11
  0.12815707
21
 -0.08695000
31
  0.00000000
0
LINE
8
DC
6
CONTINUOUS
62
7
10
  0.12740000
20
 -0.08690000
30
  0.00000000
11
  0.12820000
21
 -0.08690000
31
  0.00000000
0
LINE
8
DC
6
CONTINUOUS
62
7
10
  0.12736699
20
 -0.08685000
30
  0.00000000
11
  0.12823301
21
 -0.08685000
31
  0.00000000
0
LINE
8
DC
6
CONTINUOUS
62
7
10
  0.12734174
20
 -0.08680000
30
  0.00000000
11
  0.12825826
21
 -0.08680000
31
  0.00000000
0
LINE
8
DC
6
CONTINUOUS
62
7
10
  0.12732303
20
 -0.08675000
30
  0.00000000
11
  0.12827697
21
 -0.08675000
31
  0.00000000
0
LINE
8
DC
6
CONTINUOUS
62
7
10
  0.12731010
20
 -0.08670000
30
  0.00000000
11
  0.12828990
21
 -0.08670000
31
  0.00000000
0
LINE
8
DC
6
CONTINUOUS
62
7
10
  0.12730251
20
 -0.08665000
30
  0.00000000
11
  0.12829749
21
 -0.08665000
31
  0.00000000
0
LINE
8
DC
6
CONTINUOUS
62
7
10
  0.12730000
20
 -0.08660000
30
  0.00000000
11
  0.12830000
21
 -0.08660000
31
  0.00000000
0
LINE
8
DC
6
CONTINUOUS
62
7
10
  0.12730251
20
 -0.08655000
30
  0.00000000
11
  0.12829749
21
 -0.08655000
31
  0.00000000
0
LINE
8
DC
6
CONTINUOUS
62
7
10
  0.12731010
20
 -0.08650000
30
  0.00000000
11
  0.12828990
21
 -0.08650000
31
  0.00000000
0
LINE
8
DC
6
CONTINUOUS
62
7
10
  0.12732303
20
 -0.08645000
30
  0.00000000
11
  0.12827697
21
 -0.08645000
31
  0.00000000
0
LINE
8
DC
6
CONTINUOUS
62
7
10
  0.12734174
20
 -0.08640000
30
  0.00000000
11
  0.12825826
21
 -0.08640000
31
  0.00000000
0
LINE
8
DC
6
CONTINUOUS
62
7
10
  0.12736699
20
 -0.08635000
30
  0.00000000
11
  0.12823301
21
 -0.08635000
31
  0.00000000
0
LINE
8
DC
6
CONTINUOUS
62
7
10
  0.12740000
20
 -0.08630000
30
  0.00000000
11
  0.12820000
21
 -0.08630000
31
  0.00000000
0
LINE
8
DC
6
CONTINUOUS
62
7
10
  0.12744293
20
 -0.08625000
30
  0.00000000
11
  0.12815707
21
 -0.08625000
31
  0.00000000
0
LINE
8
DC
6
CONTINUOUS
62
7
10
  0.12750000
20
 -0.08620000
30
  0.00000000
11
  0.12810000
21
 -0.08620000
31
  0.00000000
0
LINE
8
DC
6
CONTINUOUS
62
7
10
  0.12758206
20
 -0.08615000
30
  0.00000000
11
  0.12801794
21
 -0.08615000
31
  0.00000000
0
CIRCLE
8
DC
6
CONTINUOUS
62
7
10
  0.12780000
20
 -0.08660000
30
  0.00000000
40
  0.00050000
0
LINE
8
DC
6
CONTINUOUS
62
7
10
  0.12560000
20
 -0.08710000
30
  0.00000000
11
  0.12860000
21
 -0.08710000
31
  0.00000000
0
LINE
8
DC
6
CONTINUOUS
62
7
10
  0.12480000
20
 -0.08900000
30
  0.00000000
11
  0.12480000
21
 -0.08900000
31
  0.00000000
0
LINE
8
DC
6
CONTINUOUS
62
7
10
  0.12466771
20
 -0.08895000
30
  0.00000000
11
  0.12493229
21
 -0.08895000
31
  0.00000000
0
LINE
8
DC
6
CONTINUOUS
62
7
10
  0.12462679
20
 -0.08890000
30
  0.00000000
11
  0.12497321
21
 -0.08890000
31
  0.00000000
0
LINE
8
DC
6
CONTINUOUS
62
7
10
  0.12460635
20
 -0.08885000
30
  0.00000000
11
  0.12499365
21
 -0.08885000
31
  0.00000000
0
LINE
8
DC
6
CONTINUOUS
62
7
10
  0.12460000
20
 -0.08880000
30
  0.00000000
11
  0.12500000
21
 -0.08880000
31
  0.00000000
0
LINE
8
DC
6
CONTINUOUS
62
7
10
  0.12460635
20
 -0.08875000
30
  0.00000000
11
  0.12499365
21
 -0.08875000
31
  0.00000000
0
LINE
8
DC
6
CONTINUOUS
62
7
10
  0.12462679
20
 -0.08870000
30
  0.00000000
11
  0.12497321
21
 -0.08870000
31
  0.00000000
0
LINE
8
DC
6
CONTINUOUS
62
7
10
  0.12466771
20
 -0.08865000
30
  0.00000000
11
  0.12493229
21
 -0.08865000
31
  0.00000000
0
CIRCLE
8
DC
6
CONTINUOUS
62
7
10
  0.12480000
20
 -0.08880000
30
  0.00000000
40
  0.00020000
0
LINE
8
DC
6
CONTINUOUS
62
7
10
  0.12580000
20
 -0.08900000
30
  0.00000000
11
  0.12580000
21
 -0.08900000
31
  0.00000000
0
LINE
8
DC
6
CONTINUOUS
62
7
10
  0.12566771
20
 -0.08895000
30
  0.00000000
11
  0.12593229
21
 -0.08895000
31
  0.00000000
0
LINE
8
DC
6
CONTINUOUS
62
7
10
  0.12562679
20
 -0.08890000
30
  0.00000000
11
  0.12597321
21
 -0.08890000
31
  0.00000000
0
LINE
8
DC
6
CONTINUOUS
62
7
10
  0.12560635
20
 -0.08885000
30
  0.00000000
11
  0.12599365
21
 -0.08885000
31
  0.00000000
0
LINE
8
DC
6
CONTINUOUS
62
7
10
  0.12560000
20
 -0.08880000
30
  0.00000000
11
  0.12600000
21
 -0.08880000
31
  0.00000000
0
LINE
8
DC
6
CONTINUOUS
62
7
10
  0.12560635
20
 -0.08875000
30
  0.00000000
11
  0.12599365
21
 -0.08875000
31
  0.00000000
0
LINE
8
DC
6
CONTINUOUS
62
7
10
  0.12562679
20
 -0.08870000
30
  0.00000000
11
  0.12597321
21
 -0.08870000
31
  0.00000000
0
LINE
8
DC
6
CONTINUOUS
62
7
10
  0.12566771
20
 -0.08865000
30
  0.00000000
11
  0.12593229
21
 -0.08865000
31
  0.00000000
0
CIRCLE
8
DC
6
CONTINUOUS
62
7
10
  0.12580000
20
 -0.08880000
30
  0.00000000
40
  0.00020000
0
LINE
8
DC
6
CONTINUOUS
62
7
10
  0.12680000
20
 -0.08900000
30
  0.00000000
11
  0.12680000
21
 -0.08900000
31
  0.00000000
0
LINE
8
DC
6
CONTINUOUS
62
7
10
  0.12666771
20
 -0.08895000
30
  0.00000000
11
  0.12693229
21
 -0.08895000
31
  0.00000000
0
LINE
8
DC
6
CONTINUOUS
62
7
10
  0.12662679
20
 -0.08890000
30
  0.00000000
11
  0.12697321
21
 -0.08890000
31
  0.00000000
0
LINE
8
DC
6
CONTINUOUS
62
7
10
  0.12660635
20
 -0.08885000
30
  0.00000000
11
  0.12699365
21
 -0.08885000
31
  0.00000000
0
LINE
8
DC
6
CONTINUOUS
62
7
10
  0.12660000
20
 -0.08880000
30
  0.00000000
11
  0.12700000
21
 -0.08880000
31
  0.00000000
0
LINE
8
DC
6
CONTINUOUS
62
7
10
  0.12660635
20
 -0.08875000
30
  0.00000000
11
  0.12699365
21
 -0.08875000
31
  0.00000000
0
LINE
8
DC
6
CONTINUOUS
62
7
10
  0.12662679
20
 -0.08870000
30
  0.00000000
11
  0.12697321
21
 -0.08870000
31
  0.00000000
0
LINE
8
DC
6
CONTINUOUS
62
7
10
  0.12666771
20
 -0.08865000
30
  0.00000000
11
  0.12693229
21
 -0.08865000
31
  0.00000000
0
CIRCLE
8
DC
6
CONTINUOUS
62
7
10
  0.12680000
20
 -0.08880000
30
  0.00000000
40
  0.00020000
0
LINE
8
DC
6
CONTINUOUS
62
7
10
  0.12780000
20
 -0.08900000
30
  0.00000000
11
  0.12780000
21
 -0.08900000
31
  0.00000000
0
LINE
8
DC
6
CONTINUOUS
62
7
10
  0.12766771
20
 -0.08895000
30
  0.00000000
11
  0.12793229
21
 -0.08895000
31
  0.00000000
0
LINE
8
DC
6
CONTINUOUS
62
7
10
  0.12762679
20
 -0.08890000
30
  0.00000000
11
  0.12797321
21
 -0.08890000
31
  0.00000000
0
LINE
8
DC
6
CONTINUOUS
62
7
10
  0.12760635
20
 -0.08885000
30
  0.00000000
11
  0.12799365
21
 -0.08885000
31
  0.00000000
0
LINE
8
DC
6
CONTINUOUS
62
7
10
  0.12760000
20
 -0.08880000
30
  0.00000000
11
  0.12800000
21
 -0.08880000
31
  0.00000000
0
LINE
8
DC
6
CONTINUOUS
62
7
10
  0.12760635
20
 -0.08875000
30
  0.00000000
11
  0.12799365
21
 -0.08875000
31
  0.00000000
0
LINE
8
DC
6
CONTINUOUS
62
7
10
  0.12762679
20
 -0.08870000
30
  0.00000000
11
  0.12797321
21
 -0.08870000
31
  0.00000000
0
LINE
8
DC
6
CONTINUOUS
62
7
10
  0.12766771
20
 -0.08865000
30
  0.00000000
11
  0.12793229
21
 -0.08865000
31
  0.00000000
0
CIRCLE
8
DC
6
CONTINUOUS
62
7
10
  0.12780000
20
 -0.08880000
30
  0.00000000
40
  0.00020000
0
LINE
8
DC
6
CONTINUOUS
62
7
10
  0.12880000
20
 -0.08900000
30
  0.00000000
11
  0.12880000
21
 -0.08900000
31
  0.00000000
0
LINE
8
DC
6
CONTINUOUS
62
7
10
  0.12866771
20
 -0.08895000
30
  0.00000000
11
  0.12893229
21
 -0.08895000
31
  0.00000000
0
LINE
8
DC
6
CONTINUOUS
62
7
10
  0.12862679
20
 -0.08890000
30
  0.00000000
11
  0.12897321
21
 -0.08890000
31
  0.00000000
0
LINE
8
DC
6
CONTINUOUS
62
7
10
  0.12860635
20
 -0.08885000
30
  0.00000000
11
  0.12899365
21
 -0.08885000
31
  0.00000000
0
LINE
8
DC
6
CONTINUOUS
62
7
10
  0.12860000
20
 -0.08880000
30
  0.00000000
11
  0.12900000
21
 -0.08880000
31
  0.00000000
0
LINE
8
DC
6
CONTINUOUS
62
7
10
  0.12860635
20
 -0.08875000
30
  0.00000000
11
  0.12899365
21
 -0.08875000
31
  0.00000000
0
LINE
8
DC
6
CONTINUOUS
62
7
10
  0.12862679
20
 -0.08870000
30
  0.00000000
11
  0.12897321
21
 -0.08870000
31
  0.00000000
0
LINE
8
DC
6
CONTINUOUS
62
7
10
  0.12866771
20
 -0.08865000
30
  0.00000000
11
  0.12893229
21
 -0.08865000
31
  0.00000000
0
CIRCLE
8
DC
6
CONTINUOUS
62
7
10
  0.12880000
20
 -0.08880000
30
  0.00000000
40
  0.00020000
0
LINE
8
DC
6
CONTINUOUS
62
7
10
  0.12480000
20
 -0.09120000
30
  0.00000000
11
  0.12480000
21
 -0.09120000
31
  0.00000000
0
LINE
8
DC
6
CONTINUOUS
62
7
10
  0.12466771
20
 -0.09115000
30
  0.00000000
11
  0.12493229
21
 -0.09115000
31
  0.00000000
0
LINE
8
DC
6
CONTINUOUS
62
7
10
  0.12462679
20
 -0.09110000
30
  0.00000000
11
  0.12497321
21
 -0.09110000
31
  0.00000000
0
LINE
8
DC
6
CONTINUOUS
62
7
10
  0.12460635
20
 -0.09105000
30
  0.00000000
11
  0.12499365
21
 -0.09105000
31
  0.00000000
0
LINE
8
DC
6
CONTINUOUS
62
7
10
  0.12460000
20
 -0.09100000
30
  0.00000000
11
  0.12500000
21
 -0.09100000
31
  0.00000000
0
LINE
8
DC
6
CONTINUOUS
62
7
10
  0.12460635
20
 -0.09095000
30
  0.00000000
11
  0.12499365
21
 -0.09095000
31
  0.00000000
0
LINE
8
DC
6
CONTINUOUS
62
7
10
  0.12462679
20
 -0.09090000
30
  0.00000000
11
  0.12497321
21
 -0.09090000
31
  0.00000000
0
LINE
8
DC
6
CONTINUOUS
62
7
10
  0.12466771
20
 -0.09085000
30
  0.00000000
11
  0.12493229
21
 -0.09085000
31
  0.00000000
0
CIRCLE
8
DC
6
CONTINUOUS
62
7
10
  0.12480000
20
 -0.09100000
30
  0.00000000
40
  0.00020000
0
LINE
8
DC
6
CONTINUOUS
62
7
10
  0.12580000
20
 -0.09120000
30
  0.00000000
11
  0.12580000
21
 -0.09120000
31
  0.00000000
0
LINE
8
DC
6
CONTINUOUS
62
7
10
  0.12566771
20
 -0.09115000
30
  0.00000000
11
  0.12593229
21
 -0.09115000
31
  0.00000000
0
LINE
8
DC
6
CONTINUOUS
62
7
10
  0.12562679
20
 -0.09110000
30
  0.00000000
11
  0.12597321
21
 -0.09110000
31
  0.00000000
0
LINE
8
DC
6
CONTINUOUS
62
7
10
  0.12560635
20
 -0.09105000
30
  0.00000000
11
  0.12599365
21
 -0.09105000
31
  0.00000000
0
LINE
8
DC
6
CONTINUOUS
62
7
10
  0.12560000
20
 -0.09100000
30
  0.00000000
11
  0.12600000
21
 -0.09100000
31
  0.00000000
0
LINE
8
DC
6
CONTINUOUS
62
7
10
  0.12560635
20
 -0.09095000
30
  0.00000000
11
  0.12599365
21
 -0.09095000
31
  0.00000000
0
LINE
8
DC
6
CONTINUOUS
62
7
10
  0.12562679
20
 -0.09090000
30
  0.00000000
11
  0.12597321
21
 -0.09090000
31
  0.00000000
0
LINE
8
DC
6
CONTINUOUS
62
7
10
  0.12566771
20
 -0.09085000
30
  0.00000000
11
  0.12593229
21
 -0.09085000
31
  0.00000000
0
CIRCLE
8
DC
6
CONTINUOUS
62
7
10
  0.12580000
20
 -0.09100000
30
  0.00000000
40
  0.00020000
0
LINE
8
DC
6
CONTINUOUS
62
7
10
  0.12680000
20
 -0.09120000
30
  0.00000000
11
  0.12680000
21
 -0.09120000
31
  0.00000000
0
LINE
8
DC
6
CONTINUOUS
62
7
10
  0.12666771
20
 -0.09115000
30
  0.00000000
11
  0.12693229
21
 -0.09115000
31
  0.00000000
0
LINE
8
DC
6
CONTINUOUS
62
7
10
  0.12662679
20
 -0.09110000
30
  0.00000000
11
  0.12697321
21
 -0.09110000
31
  0.00000000
0
LINE
8
DC
6
CONTINUOUS
62
7
10
  0.12660635
20
 -0.09105000
30
  0.00000000
11
  0.12699365
21
 -0.09105000
31
  0.00000000
0
LINE
8
DC
6
CONTINUOUS
62
7
10
  0.12660000
20
 -0.09100000
30
  0.00000000
11
  0.12700000
21
 -0.09100000
31
  0.00000000
0
LINE
8
DC
6
CONTINUOUS
62
7
10
  0.12660635
20
 -0.09095000
30
  0.00000000
11
  0.12699365
21
 -0.09095000
31
  0.00000000
0
LINE
8
DC
6
CONTINUOUS
62
7
10
  0.12662679
20
 -0.09090000
30
  0.00000000
11
  0.12697321
21
 -0.09090000
31
  0.00000000
0
LINE
8
DC
6
CONTINUOUS
62
7
10
  0.12666771
20
 -0.09085000
30
  0.00000000
11
  0.12693229
21
 -0.09085000
31
  0.00000000
0
CIRCLE
8
DC
6
CONTINUOUS
62
7
10
  0.12680000
20
 -0.09100000
30
  0.00000000
40
  0.00020000
0
LINE
8
DC
6
CONTINUOUS
62
7
10
  0.12780000
20
 -0.09120000
30
  0.00000000
11
  0.12780000
21
 -0.09120000
31
  0.00000000
0
LINE
8
DC
6
CONTINUOUS
62
7
10
  0.12766771
20
 -0.09115000
30
  0.00000000
11
  0.12793229
21
 -0.09115000
31
  0.00000000
0
LINE
8
DC
6
CONTINUOUS
62
7
10
  0.12762679
20
 -0.09110000
30
  0.00000000
11
  0.12797321
21
 -0.09110000
31
  0.00000000
0
LINE
8
DC
6
CONTINUOUS
62
7
10
  0.12760635
20
 -0.09105000
30
  0.00000000
11
  0.12799365
21
 -0.09105000
31
  0.00000000
0
LINE
8
DC
6
CONTINUOUS
62
7
10
  0.12760000
20
 -0.09100000
30
  0.00000000
11
  0.12800000
21
 -0.09100000
31
  0.00000000
0
LINE
8
DC
6
CONTINUOUS
62
7
10
  0.12760635
20
 -0.09095000
30
  0.00000000
11
  0.12799365
21
 -0.09095000
31
  0.00000000
0
LINE
8
DC
6
CONTINUOUS
62
7
10
  0.12762679
20
 -0.09090000
30
  0.00000000
11
  0.12797321
21
 -0.09090000
31
  0.00000000
0
LINE
8
DC
6
CONTINUOUS
62
7
10
  0.12766771
20
 -0.09085000
30
  0.00000000
11
  0.12793229
21
 -0.09085000
31
  0.00000000
0
CIRCLE
8
DC
6
CONTINUOUS
62
7
10
  0.12780000
20
 -0.09100000
30
  0.00000000
40
  0.00020000
0
LINE
8
DC
6
CONTINUOUS
62
7
10
  0.12880000
20
 -0.09120000
30
  0.00000000
11
  0.12880000
21
 -0.09120000
31
  0.00000000
0
LINE
8
DC
6
CONTINUOUS
62
7
10
  0.12866771
20
 -0.09115000
30
  0.00000000
11
  0.12893229
21
 -0.09115000
31
  0.00000000
0
LINE
8
DC
6
CONTINUOUS
62
7
10
  0.12862679
20
 -0.09110000
30
  0.00000000
11
  0.12897321
21
 -0.09110000
31
  0.00000000
0
LINE
8
DC
6
CONTINUOUS
62
7
10
  0.12860635
20
 -0.09105000
30
  0.00000000
11
  0.12899365
21
 -0.09105000
31
  0.00000000
0
LINE
8
DC
6
CONTINUOUS
62
7
10
  0.12860000
20
 -0.09100000
30
  0.00000000
11
  0.12900000
21
 -0.09100000
31
  0.00000000
0
LINE
8
DC
6
CONTINUOUS
62
7
10
  0.12860635
20
 -0.09095000
30
  0.00000000
11
  0.12899365
21
 -0.09095000
31
  0.00000000
0
LINE
8
DC
6
CONTINUOUS
62
7
10
  0.12862679
20
 -0.09090000
30
  0.00000000
11
  0.12897321
21
 -0.09090000
31
  0.00000000
0
LINE
8
DC
6
CONTINUOUS
62
7
10
  0.12866771
20
 -0.09085000
30
  0.00000000
11
  0.12893229
21
 -0.09085000
31
  0.00000000
0
CIRCLE
8
DC
6
CONTINUOUS
62
7
10
  0.12880000
20
 -0.09100000
30
  0.00000000
40
  0.00020000
0
LINE
8
DC
6
CONTINUOUS
62
7
10
  0.12530000
20
 -0.09010000
30
  0.00000000
11
  0.12530000
21
 -0.09010000
31
  0.00000000
0
LINE
8
DC
6
CONTINUOUS
62
7
10
  0.12516771
20
 -0.09005000
30
  0.00000000
11
  0.12543229
21
 -0.09005000
31
  0.00000000
0
LINE
8
DC
6
CONTINUOUS
62
7
10
  0.12512679
20
 -0.09000000
30
  0.00000000
11
  0.12547321
21
 -0.09000000
31
  0.00000000
0
LINE
8
DC
6
CONTINUOUS
62
7
10
  0.12510635
20
 -0.08995000
30
  0.00000000
11
  0.12549365
21
 -0.08995000
31
  0.00000000
0
LINE
8
DC
6
CONTINUOUS
62
7
10
  0.12510000
20
 -0.08990000
30
  0.00000000
11
  0.12550000
21
 -0.08990000
31
  0.00000000
0
LINE
8
DC
6
CONTINUOUS
62
7
10
  0.12510635
20
 -0.08985000
30
  0.00000000
11
  0.12549365
21
 -0.08985000
31
  0.00000000
0
LINE
8
DC
6
CONTINUOUS
62
7
10
  0.12512679
20
 -0.08980000
30
  0.00000000
11
  0.12547321
21
 -0.08980000
31
  0.00000000
0
LINE
8
DC
6
CONTINUOUS
62
7
10
  0.12516771
20
 -0.08975000
30
  0.00000000
11
  0.12543229
21
 -0.08975000
31
  0.00000000
0
CIRCLE
8
DC
6
CONTINUOUS
62
7
10
  0.12530000
20
 -0.08990000
30
  0.00000000
40
  0.00020000
0
LINE
8
DC
6
CONTINUOUS
62
7
10
  0.12630000
20
 -0.09010000
30
  0.00000000
11
  0.12630000
21
 -0.09010000
31
  0.00000000
0
LINE
8
DC
6
CONTINUOUS
62
7
10
  0.12616771
20
 -0.09005000
30
  0.00000000
11
  0.12643229
21
 -0.09005000
31
  0.00000000
0
LINE
8
DC
6
CONTINUOUS
62
7
10
  0.12612679
20
 -0.09000000
30
  0.00000000
11
  0.12647321
21
 -0.09000000
31
  0.00000000
0
LINE
8
DC
6
CONTINUOUS
62
7
10
  0.12610635
20
 -0.08995000
30
  0.00000000
11
  0.12649365
21
 -0.08995000
31
  0.00000000
0
LINE
8
DC
6
CONTINUOUS
62
7
10
  0.12610000
20
 -0.08990000
30
  0.00000000
11
  0.12650000
21
 -0.08990000
31
  0.00000000
0
LINE
8
DC
6
CONTINUOUS
62
7
10
  0.12610635
20
 -0.08985000
30
  0.00000000
11
  0.12649365
21
 -0.08985000
31
  0.00000000
0
LINE
8
DC
6
CONTINUOUS
62
7
10
  0.12612679
20
 -0.08980000
30
  0.00000000
11
  0.12647321
21
 -0.08980000
31
  0.00000000
0
LINE
8
DC
6
CONTINUOUS
62
7
10
  0.12616771
20
 -0.08975000
30
  0.00000000
11
  0.12643229
21
 -0.08975000
31
  0.00000000
0
CIRCLE
8
DC
6
CONTINUOUS
62
7
10
  0.12630000
20
 -0.08990000
30
  0.00000000
40
  0.00020000
0
LINE
8
DC
6
CONTINUOUS
62
7
10
  0.12730000
20
 -0.09010000
30
  0.00000000
11
  0.12730000
21
 -0.09010000
31
  0.00000000
0
LINE
8
DC
6
CONTINUOUS
62
7
10
  0.12716771
20
 -0.09005000
30
  0.00000000
11
  0.12743229
21
 -0.09005000
31
  0.00000000
0
LINE
8
DC
6
CONTINUOUS
62
7
10
  0.12712679
20
 -0.09000000
30
  0.00000000
11
  0.12747321
21
 -0.09000000
31
  0.00000000
0
LINE
8
DC
6
CONTINUOUS
62
7
10
  0.12710635
20
 -0.08995000
30
  0.00000000
11
  0.12749365
21
 -0.08995000
31
  0.00000000
0
LINE
8
DC
6
CONTINUOUS
62
7
10
  0.12710000
20
 -0.08990000
30
  0.00000000
11
  0.12750000
21
 -0.08990000
31
  0.00000000
0
LINE
8
DC
6
CONTINUOUS
62
7
10
  0.12710635
20
 -0.08985000
30
  0.00000000
11
  0.12749365
21
 -0.08985000
31
  0.00000000
0
LINE
8
DC
6
CONTINUOUS
62
7
10
  0.12712679
20
 -0.08980000
30
  0.00000000
11
  0.12747321
21
 -0.08980000
31
  0.00000000
0
LINE
8
DC
6
CONTINUOUS
62
7
10
  0.12716771
20
 -0.08975000
30
  0.00000000
11
  0.12743229
21
 -0.08975000
31
  0.00000000
0
CIRCLE
8
DC
6
CONTINUOUS
62
7
10
  0.12730000
20
 -0.08990000
30
  0.00000000
40
  0.00020000
0
LINE
8
DC
6
CONTINUOUS
62
7
10
  0.12830000
20
 -0.09010000
30
  0.00000000
11
  0.12830000
21
 -0.09010000
31
  0.00000000
0
LINE
8
DC
6
CONTINUOUS
62
7
10
  0.12816771
20
 -0.09005000
30
  0.00000000
11
  0.12843229
21
 -0.09005000
31
  0.00000000
0
LINE
8
DC
6
CONTINUOUS
62
7
10
  0.12812679
20
 -0.09000000
30
  0.00000000
11
  0.12847321
21
 -0.09000000
31
  0.00000000
0
LINE
8
DC
6
CONTINUOUS
62
7
10
  0.12810635
20
 -0.08995000
30
  0.00000000
11
  0.12849365
21
 -0.08995000
31
  0.00000000
0
LINE
8
DC
6
CONTINUOUS
62
7
10
  0.12810000
20
 -0.08990000
30
  0.00000000
11
  0.12850000
21
 -0.08990000
31
  0.00000000
0
LINE
8
DC
6
CONTINUOUS
62
7
10
  0.12810635
20
 -0.08985000
30
  0.00000000
11
  0.12849365
21
 -0.08985000
31
  0.00000000
0
LINE
8
DC
6
CONTINUOUS
62
7
10
  0.12812679
20
 -0.08980000
30
  0.00000000
11
  0.12847321
21
 -0.08980000
31
  0.00000000
0
LINE
8
DC
6
CONTINUOUS
62
7
10
  0.12816771
20
 -0.08975000
30
  0.00000000
11
  0.12843229
21
 -0.08975000
31
  0.00000000
0
CIRCLE
8
DC
6
CONTINUOUS
62
7
10
  0.12830000
20
 -0.08990000
30
  0.00000000
40
  0.00020000
0
LINE
8
DC
6
CONTINUOUS
62
7
10
  0.12930000
20
 -0.09010000
30
  0.00000000
11
  0.12930000
21
 -0.09010000
31
  0.00000000
0
LINE
8
DC
6
CONTINUOUS
62
7
10
  0.12916771
20
 -0.09005000
30
  0.00000000
11
  0.12943229
21
 -0.09005000
31
  0.00000000
0
LINE
8
DC
6
CONTINUOUS
62
7
10
  0.12912679
20
 -0.09000000
30
  0.00000000
11
  0.12947321
21
 -0.09000000
31
  0.00000000
0
LINE
8
DC
6
CONTINUOUS
62
7
10
  0.12910635
20
 -0.08995000
30
  0.00000000
11
  0.12949365
21
 -0.08995000
31
  0.00000000
0
LINE
8
DC
6
CONTINUOUS
62
7
10
  0.12910000
20
 -0.08990000
30
  0.00000000
11
  0.12950000
21
 -0.08990000
31
  0.00000000
0
LINE
8
DC
6
CONTINUOUS
62
7
10
  0.12910635
20
 -0.08985000
30
  0.00000000
11
  0.12949365
21
 -0.08985000
31
  0.00000000
0
LINE
8
DC
6
CONTINUOUS
62
7
10
  0.12912679
20
 -0.08980000
30
  0.00000000
11
  0.12947321
21
 -0.08980000
31
  0.00000000
0
LINE
8
DC
6
CONTINUOUS
62
7
10
  0.12916771
20
 -0.08975000
30
  0.00000000
11
  0.12943229
21
 -0.08975000
31
  0.00000000
0
CIRCLE
8
DC
6
CONTINUOUS
62
7
10
  0.12930000
20
 -0.08990000
30
  0.00000000
40
  0.00020000
0
TEXT
8
DC
62
7
10
  0.12710000
20
 -0.09180000
30
  0.00000000
40
  0.00325000
41
  0.60000000
1
A
50
  0.00000000
72
1
73
3
11
  0.12710000
21
 -0.09180000
31
  0.00000000
0
LINE
8
DC
6
CONTINUOUS
62
7
10
  0.12510000
20
 -0.09740000
30
  0.00000000
11
  0.12810000
21
 -0.09740000
31
  0.00000000
0
LINE
8
DC
6
CONTINUOUS
62
7
10
  0.12610000
20
 -0.09900000
30
  0.00000000
11
  0.12910000
21
 -0.09900000
31
  0.00000000
0
LINE
8
DC
6
CONTINUOUS
62
7
10
  0.12620000
20
 -0.10200000
30
  0.00000000
11
  0.12620000
21
 -0.10200000
31
  0.00000000
0
LINE
8
DC
6
CONTINUOUS
62
7
10
  0.12598206
20
 -0.10195000
30
  0.00000000
11
  0.12641794
21
 -0.10195000
31
  0.00000000
0
LINE
8
DC
6
CONTINUOUS
62
7
10
  0.12590000
20
 -0.10190000
30
  0.00000000
11
  0.12650000
21
 -0.10190000
31
  0.00000000
0
LINE
8
DC
6
CONTINUOUS
62
7
10
  0.12584293
20
 -0.10185000
30
  0.00000000
11
  0.12655707
21
 -0.10185000
31
  0.00000000
0
LINE
8
DC
6
CONTINUOUS
62
7
10
  0.12580000
20
 -0.10180000
30
  0.00000000
11
  0.12660000
21
 -0.10180000
31
  0.00000000
0
LINE
8
DC
6
CONTINUOUS
62
7
10
  0.12576699
20
 -0.10175000
30
  0.00000000
11
  0.12663301
21
 -0.10175000
31
  0.00000000
0
LINE
8
DC
6
CONTINUOUS
62
7
10
  0.12574174
20
 -0.10170000
30
  0.00000000
11
  0.12665826
21
 -0.10170000
31
  0.00000000
0
LINE
8
DC
6
CONTINUOUS
62
7
10
  0.12572303
20
 -0.10165000
30
  0.00000000
11
  0.12667697
21
 -0.10165000
31
  0.00000000
0
LINE
8
DC
6
CONTINUOUS
62
7
10
  0.12571010
20
 -0.10160000
30
  0.00000000
11
  0.12668990
21
 -0.10160000
31
  0.00000000
0
LINE
8
DC
6
CONTINUOUS
62
7
10
  0.12570251
20
 -0.10155000
30
  0.00000000
11
  0.12669749
21
 -0.10155000
31
  0.00000000
0
LINE
8
DC
6
CONTINUOUS
62
7
10
  0.12570000
20
 -0.10150000
30
  0.00000000
11
  0.12670000
21
 -0.10150000
31
  0.00000000
0
LINE
8
DC
6
CONTINUOUS
62
7
10
  0.12570251
20
 -0.10145000
30
  0.00000000
11
  0.12669749
21
 -0.10145000
31
  0.00000000
0
LINE
8
DC
6
CONTINUOUS
62
7
10
  0.12571010
20
 -0.10140000
30
  0.00000000
11
  0.12668990
21
 -0.10140000
31
  0.00000000
0
LINE
8
DC
6
CONTINUOUS
62
7
10
  0.12572303
20
 -0.10135000
30
  0.00000000
11
  0.12667697
21
 -0.10135000
31
  0.00000000
0
LINE
8
DC
6
CONTINUOUS
62
7
10
  0.12574174
20
 -0.10130000
30
  0.00000000
11
  0.12665826
21
 -0.10130000
31
  0.00000000
0
LINE
8
DC
6
CONTINUOUS
62
7
10
  0.12576699
20
 -0.10125000
30
  0.00000000
11
  0.12663301
21
 -0.10125000
31
  0.00000000
0
LINE
8
DC
6
CONTINUOUS
62
7
10
  0.12580000
20
 -0.10120000
30
  0.00000000
11
  0.12660000
21
 -0.10120000
31
  0.00000000
0
LINE
8
DC
6
CONTINUOUS
62
7
10
  0.12584293
20
 -0.10115000
30
  0.00000000
11
  0.12655707
21
 -0.10115000
31
  0.00000000
0
LINE
8
DC
6
CONTINUOUS
62
7
10
  0.12590000
20
 -0.10110000
30
  0.00000000
11
  0.12650000
21
 -0.10110000
31
  0.00000000
0
LINE
8
DC
6
CONTINUOUS
62
7
10
  0.12598206
20
 -0.10105000
30
  0.00000000
11
  0.12641794
21
 -0.10105000
31
  0.00000000
0
CIRCLE
8
DC
6
CONTINUOUS
62
7
10
  0.12620000
20
 -0.10150000
30
  0.00000000
40
  0.00050000
0
LINE
8
DC
6
CONTINUOUS
62
7
10
  0.12780000
20
 -0.10200000
30
  0.00000000
11
  0.12780000
21
 -0.10200000
31
  0.00000000
0
LINE
8
DC
6
CONTINUOUS
62
7
10
  0.12758206
20
 -0.10195000
30
  0.00000000
11
  0.12801794
21
 -0.10195000
31
  0.00000000
0
LINE
8
DC
6
CONTINUOUS
62
7
10
  0.12750000
20
 -0.10190000
30
  0.00000000
11
  0.12810000
21
 -0.10190000
31
  0.00000000
0
LINE
8
DC
6
CONTINUOUS
62
7
10
  0.12744293
20
 -0.10185000
30
  0.00000000
11
  0.12815707
21
 -0.10185000
31
  0.00000000
0
LINE
8
DC
6
CONTINUOUS
62
7
10
  0.12740000
20
 -0.10180000
30
  0.00000000
11
  0.12820000
21
 -0.10180000
31
  0.00000000
0
LINE
8
DC
6
CONTINUOUS
62
7
10
  0.12736699
20
 -0.10175000
30
  0.00000000
11
  0.12823301
21
 -0.10175000
31
  0.00000000
0
LINE
8
DC
6
CONTINUOUS
62
7
10
  0.12734174
20
 -0.10170000
30
  0.00000000
11
  0.12825826
21
 -0.10170000
31
  0.00000000
0
LINE
8
DC
6
CONTINUOUS
62
7
10
  0.12732303
20
 -0.10165000
30
  0.00000000
11
  0.12827697
21
 -0.10165000
31
  0.00000000
0
LINE
8
DC
6
CONTINUOUS
62
7
10
  0.12731010
20
 -0.10160000
30
  0.00000000
11
  0.12828990
21
 -0.10160000
31
  0.00000000
0
LINE
8
DC
6
CONTINUOUS
62
7
10
  0.12730251
20
 -0.10155000
30
  0.00000000
11
  0.12829749
21
 -0.10155000
31
  0.00000000
0
LINE
8
DC
6
CONTINUOUS
62
7
10
  0.12730000
20
 -0.10150000
30
  0.00000000
11
  0.12830000
21
 -0.10150000
31
  0.00000000
0
LINE
8
DC
6
CONTINUOUS
62
7
10
  0.12730251
20
 -0.10145000
30
  0.00000000
11
  0.12829749
21
 -0.10145000
31
  0.00000000
0
LINE
8
DC
6
CONTINUOUS
62
7
10
  0.12731010
20
 -0.10140000
30
  0.00000000
11
  0.12828990
21
 -0.10140000
31
  0.00000000
0
LINE
8
DC
6
CONTINUOUS
62
7
10
  0.12732303
20
 -0.10135000
30
  0.00000000
11
  0.12827697
21
 -0.10135000
31
  0.00000000
0
LINE
8
DC
6
CONTINUOUS
62
7
10
  0.12734174
20
 -0.10130000
30
  0.00000000
11
  0.12825826
21
 -0.10130000
31
  0.00000000
0
LINE
8
DC
6
CONTINUOUS
62
7
10
  0.12736699
20
 -0.10125000
30
  0.00000000
11
  0.12823301
21
 -0.10125000
31
  0.00000000
0
LINE
8
DC
6
CONTINUOUS
62
7
10
  0.12740000
20
 -0.10120000
30
  0.00000000
11
  0.12820000
21
 -0.10120000
31
  0.00000000
0
LINE
8
DC
6
CONTINUOUS
62
7
10
  0.12744293
20
 -0.10115000
30
  0.00000000
11
  0.12815707
21
 -0.10115000
31
  0.00000000
0
LINE
8
DC
6
CONTINUOUS
62
7
10
  0.12750000
20
 -0.10110000
30
  0.00000000
11
  0.12810000
21
 -0.10110000
31
  0.00000000
0
LINE
8
DC
6
CONTINUOUS
62
7
10
  0.12758206
20
 -0.10105000
30
  0.00000000
11
  0.12801794
21
 -0.10105000
31
  0.00000000
0
CIRCLE
8
DC
6
CONTINUOUS
62
7
10
  0.12780000
20
 -0.10150000
30
  0.00000000
40
  0.00050000
0
LINE
8
DC
6
CONTINUOUS
62
7
10
  0.12560000
20
 -0.10200000
30
  0.00000000
11
  0.12860000
21
 -0.10200000
31
  0.00000000
0
LINE
8
DC
6
CONTINUOUS
62
7
10
  0.12480000
20
 -0.10390000
30
  0.00000000
11
  0.12480000
21
 -0.10390000
31
  0.00000000
0
LINE
8
DC
6
CONTINUOUS
62
7
10
  0.12466771
20
 -0.10385000
30
  0.00000000
11
  0.12493229
21
 -0.10385000
31
  0.00000000
0
LINE
8
DC
6
CONTINUOUS
62
7
10
  0.12462679
20
 -0.10380000
30
  0.00000000
11
  0.12497321
21
 -0.10380000
31
  0.00000000
0
LINE
8
DC
6
CONTINUOUS
62
7
10
  0.12460635
20
 -0.10375000
30
  0.00000000
11
  0.12499365
21
 -0.10375000
31
  0.00000000
0
LINE
8
DC
6
CONTINUOUS
62
7
10
  0.12460000
20
 -0.10370000
30
  0.00000000
11
  0.12500000
21
 -0.10370000
31
  0.00000000
0
LINE
8
DC
6
CONTINUOUS
62
7
10
  0.12460635
20
 -0.10365000
30
  0.00000000
11
  0.12499365
21
 -0.10365000
31
  0.00000000
0
LINE
8
DC
6
CONTINUOUS
62
7
10
  0.12462679
20
 -0.10360000
30
  0.00000000
11
  0.12497321
21
 -0.10360000
31
  0.00000000
0
LINE
8
DC
6
CONTINUOUS
62
7
10
  0.12466771
20
 -0.10355000
30
  0.00000000
11
  0.12493229
21
 -0.10355000
31
  0.00000000
0
CIRCLE
8
DC
6
CONTINUOUS
62
7
10
  0.12480000
20
 -0.10370000
30
  0.00000000
40
  0.00020000
0
LINE
8
DC
6
CONTINUOUS
62
7
10
  0.12580000
20
 -0.10390000
30
  0.00000000
11
  0.12580000
21
 -0.10390000
31
  0.00000000
0
LINE
8
DC
6
CONTINUOUS
62
7
10
  0.12566771
20
 -0.10385000
30
  0.00000000
11
  0.12593229
21
 -0.10385000
31
  0.00000000
0
LINE
8
DC
6
CONTINUOUS
62
7
10
  0.12562679
20
 -0.10380000
30
  0.00000000
11
  0.12597321
21
 -0.10380000
31
  0.00000000
0
LINE
8
DC
6
CONTINUOUS
62
7
10
  0.12560635
20
 -0.10375000
30
  0.00000000
11
  0.12599365
21
 -0.10375000
31
  0.00000000
0
LINE
8
DC
6
CONTINUOUS
62
7
10
  0.12560000
20
 -0.10370000
30
  0.00000000
11
  0.12600000
21
 -0.10370000
31
  0.00000000
0
LINE
8
DC
6
CONTINUOUS
62
7
10
  0.12560635
20
 -0.10365000
30
  0.00000000
11
  0.12599365
21
 -0.10365000
31
  0.00000000
0
LINE
8
DC
6
CONTINUOUS
62
7
10
  0.12562679
20
 -0.10360000
30
  0.00000000
11
  0.12597321
21
 -0.10360000
31
  0.00000000
0
LINE
8
DC
6
CONTINUOUS
62
7
10
  0.12566771
20
 -0.10355000
30
  0.00000000
11
  0.12593229
21
 -0.10355000
31
  0.00000000
0
CIRCLE
8
DC
6
CONTINUOUS
62
7
10
  0.12580000
20
 -0.10370000
30
  0.00000000
40
  0.00020000
0
LINE
8
DC
6
CONTINUOUS
62
7
10
  0.12680000
20
 -0.10390000
30
  0.00000000
11
  0.12680000
21
 -0.10390000
31
  0.00000000
0
LINE
8
DC
6
CONTINUOUS
62
7
10
  0.12666771
20
 -0.10385000
30
  0.00000000
11
  0.12693229
21
 -0.10385000
31
  0.00000000
0
LINE
8
DC
6
CONTINUOUS
62
7
10
  0.12662679
20
 -0.10380000
30
  0.00000000
11
  0.12697321
21
 -0.10380000
31
  0.00000000
0
LINE
8
DC
6
CONTINUOUS
62
7
10
  0.12660635
20
 -0.10375000
30
  0.00000000
11
  0.12699365
21
 -0.10375000
31
  0.00000000
0
LINE
8
DC
6
CONTINUOUS
62
7
10
  0.12660000
20
 -0.10370000
30
  0.00000000
11
  0.12700000
21
 -0.10370000
31
  0.00000000
0
LINE
8
DC
6
CONTINUOUS
62
7
10
  0.12660635
20
 -0.10365000
30
  0.00000000
11
  0.12699365
21
 -0.10365000
31
  0.00000000
0
LINE
8
DC
6
CONTINUOUS
62
7
10
  0.12662679
20
 -0.10360000
30
  0.00000000
11
  0.12697321
21
 -0.10360000
31
  0.00000000
0
LINE
8
DC
6
CONTINUOUS
62
7
10
  0.12666771
20
 -0.10355000
30
  0.00000000
11
  0.12693229
21
 -0.10355000
31
  0.00000000
0
CIRCLE
8
DC
6
CONTINUOUS
62
7
10
  0.12680000
20
 -0.10370000
30
  0.00000000
40
  0.00020000
0
LINE
8
DC
6
CONTINUOUS
62
7
10
  0.12780000
20
 -0.10390000
30
  0.00000000
11
  0.12780000
21
 -0.10390000
31
  0.00000000
0
LINE
8
DC
6
CONTINUOUS
62
7
10
  0.12766771
20
 -0.10385000
30
  0.00000000
11
  0.12793229
21
 -0.10385000
31
  0.00000000
0
LINE
8
DC
6
CONTINUOUS
62
7
10
  0.12762679
20
 -0.10380000
30
  0.00000000
11
  0.12797321
21
 -0.10380000
31
  0.00000000
0
LINE
8
DC
6
CONTINUOUS
62
7
10
  0.12760635
20
 -0.10375000
30
  0.00000000
11
  0.12799365
21
 -0.10375000
31
  0.00000000
0
LINE
8
DC
6
CONTINUOUS
62
7
10
  0.12760000
20
 -0.10370000
30
  0.00000000
11
  0.12800000
21
 -0.10370000
31
  0.00000000
0
LINE
8
DC
6
CONTINUOUS
62
7
10
  0.12760635
20
 -0.10365000
30
  0.00000000
11
  0.12799365
21
 -0.10365000
31
  0.00000000
0
LINE
8
DC
6
CONTINUOUS
62
7
10
  0.12762679
20
 -0.10360000
30
  0.00000000
11
  0.12797321
21
 -0.10360000
31
  0.00000000
0
LINE
8
DC
6
CONTINUOUS
62
7
10
  0.12766771
20
 -0.10355000
30
  0.00000000
11
  0.12793229
21
 -0.10355000
31
  0.00000000
0
CIRCLE
8
DC
6
CONTINUOUS
62
7
10
  0.12780000
20
 -0.10370000
30
  0.00000000
40
  0.00020000
0
LINE
8
DC
6
CONTINUOUS
62
7
10
  0.12880000
20
 -0.10390000
30
  0.00000000
11
  0.12880000
21
 -0.10390000
31
  0.00000000
0
LINE
8
DC
6
CONTINUOUS
62
7
10
  0.12866771
20
 -0.10385000
30
  0.00000000
11
  0.12893229
21
 -0.10385000
31
  0.00000000
0
LINE
8
DC
6
CONTINUOUS
62
7
10
  0.12862679
20
 -0.10380000
30
  0.00000000
11
  0.12897321
21
 -0.10380000
31
  0.00000000
0
LINE
8
DC
6
CONTINUOUS
62
7
10
  0.12860635
20
 -0.10375000
30
  0.00000000
11
  0.12899365
21
 -0.10375000
31
  0.00000000
0
LINE
8
DC
6
CONTINUOUS
62
7
10
  0.12860000
20
 -0.10370000
30
  0.00000000
11
  0.12900000
21
 -0.10370000
31
  0.00000000
0
LINE
8
DC
6
CONTINUOUS
62
7
10
  0.12860635
20
 -0.10365000
30
  0.00000000
11
  0.12899365
21
 -0.10365000
31
  0.00000000
0
LINE
8
DC
6
CONTINUOUS
62
7
10
  0.12862679
20
 -0.10360000
30
  0.00000000
11
  0.12897321
21
 -0.10360000
31
  0.00000000
0
LINE
8
DC
6
CONTINUOUS
62
7
10
  0.12866771
20
 -0.10355000
30
  0.00000000
11
  0.12893229
21
 -0.10355000
31
  0.00000000
0
CIRCLE
8
DC
6
CONTINUOUS
62
7
10
  0.12880000
20
 -0.10370000
30
  0.00000000
40
  0.00020000
0
LINE
8
DC
6
CONTINUOUS
62
7
10
  0.12480000
20
 -0.10610000
30
  0.00000000
11
  0.12480000
21
 -0.10610000
31
  0.00000000
0
LINE
8
DC
6
CONTINUOUS
62
7
10
  0.12466771
20
 -0.10605000
30
  0.00000000
11
  0.12493229
21
 -0.10605000
31
  0.00000000
0
LINE
8
DC
6
CONTINUOUS
62
7
10
  0.12462679
20
 -0.10600000
30
  0.00000000
11
  0.12497321
21
 -0.10600000
31
  0.00000000
0
LINE
8
DC
6
CONTINUOUS
62
7
10
  0.12460635
20
 -0.10595000
30
  0.00000000
11
  0.12499365
21
 -0.10595000
31
  0.00000000
0
LINE
8
DC
6
CONTINUOUS
62
7
10
  0.12460000
20
 -0.10590000
30
  0.00000000
11
  0.12500000
21
 -0.10590000
31
  0.00000000
0
LINE
8
DC
6
CONTINUOUS
62
7
10
  0.12460635
20
 -0.10585000
30
  0.00000000
11
  0.12499365
21
 -0.10585000
31
  0.00000000
0
LINE
8
DC
6
CONTINUOUS
62
7
10
  0.12462679
20
 -0.10580000
30
  0.00000000
11
  0.12497321
21
 -0.10580000
31
  0.00000000
0
LINE
8
DC
6
CONTINUOUS
62
7
10
  0.12466771
20
 -0.10575000
30
  0.00000000
11
  0.12493229
21
 -0.10575000
31
  0.00000000
0
CIRCLE
8
DC
6
CONTINUOUS
62
7
10
  0.12480000
20
 -0.10590000
30
  0.00000000
40
  0.00020000
0
LINE
8
DC
6
CONTINUOUS
62
7
10
  0.12580000
20
 -0.10610000
30
  0.00000000
11
  0.12580000
21
 -0.10610000
31
  0.00000000
0
LINE
8
DC
6
CONTINUOUS
62
7
10
  0.12566771
20
 -0.10605000
30
  0.00000000
11
  0.12593229
21
 -0.10605000
31
  0.00000000
0
LINE
8
DC
6
CONTINUOUS
62
7
10
  0.12562679
20
 -0.10600000
30
  0.00000000
11
  0.12597321
21
 -0.10600000
31
  0.00000000
0
LINE
8
DC
6
CONTINUOUS
62
7
10
  0.12560635
20
 -0.10595000
30
  0.00000000
11
  0.12599365
21
 -0.10595000
31
  0.00000000
0
LINE
8
DC
6
CONTINUOUS
62
7
10
  0.12560000
20
 -0.10590000
30
  0.00000000
11
  0.12600000
21
 -0.10590000
31
  0.00000000
0
LINE
8
DC
6
CONTINUOUS
62
7
10
  0.12560635
20
 -0.10585000
30
  0.00000000
11
  0.12599365
21
 -0.10585000
31
  0.00000000
0
LINE
8
DC
6
CONTINUOUS
62
7
10
  0.12562679
20
 -0.10580000
30
  0.00000000
11
  0.12597321
21
 -0.10580000
31
  0.00000000
0
LINE
8
DC
6
CONTINUOUS
62
7
10
  0.12566771
20
 -0.10575000
30
  0.00000000
11
  0.12593229
21
 -0.10575000
31
  0.00000000
0
CIRCLE
8
DC
6
CONTINUOUS
62
7
10
  0.12580000
20
 -0.10590000
30
  0.00000000
40
  0.00020000
0
LINE
8
DC
6
CONTINUOUS
62
7
10
  0.12680000
20
 -0.10610000
30
  0.00000000
11
  0.12680000
21
 -0.10610000
31
  0.00000000
0
LINE
8
DC
6
CONTINUOUS
62
7
10
  0.12666771
20
 -0.10605000
30
  0.00000000
11
  0.12693229
21
 -0.10605000
31
  0.00000000
0
LINE
8
DC
6
CONTINUOUS
62
7
10
  0.12662679
20
 -0.10600000
30
  0.00000000
11
  0.12697321
21
 -0.10600000
31
  0.00000000
0
LINE
8
DC
6
CONTINUOUS
62
7
10
  0.12660635
20
 -0.10595000
30
  0.00000000
11
  0.12699365
21
 -0.10595000
31
  0.00000000
0
LINE
8
DC
6
CONTINUOUS
62
7
10
  0.12660000
20
 -0.10590000
30
  0.00000000
11
  0.12700000
21
 -0.10590000
31
  0.00000000
0
LINE
8
DC
6
CONTINUOUS
62
7
10
  0.12660635
20
 -0.10585000
30
  0.00000000
11
  0.12699365
21
 -0.10585000
31
  0.00000000
0
LINE
8
DC
6
CONTINUOUS
62
7
10
  0.12662679
20
 -0.10580000
30
  0.00000000
11
  0.12697321
21
 -0.10580000
31
  0.00000000
0
LINE
8
DC
6
CONTINUOUS
62
7
10
  0.12666771
20
 -0.10575000
30
  0.00000000
11
  0.12693229
21
 -0.10575000
31
  0.00000000
0
CIRCLE
8
DC
6
CONTINUOUS
62
7
10
  0.12680000
20
 -0.10590000
30
  0.00000000
40
  0.00020000
0
LINE
8
DC
6
CONTINUOUS
62
7
10
  0.12780000
20
 -0.10610000
30
  0.00000000
11
  0.12780000
21
 -0.10610000
31
  0.00000000
0
LINE
8
DC
6
CONTINUOUS
62
7
10
  0.12766771
20
 -0.10605000
30
  0.00000000
11
  0.12793229
21
 -0.10605000
31
  0.00000000
0
LINE
8
DC
6
CONTINUOUS
62
7
10
  0.12762679
20
 -0.10600000
30
  0.00000000
11
  0.12797321
21
 -0.10600000
31
  0.00000000
0
LINE
8
DC
6
CONTINUOUS
62
7
10
  0.12760635
20
 -0.10595000
30
  0.00000000
11
  0.12799365
21
 -0.10595000
31
  0.00000000
0
LINE
8
DC
6
CONTINUOUS
62
7
10
  0.12760000
20
 -0.10590000
30
  0.00000000
11
  0.12800000
21
 -0.10590000
31
  0.00000000
0
LINE
8
DC
6
CONTINUOUS
62
7
10
  0.12760635
20
 -0.10585000
30
  0.00000000
11
  0.12799365
21
 -0.10585000
31
  0.00000000
0
LINE
8
DC
6
CONTINUOUS
62
7
10
  0.12762679
20
 -0.10580000
30
  0.00000000
11
  0.12797321
21
 -0.10580000
31
  0.00000000
0
LINE
8
DC
6
CONTINUOUS
62
7
10
  0.12766771
20
 -0.10575000
30
  0.00000000
11
  0.12793229
21
 -0.10575000
31
  0.00000000
0
CIRCLE
8
DC
6
CONTINUOUS
62
7
10
  0.12780000
20
 -0.10590000
30
  0.00000000
40
  0.00020000
0
LINE
8
DC
6
CONTINUOUS
62
7
10
  0.12880000
20
 -0.10610000
30
  0.00000000
11
  0.12880000
21
 -0.10610000
31
  0.00000000
0
LINE
8
DC
6
CONTINUOUS
62
7
10
  0.12866771
20
 -0.10605000
30
  0.00000000
11
  0.12893229
21
 -0.10605000
31
  0.00000000
0
LINE
8
DC
6
CONTINUOUS
62
7
10
  0.12862679
20
 -0.10600000
30
  0.00000000
11
  0.12897321
21
 -0.10600000
31
  0.00000000
0
LINE
8
DC
6
CONTINUOUS
62
7
10
  0.12860635
20
 -0.10595000
30
  0.00000000
11
  0.12899365
21
 -0.10595000
31
  0.00000000
0
LINE
8
DC
6
CONTINUOUS
62
7
10
  0.12860000
20
 -0.10590000
30
  0.00000000
11
  0.12900000
21
 -0.10590000
31
  0.00000000
0
LINE
8
DC
6
CONTINUOUS
62
7
10
  0.12860635
20
 -0.10585000
30
  0.00000000
11
  0.12899365
21
 -0.10585000
31
  0.00000000
0
LINE
8
DC
6
CONTINUOUS
62
7
10
  0.12862679
20
 -0.10580000
30
  0.00000000
11
  0.12897321
21
 -0.10580000
31
  0.00000000
0
LINE
8
DC
6
CONTINUOUS
62
7
10
  0.12866771
20
 -0.10575000
30
  0.00000000
11
  0.12893229
21
 -0.10575000
31
  0.00000000
0
CIRCLE
8
DC
6
CONTINUOUS
62
7
10
  0.12880000
20
 -0.10590000
30
  0.00000000
40
  0.00020000
0
LINE
8
DC
6
CONTINUOUS
62
7
10
  0.12530000
20
 -0.10500000
30
  0.00000000
11
  0.12530000
21
 -0.10500000
31
  0.00000000
0
LINE
8
DC
6
CONTINUOUS
62
7
10
  0.12516771
20
 -0.10495000
30
  0.00000000
11
  0.12543229
21
 -0.10495000
31
  0.00000000
0
LINE
8
DC
6
CONTINUOUS
62
7
10
  0.12512679
20
 -0.10490000
30
  0.00000000
11
  0.12547321
21
 -0.10490000
31
  0.00000000
0
LINE
8
DC
6
CONTINUOUS
62
7
10
  0.12510635
20
 -0.10485000
30
  0.00000000
11
  0.12549365
21
 -0.10485000
31
  0.00000000
0
LINE
8
DC
6
CONTINUOUS
62
7
10
  0.12510000
20
 -0.10480000
30
  0.00000000
11
  0.12550000
21
 -0.10480000
31
  0.00000000
0
LINE
8
DC
6
CONTINUOUS
62
7
10
  0.12510635
20
 -0.10475000
30
  0.00000000
11
  0.12549365
21
 -0.10475000
31
  0.00000000
0
LINE
8
DC
6
CONTINUOUS
62
7
10
  0.12512679
20
 -0.10470000
30
  0.00000000
11
  0.12547321
21
 -0.10470000
31
  0.00000000
0
LINE
8
DC
6
CONTINUOUS
62
7
10
  0.12516771
20
 -0.10465000
30
  0.00000000
11
  0.12543229
21
 -0.10465000
31
  0.00000000
0
CIRCLE
8
DC
6
CONTINUOUS
62
7
10
  0.12530000
20
 -0.10480000
30
  0.00000000
40
  0.00020000
0
LINE
8
DC
6
CONTINUOUS
62
7
10
  0.12630000
20
 -0.10500000
30
  0.00000000
11
  0.12630000
21
 -0.10500000
31
  0.00000000
0
LINE
8
DC
6
CONTINUOUS
62
7
10
  0.12616771
20
 -0.10495000
30
  0.00000000
11
  0.12643229
21
 -0.10495000
31
  0.00000000
0
LINE
8
DC
6
CONTINUOUS
62
7
10
  0.12612679
20
 -0.10490000
30
  0.00000000
11
  0.12647321
21
 -0.10490000
31
  0.00000000
0
LINE
8
DC
6
CONTINUOUS
62
7
10
  0.12610635
20
 -0.10485000
30
  0.00000000
11
  0.12649365
21
 -0.10485000
31
  0.00000000
0
LINE
8
DC
6
CONTINUOUS
62
7
10
  0.12610000
20
 -0.10480000
30
  0.00000000
11
  0.12650000
21
 -0.10480000
31
  0.00000000
0
LINE
8
DC
6
CONTINUOUS
62
7
10
  0.12610635
20
 -0.10475000
30
  0.00000000
11
  0.12649365
21
 -0.10475000
31
  0.00000000
0
LINE
8
DC
6
CONTINUOUS
62
7
10
  0.12612679
20
 -0.10470000
30
  0.00000000
11
  0.12647321
21
 -0.10470000
31
  0.00000000
0
LINE
8
DC
6
CONTINUOUS
62
7
10
  0.12616771
20
 -0.10465000
30
  0.00000000
11
  0.12643229
21
 -0.10465000
31
  0.00000000
0
CIRCLE
8
DC
6
CONTINUOUS
62
7
10
  0.12630000
20
 -0.10480000
30
  0.00000000
40
  0.00020000
0
LINE
8
DC
6
CONTINUOUS
62
7
10
  0.12730000
20
 -0.10500000
30
  0.00000000
11
  0.12730000
21
 -0.10500000
31
  0.00000000
0
LINE
8
DC
6
CONTINUOUS
62
7
10
  0.12716771
20
 -0.10495000
30
  0.00000000
11
  0.12743229
21
 -0.10495000
31
  0.00000000
0
LINE
8
DC
6
CONTINUOUS
62
7
10
  0.12712679
20
 -0.10490000
30
  0.00000000
11
  0.12747321
21
 -0.10490000
31
  0.00000000
0
LINE
8
DC
6
CONTINUOUS
62
7
10
  0.12710635
20
 -0.10485000
30
  0.00000000
11
  0.12749365
21
 -0.10485000
31
  0.00000000
0
LINE
8
DC
6
CONTINUOUS
62
7
10
  0.12710000
20
 -0.10480000
30
  0.00000000
11
  0.12750000
21
 -0.10480000
31
  0.00000000
0
LINE
8
DC
6
CONTINUOUS
62
7
10
  0.12710635
20
 -0.10475000
30
  0.00000000
11
  0.12749365
21
 -0.10475000
31
  0.00000000
0
LINE
8
DC
6
CONTINUOUS
62
7
10
  0.12712679
20
 -0.10470000
30
  0.00000000
11
  0.12747321
21
 -0.10470000
31
  0.00000000
0
LINE
8
DC
6
CONTINUOUS
62
7
10
  0.12716771
20
 -0.10465000
30
  0.00000000
11
  0.12743229
21
 -0.10465000
31
  0.00000000
0
CIRCLE
8
DC
6
CONTINUOUS
62
7
10
  0.12730000
20
 -0.10480000
30
  0.00000000
40
  0.00020000
0
LINE
8
DC
6
CONTINUOUS
62
7
10
  0.12830000
20
 -0.10500000
30
  0.00000000
11
  0.12830000
21
 -0.10500000
31
  0.00000000
0
LINE
8
DC
6
CONTINUOUS
62
7
10
  0.12816771
20
 -0.10495000
30
  0.00000000
11
  0.12843229
21
 -0.10495000
31
  0.00000000
0
LINE
8
DC
6
CONTINUOUS
62
7
10
  0.12812679
20
 -0.10490000
30
  0.00000000
11
  0.12847321
21
 -0.10490000
31
  0.00000000
0
LINE
8
DC
6
CONTINUOUS
62
7
10
  0.12810635
20
 -0.10485000
30
  0.00000000
11
  0.12849365
21
 -0.10485000
31
  0.00000000
0
LINE
8
DC
6
CONTINUOUS
62
7
10
  0.12810000
20
 -0.10480000
30
  0.00000000
11
  0.12850000
21
 -0.10480000
31
  0.00000000
0
LINE
8
DC
6
CONTINUOUS
62
7
10
  0.12810635
20
 -0.10475000
30
  0.00000000
11
  0.12849365
21
 -0.10475000
31
  0.00000000
0
LINE
8
DC
6
CONTINUOUS
62
7
10
  0.12812679
20
 -0.10470000
30
  0.00000000
11
  0.12847321
21
 -0.10470000
31
  0.00000000
0
LINE
8
DC
6
CONTINUOUS
62
7
10
  0.12816771
20
 -0.10465000
30
  0.00000000
11
  0.12843229
21
 -0.10465000
31
  0.00000000
0
CIRCLE
8
DC
6
CONTINUOUS
62
7
10
  0.12830000
20
 -0.10480000
30
  0.00000000
40
  0.00020000
0
LINE
8
DC
6
CONTINUOUS
62
7
10
  0.12930000
20
 -0.10500000
30
  0.00000000
11
  0.12930000
21
 -0.10500000
31
  0.00000000
0
LINE
8
DC
6
CONTINUOUS
62
7
10
  0.12916771
20
 -0.10495000
30
  0.00000000
11
  0.12943229
21
 -0.10495000
31
  0.00000000
0
LINE
8
DC
6
CONTINUOUS
62
7
10
  0.12912679
20
 -0.10490000
30
  0.00000000
11
  0.12947321
21
 -0.10490000
31
  0.00000000
0
LINE
8
DC
6
CONTINUOUS
62
7
10
  0.12910635
20
 -0.10485000
30
  0.00000000
11
  0.12949365
21
 -0.10485000
31
  0.00000000
0
LINE
8
DC
6
CONTINUOUS
62
7
10
  0.12910000
20
 -0.10480000
30
  0.00000000
11
  0.12950000
21
 -0.10480000
31
  0.00000000
0
LINE
8
DC
6
CONTINUOUS
62
7
10
  0.12910635
20
 -0.10475000
30
  0.00000000
11
  0.12949365
21
 -0.10475000
31
  0.00000000
0
LINE
8
DC
6
CONTINUOUS
62
7
10
  0.12912679
20
 -0.10470000
30
  0.00000000
11
  0.12947321
21
 -0.10470000
31
  0.00000000
0
LINE
8
DC
6
CONTINUOUS
62
7
10
  0.12916771
20
 -0.10465000
30
  0.00000000
11
  0.12943229
21
 -0.10465000
31
  0.00000000
0
CIRCLE
8
DC
6
CONTINUOUS
62
7
10
  0.12930000
20
 -0.10480000
30
  0.00000000
40
  0.00020000
0
TEXT
8
DC
62
7
10
  0.12710000
20
 -0.10670000
30
  0.00000000
40
  0.00325000
41
  0.60000000
1
A
50
  0.00000000
72
1
73
3
11
  0.12710000
21
 -0.10670000
31
  0.00000000
0
LINE
8
DC
6
CONTINUOUS
62
7
10
  0.12510000
20
 -0.11230000
30
  0.00000000
11
  0.12810000
21
 -0.11230000
31
  0.00000000
0
LINE
8
DC
6
CONTINUOUS
62
7
10
  0.12610000
20
 -0.11390000
30
  0.00000000
11
  0.12910000
21
 -0.11390000
31
  0.00000000
0
LINE
8
DC
6
CONTINUOUS
62
7
10
  0.12620000
20
 -0.11690000
30
  0.00000000
11
  0.12620000
21
 -0.11690000
31
  0.00000000
0
LINE
8
DC
6
CONTINUOUS
62
7
10
  0.12598206
20
 -0.11685000
30
  0.00000000
11
  0.12641794
21
 -0.11685000
31
  0.00000000
0
LINE
8
DC
6
CONTINUOUS
62
7
10
  0.12590000
20
 -0.11680000
30
  0.00000000
11
  0.12650000
21
 -0.11680000
31
  0.00000000
0
LINE
8
DC
6
CONTINUOUS
62
7
10
  0.12584293
20
 -0.11675000
30
  0.00000000
11
  0.12655707
21
 -0.11675000
31
  0.00000000
0
LINE
8
DC
6
CONTINUOUS
62
7
10
  0.12580000
20
 -0.11670000
30
  0.00000000
11
  0.12660000
21
 -0.11670000
31
  0.00000000
0
LINE
8
DC
6
CONTINUOUS
62
7
10
  0.12576699
20
 -0.11665000
30
  0.00000000
11
  0.12663301
21
 -0.11665000
31
  0.00000000
0
LINE
8
DC
6
CONTINUOUS
62
7
10
  0.12574174
20
 -0.11660000
30
  0.00000000
11
  0.12665826
21
 -0.11660000
31
  0.00000000
0
LINE
8
DC
6
CONTINUOUS
62
7
10
  0.12572303
20
 -0.11655000
30
  0.00000000
11
  0.12667697
21
 -0.11655000
31
  0.00000000
0
LINE
8
DC
6
CONTINUOUS
62
7
10
  0.12571010
20
 -0.11650000
30
  0.00000000
11
  0.12668990
21
 -0.11650000
31
  0.00000000
0
LINE
8
DC
6
CONTINUOUS
62
7
10
  0.12570251
20
 -0.11645000
30
  0.00000000
11
  0.12669749
21
 -0.11645000
31
  0.00000000
0
LINE
8
DC
6
CONTINUOUS
62
7
10
  0.12570000
20
 -0.11640000
30
  0.00000000
11
  0.12670000
21
 -0.11640000
31
  0.00000000
0
LINE
8
DC
6
CONTINUOUS
62
7
10
  0.12570251
20
 -0.11635000
30
  0.00000000
11
  0.12669749
21
 -0.11635000
31
  0.00000000
0
LINE
8
DC
6
CONTINUOUS
62
7
10
  0.12571010
20
 -0.11630000
30
  0.00000000
11
  0.12668990
21
 -0.11630000
31
  0.00000000
0
LINE
8
DC
6
CONTINUOUS
62
7
10
  0.12572303
20
 -0.11625000
30
  0.00000000
11
  0.12667697
21
 -0.11625000
31
  0.00000000
0
LINE
8
DC
6
CONTINUOUS
62
7
10
  0.12574174
20
 -0.11620000
30
  0.00000000
11
  0.12665826
21
 -0.11620000
31
  0.00000000
0
LINE
8
DC
6
CONTINUOUS
62
7
10
  0.12576699
20
 -0.11615000
30
  0.00000000
11
  0.12663301
21
 -0.11615000
31
  0.00000000
0
LINE
8
DC
6
CONTINUOUS
62
7
10
  0.12580000
20
 -0.11610000
30
  0.00000000
11
  0.12660000
21
 -0.11610000
31
  0.00000000
0
LINE
8
DC
6
CONTINUOUS
62
7
10
  0.12584293
20
 -0.11605000
30
  0.00000000
11
  0.12655707
21
 -0.11605000
31
  0.00000000
0
LINE
8
DC
6
CONTINUOUS
62
7
10
  0.12590000
20
 -0.11600000
30
  0.00000000
11
  0.12650000
21
 -0.11600000
31
  0.00000000
0
LINE
8
DC
6
CONTINUOUS
62
7
10
  0.12598206
20
 -0.11595000
30
  0.00000000
11
  0.12641794
21
 -0.11595000
31
  0.00000000
0
CIRCLE
8
DC
6
CONTINUOUS
62
7
10
  0.12620000
20
 -0.11640000
30
  0.00000000
40
  0.00050000
0
LINE
8
DC
6
CONTINUOUS
62
7
10
  0.12780000
20
 -0.11690000
30
  0.00000000
11
  0.12780000
21
 -0.11690000
31
  0.00000000
0
LINE
8
DC
6
CONTINUOUS
62
7
10
  0.12758206
20
 -0.11685000
30
  0.00000000
11
  0.12801794
21
 -0.11685000
31
  0.00000000
0
LINE
8
DC
6
CONTINUOUS
62
7
10
  0.12750000
20
 -0.11680000
30
  0.00000000
11
  0.12810000
21
 -0.11680000
31
  0.00000000
0
LINE
8
DC
6
CONTINUOUS
62
7
10
  0.12744293
20
 -0.11675000
30
  0.00000000
11
  0.12815707
21
 -0.11675000
31
  0.00000000
0
LINE
8
DC
6
CONTINUOUS
62
7
10
  0.12740000
20
 -0.11670000
30
  0.00000000
11
  0.12820000
21
 -0.11670000
31
  0.00000000
0
LINE
8
DC
6
CONTINUOUS
62
7
10
  0.12736699
20
 -0.11665000
30
  0.00000000
11
  0.12823301
21
 -0.11665000
31
  0.00000000
0
LINE
8
DC
6
CONTINUOUS
62
7
10
  0.12734174
20
 -0.11660000
30
  0.00000000
11
  0.12825826
21
 -0.11660000
31
  0.00000000
0
LINE
8
DC
6
CONTINUOUS
62
7
10
  0.12732303
20
 -0.11655000
30
  0.00000000
11
  0.12827697
21
 -0.11655000
31
  0.00000000
0
LINE
8
DC
6
CONTINUOUS
62
7
10
  0.12731010
20
 -0.11650000
30
  0.00000000
11
  0.12828990
21
 -0.11650000
31
  0.00000000
0
LINE
8
DC
6
CONTINUOUS
62
7
10
  0.12730251
20
 -0.11645000
30
  0.00000000
11
  0.12829749
21
 -0.11645000
31
  0.00000000
0
LINE
8
DC
6
CONTINUOUS
62
7
10
  0.12730000
20
 -0.11640000
30
  0.00000000
11
  0.12830000
21
 -0.11640000
31
  0.00000000
0
LINE
8
DC
6
CONTINUOUS
62
7
10
  0.12730251
20
 -0.11635000
30
  0.00000000
11
  0.12829749
21
 -0.11635000
31
  0.00000000
0
LINE
8
DC
6
CONTINUOUS
62
7
10
  0.12731010
20
 -0.11630000
30
  0.00000000
11
  0.12828990
21
 -0.11630000
31
  0.00000000
0
LINE
8
DC
6
CONTINUOUS
62
7
10
  0.12732303
20
 -0.11625000
30
  0.00000000
11
  0.12827697
21
 -0.11625000
31
  0.00000000
0
LINE
8
DC
6
CONTINUOUS
62
7
10
  0.12734174
20
 -0.11620000
30
  0.00000000
11
  0.12825826
21
 -0.11620000
31
  0.00000000
0
LINE
8
DC
6
CONTINUOUS
62
7
10
  0.12736699
20
 -0.11615000
30
  0.00000000
11
  0.12823301
21
 -0.11615000
31
  0.00000000
0
LINE
8
DC
6
CONTINUOUS
62
7
10
  0.12740000
20
 -0.11610000
30
  0.00000000
11
  0.12820000
21
 -0.11610000
31
  0.00000000
0
LINE
8
DC
6
CONTINUOUS
62
7
10
  0.12744293
20
 -0.11605000
30
  0.00000000
11
  0.12815707
21
 -0.11605000
31
  0.00000000
0
LINE
8
DC
6
CONTINUOUS
62
7
10
  0.12750000
20
 -0.11600000
30
  0.00000000
11
  0.12810000
21
 -0.11600000
31
  0.00000000
0
LINE
8
DC
6
CONTINUOUS
62
7
10
  0.12758206
20
 -0.11595000
30
  0.00000000
11
  0.12801794
21
 -0.11595000
31
  0.00000000
0
CIRCLE
8
DC
6
CONTINUOUS
62
7
10
  0.12780000
20
 -0.11640000
30
  0.00000000
40
  0.00050000
0
LINE
8
DC
6
CONTINUOUS
62
7
10
  0.12560000
20
 -0.11690000
30
  0.00000000
11
  0.12860000
21
 -0.11690000
31
  0.00000000
0
LINE
8
DC
6
CONTINUOUS
62
7
10
  0.12480000
20
 -0.11880000
30
  0.00000000
11
  0.12480000
21
 -0.11880000
31
  0.00000000
0
LINE
8
DC
6
CONTINUOUS
62
7
10
  0.12466771
20
 -0.11875000
30
  0.00000000
11
  0.12493229
21
 -0.11875000
31
  0.00000000
0
LINE
8
DC
6
CONTINUOUS
62
7
10
  0.12462679
20
 -0.11870000
30
  0.00000000
11
  0.12497321
21
 -0.11870000
31
  0.00000000
0
LINE
8
DC
6
CONTINUOUS
62
7
10
  0.12460635
20
 -0.11865000
30
  0.00000000
11
  0.12499365
21
 -0.11865000
31
  0.00000000
0
LINE
8
DC
6
CONTINUOUS
62
7
10
  0.12460000
20
 -0.11860000
30
  0.00000000
11
  0.12500000
21
 -0.11860000
31
  0.00000000
0
LINE
8
DC
6
CONTINUOUS
62
7
10
  0.12460635
20
 -0.11855000
30
  0.00000000
11
  0.12499365
21
 -0.11855000
31
  0.00000000
0
LINE
8
DC
6
CONTINUOUS
62
7
10
  0.12462679
20
 -0.11850000
30
  0.00000000
11
  0.12497321
21
 -0.11850000
31
  0.00000000
0
LINE
8
DC
6
CONTINUOUS
62
7
10
  0.12466771
20
 -0.11845000
30
  0.00000000
11
  0.12493229
21
 -0.11845000
31
  0.00000000
0
CIRCLE
8
DC
6
CONTINUOUS
62
7
10
  0.12480000
20
 -0.11860000
30
  0.00000000
40
  0.00020000
0
LINE
8
DC
6
CONTINUOUS
62
7
10
  0.12580000
20
 -0.11880000
30
  0.00000000
11
  0.12580000
21
 -0.11880000
31
  0.00000000
0
LINE
8
DC
6
CONTINUOUS
62
7
10
  0.12566771
20
 -0.11875000
30
  0.00000000
11
  0.12593229
21
 -0.11875000
31
  0.00000000
0
LINE
8
DC
6
CONTINUOUS
62
7
10
  0.12562679
20
 -0.11870000
30
  0.00000000
11
  0.12597321
21
 -0.11870000
31
  0.00000000
0
LINE
8
DC
6
CONTINUOUS
62
7
10
  0.12560635
20
 -0.11865000
30
  0.00000000
11
  0.12599365
21
 -0.11865000
31
  0.00000000
0
LINE
8
DC
6
CONTINUOUS
62
7
10
  0.12560000
20
 -0.11860000
30
  0.00000000
11
  0.12600000
21
 -0.11860000
31
  0.00000000
0
LINE
8
DC
6
CONTINUOUS
62
7
10
  0.12560635
20
 -0.11855000
30
  0.00000000
11
  0.12599365
21
 -0.11855000
31
  0.00000000
0
LINE
8
DC
6
CONTINUOUS
62
7
10
  0.12562679
20
 -0.11850000
30
  0.00000000
11
  0.12597321
21
 -0.11850000
31
  0.00000000
0
LINE
8
DC
6
CONTINUOUS
62
7
10
  0.12566771
20
 -0.11845000
30
  0.00000000
11
  0.12593229
21
 -0.11845000
31
  0.00000000
0
CIRCLE
8
DC
6
CONTINUOUS
62
7
10
  0.12580000
20
 -0.11860000
30
  0.00000000
40
  0.00020000
0
LINE
8
DC
6
CONTINUOUS
62
7
10
  0.12680000
20
 -0.11880000
30
  0.00000000
11
  0.12680000
21
 -0.11880000
31
  0.00000000
0
LINE
8
DC
6
CONTINUOUS
62
7
10
  0.12666771
20
 -0.11875000
30
  0.00000000
11
  0.12693229
21
 -0.11875000
31
  0.00000000
0
LINE
8
DC
6
CONTINUOUS
62
7
10
  0.12662679
20
 -0.11870000
30
  0.00000000
11
  0.12697321
21
 -0.11870000
31
  0.00000000
0
LINE
8
DC
6
CONTINUOUS
62
7
10
  0.12660635
20
 -0.11865000
30
  0.00000000
11
  0.12699365
21
 -0.11865000
31
  0.00000000
0
LINE
8
DC
6
CONTINUOUS
62
7
10
  0.12660000
20
 -0.11860000
30
  0.00000000
11
  0.12700000
21
 -0.11860000
31
  0.00000000
0
LINE
8
DC
6
CONTINUOUS
62
7
10
  0.12660635
20
 -0.11855000
30
  0.00000000
11
  0.12699365
21
 -0.11855000
31
  0.00000000
0
LINE
8
DC
6
CONTINUOUS
62
7
10
  0.12662679
20
 -0.11850000
30
  0.00000000
11
  0.12697321
21
 -0.11850000
31
  0.00000000
0
LINE
8
DC
6
CONTINUOUS
62
7
10
  0.12666771
20
 -0.11845000
30
  0.00000000
11
  0.12693229
21
 -0.11845000
31
  0.00000000
0
CIRCLE
8
DC
6
CONTINUOUS
62
7
10
  0.12680000
20
 -0.11860000
30
  0.00000000
40
  0.00020000
0
LINE
8
DC
6
CONTINUOUS
62
7
10
  0.12780000
20
 -0.11880000
30
  0.00000000
11
  0.12780000
21
 -0.11880000
31
  0.00000000
0
LINE
8
DC
6
CONTINUOUS
62
7
10
  0.12766771
20
 -0.11875000
30
  0.00000000
11
  0.12793229
21
 -0.11875000
31
  0.00000000
0
LINE
8
DC
6
CONTINUOUS
62
7
10
  0.12762679
20
 -0.11870000
30
  0.00000000
11
  0.12797321
21
 -0.11870000
31
  0.00000000
0
LINE
8
DC
6
CONTINUOUS
62
7
10
  0.12760635
20
 -0.11865000
30
  0.00000000
11
  0.12799365
21
 -0.11865000
31
  0.00000000
0
LINE
8
DC
6
CONTINUOUS
62
7
10
  0.12760000
20
 -0.11860000
30
  0.00000000
11
  0.12800000
21
 -0.11860000
31
  0.00000000
0
LINE
8
DC
6
CONTINUOUS
62
7
10
  0.12760635
20
 -0.11855000
30
  0.00000000
11
  0.12799365
21
 -0.11855000
31
  0.00000000
0
LINE
8
DC
6
CONTINUOUS
62
7
10
  0.12762679
20
 -0.11850000
30
  0.00000000
11
  0.12797321
21
 -0.11850000
31
  0.00000000
0
LINE
8
DC
6
CONTINUOUS
62
7
10
  0.12766771
20
 -0.11845000
30
  0.00000000
11
  0.12793229
21
 -0.11845000
31
  0.00000000
0
CIRCLE
8
DC
6
CONTINUOUS
62
7
10
  0.12780000
20
 -0.11860000
30
  0.00000000
40
  0.00020000
0
LINE
8
DC
6
CONTINUOUS
62
7
10
  0.12880000
20
 -0.11880000
30
  0.00000000
11
  0.12880000
21
 -0.11880000
31
  0.00000000
0
LINE
8
DC
6
CONTINUOUS
62
7
10
  0.12866771
20
 -0.11875000
30
  0.00000000
11
  0.12893229
21
 -0.11875000
31
  0.00000000
0
LINE
8
DC
6
CONTINUOUS
62
7
10
  0.12862679
20
 -0.11870000
30
  0.00000000
11
  0.12897321
21
 -0.11870000
31
  0.00000000
0
LINE
8
DC
6
CONTINUOUS
62
7
10
  0.12860635
20
 -0.11865000
30
  0.00000000
11
  0.12899365
21
 -0.11865000
31
  0.00000000
0
LINE
8
DC
6
CONTINUOUS
62
7
10
  0.12860000
20
 -0.11860000
30
  0.00000000
11
  0.12900000
21
 -0.11860000
31
  0.00000000
0
LINE
8
DC
6
CONTINUOUS
62
7
10
  0.12860635
20
 -0.11855000
30
  0.00000000
11
  0.12899365
21
 -0.11855000
31
  0.00000000
0
LINE
8
DC
6
CONTINUOUS
62
7
10
  0.12862679
20
 -0.11850000
30
  0.00000000
11
  0.12897321
21
 -0.11850000
31
  0.00000000
0
LINE
8
DC
6
CONTINUOUS
62
7
10
  0.12866771
20
 -0.11845000
30
  0.00000000
11
  0.12893229
21
 -0.11845000
31
  0.00000000
0
CIRCLE
8
DC
6
CONTINUOUS
62
7
10
  0.12880000
20
 -0.11860000
30
  0.00000000
40
  0.00020000
0
LINE
8
DC
6
CONTINUOUS
62
7
10
  0.12480000
20
 -0.12100000
30
  0.00000000
11
  0.12480000
21
 -0.12100000
31
  0.00000000
0
LINE
8
DC
6
CONTINUOUS
62
7
10
  0.12466771
20
 -0.12095000
30
  0.00000000
11
  0.12493229
21
 -0.12095000
31
  0.00000000
0
LINE
8
DC
6
CONTINUOUS
62
7
10
  0.12462679
20
 -0.12090000
30
  0.00000000
11
  0.12497321
21
 -0.12090000
31
  0.00000000
0
LINE
8
DC
6
CONTINUOUS
62
7
10
  0.12460635
20
 -0.12085000
30
  0.00000000
11
  0.12499365
21
 -0.12085000
31
  0.00000000
0
LINE
8
DC
6
CONTINUOUS
62
7
10
  0.12460000
20
 -0.12080000
30
  0.00000000
11
  0.12500000
21
 -0.12080000
31
  0.00000000
0
LINE
8
DC
6
CONTINUOUS
62
7
10
  0.12460635
20
 -0.12075000
30
  0.00000000
11
  0.12499365
21
 -0.12075000
31
  0.00000000
0
LINE
8
DC
6
CONTINUOUS
62
7
10
  0.12462679
20
 -0.12070000
30
  0.00000000
11
  0.12497321
21
 -0.12070000
31
  0.00000000
0
LINE
8
DC
6
CONTINUOUS
62
7
10
  0.12466771
20
 -0.12065000
30
  0.00000000
11
  0.12493229
21
 -0.12065000
31
  0.00000000
0
CIRCLE
8
DC
6
CONTINUOUS
62
7
10
  0.12480000
20
 -0.12080000
30
  0.00000000
40
  0.00020000
0
LINE
8
DC
6
CONTINUOUS
62
7
10
  0.12580000
20
 -0.12100000
30
  0.00000000
11
  0.12580000
21
 -0.12100000
31
  0.00000000
0
LINE
8
DC
6
CONTINUOUS
62
7
10
  0.12566771
20
 -0.12095000
30
  0.00000000
11
  0.12593229
21
 -0.12095000
31
  0.00000000
0
LINE
8
DC
6
CONTINUOUS
62
7
10
  0.12562679
20
 -0.12090000
30
  0.00000000
11
  0.12597321
21
 -0.12090000
31
  0.00000000
0
LINE
8
DC
6
CONTINUOUS
62
7
10
  0.12560635
20
 -0.12085000
30
  0.00000000
11
  0.12599365
21
 -0.12085000
31
  0.00000000
0
LINE
8
DC
6
CONTINUOUS
62
7
10
  0.12560000
20
 -0.12080000
30
  0.00000000
11
  0.12600000
21
 -0.12080000
31
  0.00000000
0
LINE
8
DC
6
CONTINUOUS
62
7
10
  0.12560635
20
 -0.12075000
30
  0.00000000
11
  0.12599365
21
 -0.12075000
31
  0.00000000
0
LINE
8
DC
6
CONTINUOUS
62
7
10
  0.12562679
20
 -0.12070000
30
  0.00000000
11
  0.12597321
21
 -0.12070000
31
  0.00000000
0
LINE
8
DC
6
CONTINUOUS
62
7
10
  0.12566771
20
 -0.12065000
30
  0.00000000
11
  0.12593229
21
 -0.12065000
31
  0.00000000
0
CIRCLE
8
DC
6
CONTINUOUS
62
7
10
  0.12580000
20
 -0.12080000
30
  0.00000000
40
  0.00020000
0
LINE
8
DC
6
CONTINUOUS
62
7
10
  0.12680000
20
 -0.12100000
30
  0.00000000
11
  0.12680000
21
 -0.12100000
31
  0.00000000
0
LINE
8
DC
6
CONTINUOUS
62
7
10
  0.12666771
20
 -0.12095000
30
  0.00000000
11
  0.12693229
21
 -0.12095000
31
  0.00000000
0
LINE
8
DC
6
CONTINUOUS
62
7
10
  0.12662679
20
 -0.12090000
30
  0.00000000
11
  0.12697321
21
 -0.12090000
31
  0.00000000
0
LINE
8
DC
6
CONTINUOUS
62
7
10
  0.12660635
20
 -0.12085000
30
  0.00000000
11
  0.12699365
21
 -0.12085000
31
  0.00000000
0
LINE
8
DC
6
CONTINUOUS
62
7
10
  0.12660000
20
 -0.12080000
30
  0.00000000
11
  0.12700000
21
 -0.12080000
31
  0.00000000
0
LINE
8
DC
6
CONTINUOUS
62
7
10
  0.12660635
20
 -0.12075000
30
  0.00000000
11
  0.12699365
21
 -0.12075000
31
  0.00000000
0
LINE
8
DC
6
CONTINUOUS
62
7
10
  0.12662679
20
 -0.12070000
30
  0.00000000
11
  0.12697321
21
 -0.12070000
31
  0.00000000
0
LINE
8
DC
6
CONTINUOUS
62
7
10
  0.12666771
20
 -0.12065000
30
  0.00000000
11
  0.12693229
21
 -0.12065000
31
  0.00000000
0
CIRCLE
8
DC
6
CONTINUOUS
62
7
10
  0.12680000
20
 -0.12080000
30
  0.00000000
40
  0.00020000
0
LINE
8
DC
6
CONTINUOUS
62
7
10
  0.12780000
20
 -0.12100000
30
  0.00000000
11
  0.12780000
21
 -0.12100000
31
  0.00000000
0
LINE
8
DC
6
CONTINUOUS
62
7
10
  0.12766771
20
 -0.12095000
30
  0.00000000
11
  0.12793229
21
 -0.12095000
31
  0.00000000
0
LINE
8
DC
6
CONTINUOUS
62
7
10
  0.12762679
20
 -0.12090000
30
  0.00000000
11
  0.12797321
21
 -0.12090000
31
  0.00000000
0
LINE
8
DC
6
CONTINUOUS
62
7
10
  0.12760635
20
 -0.12085000
30
  0.00000000
11
  0.12799365
21
 -0.12085000
31
  0.00000000
0
LINE
8
DC
6
CONTINUOUS
62
7
10
  0.12760000
20
 -0.12080000
30
  0.00000000
11
  0.12800000
21
 -0.12080000
31
  0.00000000
0
LINE
8
DC
6
CONTINUOUS
62
7
10
  0.12760635
20
 -0.12075000
30
  0.00000000
11
  0.12799365
21
 -0.12075000
31
  0.00000000
0
LINE
8
DC
6
CONTINUOUS
62
7
10
  0.12762679
20
 -0.12070000
30
  0.00000000
11
  0.12797321
21
 -0.12070000
31
  0.00000000
0
LINE
8
DC
6
CONTINUOUS
62
7
10
  0.12766771
20
 -0.12065000
30
  0.00000000
11
  0.12793229
21
 -0.12065000
31
  0.00000000
0
CIRCLE
8
DC
6
CONTINUOUS
62
7
10
  0.12780000
20
 -0.12080000
30
  0.00000000
40
  0.00020000
0
LINE
8
DC
6
CONTINUOUS
62
7
10
  0.12880000
20
 -0.12100000
30
  0.00000000
11
  0.12880000
21
 -0.12100000
31
  0.00000000
0
LINE
8
DC
6
CONTINUOUS
62
7
10
  0.12866771
20
 -0.12095000
30
  0.00000000
11
  0.12893229
21
 -0.12095000
31
  0.00000000
0
LINE
8
DC
6
CONTINUOUS
62
7
10
  0.12862679
20
 -0.12090000
30
  0.00000000
11
  0.12897321
21
 -0.12090000
31
  0.00000000
0
LINE
8
DC
6
CONTINUOUS
62
7
10
  0.12860635
20
 -0.12085000
30
  0.00000000
11
  0.12899365
21
 -0.12085000
31
  0.00000000
0
LINE
8
DC
6
CONTINUOUS
62
7
10
  0.12860000
20
 -0.12080000
30
  0.00000000
11
  0.12900000
21
 -0.12080000
31
  0.00000000
0
LINE
8
DC
6
CONTINUOUS
62
7
10
  0.12860635
20
 -0.12075000
30
  0.00000000
11
  0.12899365
21
 -0.12075000
31
  0.00000000
0
LINE
8
DC
6
CONTINUOUS
62
7
10
  0.12862679
20
 -0.12070000
30
  0.00000000
11
  0.12897321
21
 -0.12070000
31
  0.00000000
0
LINE
8
DC
6
CONTINUOUS
62
7
10
  0.12866771
20
 -0.12065000
30
  0.00000000
11
  0.12893229
21
 -0.12065000
31
  0.00000000
0
CIRCLE
8
DC
6
CONTINUOUS
62
7
10
  0.12880000
20
 -0.12080000
30
  0.00000000
40
  0.00020000
0
LINE
8
DC
6
CONTINUOUS
62
7
10
  0.12530000
20
 -0.11990000
30
  0.00000000
11
  0.12530000
21
 -0.11990000
31
  0.00000000
0
LINE
8
DC
6
CONTINUOUS
62
7
10
  0.12516771
20
 -0.11985000
30
  0.00000000
11
  0.12543229
21
 -0.11985000
31
  0.00000000
0
LINE
8
DC
6
CONTINUOUS
62
7
10
  0.12512679
20
 -0.11980000
30
  0.00000000
11
  0.12547321
21
 -0.11980000
31
  0.00000000
0
LINE
8
DC
6
CONTINUOUS
62
7
10
  0.12510635
20
 -0.11975000
30
  0.00000000
11
  0.12549365
21
 -0.11975000
31
  0.00000000
0
LINE
8
DC
6
CONTINUOUS
62
7
10
  0.12510000
20
 -0.11970000
30
  0.00000000
11
  0.12550000
21
 -0.11970000
31
  0.00000000
0
LINE
8
DC
6
CONTINUOUS
62
7
10
  0.12510635
20
 -0.11965000
30
  0.00000000
11
  0.12549365
21
 -0.11965000
31
  0.00000000
0
LINE
8
DC
6
CONTINUOUS
62
7
10
  0.12512679
20
 -0.11960000
30
  0.00000000
11
  0.12547321
21
 -0.11960000
31
  0.00000000
0
LINE
8
DC
6
CONTINUOUS
62
7
10
  0.12516771
20
 -0.11955000
30
  0.00000000
11
  0.12543229
21
 -0.11955000
31
  0.00000000
0
CIRCLE
8
DC
6
CONTINUOUS
62
7
10
  0.12530000
20
 -0.11970000
30
  0.00000000
40
  0.00020000
0
LINE
8
DC
6
CONTINUOUS
62
7
10
  0.12630000
20
 -0.11990000
30
  0.00000000
11
  0.12630000
21
 -0.11990000
31
  0.00000000
0
LINE
8
DC
6
CONTINUOUS
62
7
10
  0.12616771
20
 -0.11985000
30
  0.00000000
11
  0.12643229
21
 -0.11985000
31
  0.00000000
0
LINE
8
DC
6
CONTINUOUS
62
7
10
  0.12612679
20
 -0.11980000
30
  0.00000000
11
  0.12647321
21
 -0.11980000
31
  0.00000000
0
LINE
8
DC
6
CONTINUOUS
62
7
10
  0.12610635
20
 -0.11975000
30
  0.00000000
11
  0.12649365
21
 -0.11975000
31
  0.00000000
0
LINE
8
DC
6
CONTINUOUS
62
7
10
  0.12610000
20
 -0.11970000
30
  0.00000000
11
  0.12650000
21
 -0.11970000
31
  0.00000000
0
LINE
8
DC
6
CONTINUOUS
62
7
10
  0.12610635
20
 -0.11965000
30
  0.00000000
11
  0.12649365
21
 -0.11965000
31
  0.00000000
0
LINE
8
DC
6
CONTINUOUS
62
7
10
  0.12612679
20
 -0.11960000
30
  0.00000000
11
  0.12647321
21
 -0.11960000
31
  0.00000000
0
LINE
8
DC
6
CONTINUOUS
62
7
10
  0.12616771
20
 -0.11955000
30
  0.00000000
11
  0.12643229
21
 -0.11955000
31
  0.00000000
0
CIRCLE
8
DC
6
CONTINUOUS
62
7
10
  0.12630000
20
 -0.11970000
30
  0.00000000
40
  0.00020000
0
LINE
8
DC
6
CONTINUOUS
62
7
10
  0.12730000
20
 -0.11990000
30
  0.00000000
11
  0.12730000
21
 -0.11990000
31
  0.00000000
0
LINE
8
DC
6
CONTINUOUS
62
7
10
  0.12716771
20
 -0.11985000
30
  0.00000000
11
  0.12743229
21
 -0.11985000
31
  0.00000000
0
LINE
8
DC
6
CONTINUOUS
62
7
10
  0.12712679
20
 -0.11980000
30
  0.00000000
11
  0.12747321
21
 -0.11980000
31
  0.00000000
0
LINE
8
DC
6
CONTINUOUS
62
7
10
  0.12710635
20
 -0.11975000
30
  0.00000000
11
  0.12749365
21
 -0.11975000
31
  0.00000000
0
LINE
8
DC
6
CONTINUOUS
62
7
10
  0.12710000
20
 -0.11970000
30
  0.00000000
11
  0.12750000
21
 -0.11970000
31
  0.00000000
0
LINE
8
DC
6
CONTINUOUS
62
7
10
  0.12710635
20
 -0.11965000
30
  0.00000000
11
  0.12749365
21
 -0.11965000
31
  0.00000000
0
LINE
8
DC
6
CONTINUOUS
62
7
10
  0.12712679
20
 -0.11960000
30
  0.00000000
11
  0.12747321
21
 -0.11960000
31
  0.00000000
0
LINE
8
DC
6
CONTINUOUS
62
7
10
  0.12716771
20
 -0.11955000
30
  0.00000000
11
  0.12743229
21
 -0.11955000
31
  0.00000000
0
CIRCLE
8
DC
6
CONTINUOUS
62
7
10
  0.12730000
20
 -0.11970000
30
  0.00000000
40
  0.00020000
0
LINE
8
DC
6
CONTINUOUS
62
7
10
  0.12830000
20
 -0.11990000
30
  0.00000000
11
  0.12830000
21
 -0.11990000
31
  0.00000000
0
LINE
8
DC
6
CONTINUOUS
62
7
10
  0.12816771
20
 -0.11985000
30
  0.00000000
11
  0.12843229
21
 -0.11985000
31
  0.00000000
0
LINE
8
DC
6
CONTINUOUS
62
7
10
  0.12812679
20
 -0.11980000
30
  0.00000000
11
  0.12847321
21
 -0.11980000
31
  0.00000000
0
LINE
8
DC
6
CONTINUOUS
62
7
10
  0.12810635
20
 -0.11975000
30
  0.00000000
11
  0.12849365
21
 -0.11975000
31
  0.00000000
0
LINE
8
DC
6
CONTINUOUS
62
7
10
  0.12810000
20
 -0.11970000
30
  0.00000000
11
  0.12850000
21
 -0.11970000
31
  0.00000000
0
LINE
8
DC
6
CONTINUOUS
62
7
10
  0.12810635
20
 -0.11965000
30
  0.00000000
11
  0.12849365
21
 -0.11965000
31
  0.00000000
0
LINE
8
DC
6
CONTINUOUS
62
7
10
  0.12812679
20
 -0.11960000
30
  0.00000000
11
  0.12847321
21
 -0.11960000
31
  0.00000000
0
LINE
8
DC
6
CONTINUOUS
62
7
10
  0.12816771
20
 -0.11955000
30
  0.00000000
11
  0.12843229
21
 -0.11955000
31
  0.00000000
0
CIRCLE
8
DC
6
CONTINUOUS
62
7
10
  0.12830000
20
 -0.11970000
30
  0.00000000
40
  0.00020000
0
LINE
8
DC
6
CONTINUOUS
62
7
10
  0.12930000
20
 -0.11990000
30
  0.00000000
11
  0.12930000
21
 -0.11990000
31
  0.00000000
0
LINE
8
DC
6
CONTINUOUS
62
7
10
  0.12916771
20
 -0.11985000
30
  0.00000000
11
  0.12943229
21
 -0.11985000
31
  0.00000000
0
LINE
8
DC
6
CONTINUOUS
62
7
10
  0.12912679
20
 -0.11980000
30
  0.00000000
11
  0.12947321
21
 -0.11980000
31
  0.00000000
0
LINE
8
DC
6
CONTINUOUS
62
7
10
  0.12910635
20
 -0.11975000
30
  0.00000000
11
  0.12949365
21
 -0.11975000
31
  0.00000000
0
LINE
8
DC
6
CONTINUOUS
62
7
10
  0.12910000
20
 -0.11970000
30
  0.00000000
11
  0.12950000
21
 -0.11970000
31
  0.00000000
0
LINE
8
DC
6
CONTINUOUS
62
7
10
  0.12910635
20
 -0.11965000
30
  0.00000000
11
  0.12949365
21
 -0.11965000
31
  0.00000000
0
LINE
8
DC
6
CONTINUOUS
62
7
10
  0.12912679
20
 -0.11960000
30
  0.00000000
11
  0.12947321
21
 -0.11960000
31
  0.00000000
0
LINE
8
DC
6
CONTINUOUS
62
7
10
  0.12916771
20
 -0.11955000
30
  0.00000000
11
  0.12943229
21
 -0.11955000
31
  0.00000000
0
CIRCLE
8
DC
6
CONTINUOUS
62
7
10
  0.12930000
20
 -0.11970000
30
  0.00000000
40
  0.00020000
0
TEXT
8
DC
62
7
10
  0.12710000
20
 -0.12110000
30
  0.00000000
40
  0.00291667
41
  0.60000000
1
A
50
  0.00000000
72
1
73
3
11
  0.12710000
21
 -0.12110000
31
  0.00000000
0
LINE
8
DC
6
CONTINUOUS
62
7
10
  0.11960000
20
 -0.08500000
30
  0.00000000
11
  0.17660000
21
 -0.08500000
31
  0.00000000
0
LINE
8
DC
6
CONTINUOUS
62
7
10
  0.11960000
20
 -0.12500000
30
  0.00000000
11
  0.11860000
21
 -0.12500000
31
  0.00000000
0
LINE
8
DC
6
CONTINUOUS
62
7
10
  0.10920000
20
 -0.12500000
30
  0.00000000
11
  0.11860000
21
 -0.12500000
31
  0.00000000
0
TEXT
8
DC
62
7
10
  0.11860000
20
 -0.12450000
30
  0.00000000
40
  0.00250000
41
  0.60000000
1
    4.00m
50
  0.00000000
72
2
73
0
11
  0.11860000
21
 -0.12450000
31
  0.00000000
0
TEXT
8
DC
62
7
10
  0.13660000
20
 -0.10030000
30
  0.00000000
40
  0.00216667
41
  0.60000000
1
Auffüllung, Ton, stark schluffig,
50
  0.00000000
72
0
73
1
11
  0.13660000
21
 -0.10030000
31
  0.00000000
0
TEXT
8
DC
62
7
10
  0.13660000
20
 -0.10340000
30
  0.00000000
40
  0.00216667
41
  0.60000000
1
schwach feinsandig
50
  0.00000000
72
0
73
1
11
  0.13660000
21
 -0.10340000
31
  0.00000000
0
TEXT
8
DC
62
7
10
  0.13660000
20
 -0.10650000
30
  0.00000000
40
  0.00216667
41
  0.60000000
1
weich bis steif
50
  0.00000000
72
0
73
1
11
  0.13660000
21
 -0.10650000
31
  0.00000000
0
TEXT
8
DC
62
7
10
  0.13660000
20
 -0.10960000
30
  0.00000000
40
  0.00216667
41
  0.60000000
1
erdfeucht
50
  0.00000000
72
0
73
1
11
  0.13660000
21
 -0.10960000
31
  0.00000000
0
TEXT
8
DC
62
7
10
  0.13660000
20
 -0.11270000
30
  0.00000000
40
  0.00216667
41
  0.60000000
1
schwarzbraun
50
  0.00000000
72
0
73
1
11
  0.13660000
21
 -0.11270000
31
  0.00000000
0
CIRCLE
8
DC
6
CONTINUOUS
62
7
10
  0.18290000
20
 -0.10500000
30
  0.00000000
40
  0.00530000
0
TEXT
8
DC
62
7
10
  0.17990000
20
 -0.10700000
30
  0.00000000
40
  0.00250000
41
  0.60000000
1
[TL]
50
  0.00000000
72
0
73
1
11
  0.17990000
21
 -0.10700000
31
  0.00000000
0
LINE
8
DC
6
CONTINUOUS
62
7
10
  0.17040000
20
 -0.10190000
30
  0.00000000
11
  0.17660000
21
 -0.10190000
31
  0.00000000
0
LINE
8
DC
6
CONTINUOUS
62
7
10
  0.17660000
20
 -0.10190000
30
  0.00000000
11
  0.17660000
21
 -0.10810000
31
  0.00000000
0
LINE
8
DC
6
CONTINUOUS
62
7
10
  0.17660000
20
 -0.10810000
30
  0.00000000
11
  0.17040000
21
 -0.10810000
31
  0.00000000
0
LINE
8
DC
6
CONTINUOUS
62
7
10
  0.17040000
20
 -0.10810000
30
  0.00000000
11
  0.17040000
21
 -0.10190000
31
  0.00000000
0
TEXT
8
DC
62
7
10
  0.17350000
20
 -0.10700000
30
  0.00000000
40
  0.00250000
41
  0.60000000
1
4
50
  0.00000000
72
1
73
1
11
  0.17350000
21
 -0.10700000
31
  0.00000000
0
LINE
8
DC
6
GESTRICHELT
62
7
10
  0.13120000
20
 -0.12500000
30
  0.00000000
11
  0.13120000
21
 -0.14500000
31
  0.00000000
0
SOLID
8
DC
62
200
10
  0.11960000
20
 -0.12500000
30
  0.00000000
11
  0.12670000
21
 -0.12500000
31
  0.00000000
12
  0.11960000
22
 -0.14510000
32
  0.00000000
13
  0.12670000
23
 -0.14510000
33
  0.00000000
0
LINE
8
DC
6
CONTINUOUS
62
7
10
  0.11960000
20
 -0.12500000
30
  0.00000000
11
  0.12670000
21
 -0.12500000
31
  0.00000000
0
LINE
8
DC
6
CONTINUOUS
62
7
10
  0.12670000
20
 -0.12500000
30
  0.00000000
11
  0.12670000
21
 -0.14510000
31
  0.00000000
0
LINE
8
DC
6
CONTINUOUS
62
7
10
  0.12670000
20
 -0.14510000
30
  0.00000000
11
  0.11960000
21
 -0.14510000
31
  0.00000000
0
LINE
8
DC
6
CONTINUOUS
62
7
10
  0.11960000
20
 -0.14510000
30
  0.00000000
11
  0.11960000
21
 -0.12500000
31
  0.00000000
0
SOLID
8
DC
62
54
10
  0.12670000
20
 -0.12500000
30
  0.00000000
11
  0.12970000
21
 -0.12500000
31
  0.00000000
12
  0.12670000
22
 -0.14510000
32
  0.00000000
13
  0.12970000
23
 -0.14510000
33
  0.00000000
0
LINE
8
DC
6
CONTINUOUS
62
7
10
  0.12670000
20
 -0.12500000
30
  0.00000000
11
  0.12970000
21
 -0.12500000
31
  0.00000000
0
LINE
8
DC
6
CONTINUOUS
62
7
10
  0.12970000
20
 -0.12500000
30
  0.00000000
11
  0.12970000
21
 -0.14510000
31
  0.00000000
0
LINE
8
DC
6
CONTINUOUS
62
7
10
  0.12970000
20
 -0.14510000
30
  0.00000000
11
  0.12670000
21
 -0.14510000
31
  0.00000000
0
LINE
8
DC
6
CONTINUOUS
62
7
10
  0.12670000
20
 -0.14510000
30
  0.00000000
11
  0.12670000
21
 -0.12500000
31
  0.00000000
0
LINE
8
DC
6
CONTINUOUS
62
7
10
  0.12010000
20
 -0.12580000
30
  0.00000000
11
  0.12310000
21
 -0.12580000
31
  0.00000000
0
LINE
8
DC
6
CONTINUOUS
62
7
10
  0.12110000
20
 -0.12740000
30
  0.00000000
11
  0.12410000
21
 -0.12740000
31
  0.00000000
0
LINE
8
DC
6
CONTINUOUS
62
7
10
  0.12010000
20
 -0.12910000
30
  0.00000000
11
  0.12310000
21
 -0.12910000
31
  0.00000000
0
LINE
8
DC
6
CONTINUOUS
62
7
10
  0.12110000
20
 -0.13070000
30
  0.00000000
11
  0.12410000
21
 -0.13070000
31
  0.00000000
0
LINE
8
DC
6
CONTINUOUS
62
7
10
  0.12010000
20
 -0.13240000
30
  0.00000000
11
  0.12310000
21
 -0.13240000
31
  0.00000000
0
LINE
8
DC
6
CONTINUOUS
62
7
10
  0.12110000
20
 -0.13400000
30
  0.00000000
11
  0.12410000
21
 -0.13400000
31
  0.00000000
0
LINE
8
DC
6
CONTINUOUS
62
7
10
  0.12010000
20
 -0.13570000
30
  0.00000000
11
  0.12310000
21
 -0.13570000
31
  0.00000000
0
LINE
8
DC
6
CONTINUOUS
62
7
10
  0.12110000
20
 -0.13730000
30
  0.00000000
11
  0.12410000
21
 -0.13730000
31
  0.00000000
0
LINE
8
DC
6
CONTINUOUS
62
7
10
  0.12010000
20
 -0.13900000
30
  0.00000000
11
  0.12310000
21
 -0.13900000
31
  0.00000000
0
LINE
8
DC
6
CONTINUOUS
62
7
10
  0.12110000
20
 -0.14060000
30
  0.00000000
11
  0.12410000
21
 -0.14060000
31
  0.00000000
0
LINE
8
DC
6
CONTINUOUS
62
7
10
  0.12010000
20
 -0.14230000
30
  0.00000000
11
  0.12310000
21
 -0.14230000
31
  0.00000000
0
LINE
8
DC
6
CONTINUOUS
62
7
10
  0.12620000
20
 -0.12710000
30
  0.00000000
11
  0.12620000
21
 -0.12710000
31
  0.00000000
0
LINE
8
DC
6
CONTINUOUS
62
7
10
  0.12598206
20
 -0.12705000
30
  0.00000000
11
  0.12641794
21
 -0.12705000
31
  0.00000000
0
LINE
8
DC
6
CONTINUOUS
62
7
10
  0.12590000
20
 -0.12700000
30
  0.00000000
11
  0.12650000
21
 -0.12700000
31
  0.00000000
0
LINE
8
DC
6
CONTINUOUS
62
7
10
  0.12584293
20
 -0.12695000
30
  0.00000000
11
  0.12655707
21
 -0.12695000
31
  0.00000000
0
LINE
8
DC
6
CONTINUOUS
62
7
10
  0.12580000
20
 -0.12690000
30
  0.00000000
11
  0.12660000
21
 -0.12690000
31
  0.00000000
0
LINE
8
DC
6
CONTINUOUS
62
7
10
  0.12576699
20
 -0.12685000
30
  0.00000000
11
  0.12663301
21
 -0.12685000
31
  0.00000000
0
LINE
8
DC
6
CONTINUOUS
62
7
10
  0.12574174
20
 -0.12680000
30
  0.00000000
11
  0.12665826
21
 -0.12680000
31
  0.00000000
0
LINE
8
DC
6
CONTINUOUS
62
7
10
  0.12572303
20
 -0.12675000
30
  0.00000000
11
  0.12667697
21
 -0.12675000
31
  0.00000000
0
LINE
8
DC
6
CONTINUOUS
62
7
10
  0.12571010
20
 -0.12670000
30
  0.00000000
11
  0.12668990
21
 -0.12670000
31
  0.00000000
0
LINE
8
DC
6
CONTINUOUS
62
7
10
  0.12570251
20
 -0.12665000
30
  0.00000000
11
  0.12669749
21
 -0.12665000
31
  0.00000000
0
LINE
8
DC
6
CONTINUOUS
62
7
10
  0.12570000
20
 -0.12660000
30
  0.00000000
11
  0.12670000
21
 -0.12660000
31
  0.00000000
0
LINE
8
DC
6
CONTINUOUS
62
7
10
  0.12570251
20
 -0.12655000
30
  0.00000000
11
  0.12669749
21
 -0.12655000
31
  0.00000000
0
LINE
8
DC
6
CONTINUOUS
62
7
10
  0.12571010
20
 -0.12650000
30
  0.00000000
11
  0.12668990
21
 -0.12650000
31
  0.00000000
0
LINE
8
DC
6
CONTINUOUS
62
7
10
  0.12572303
20
 -0.12645000
30
  0.00000000
11
  0.12667697
21
 -0.12645000
31
  0.00000000
0
LINE
8
DC
6
CONTINUOUS
62
7
10
  0.12574174
20
 -0.12640000
30
  0.00000000
11
  0.12665826
21
 -0.12640000
31
  0.00000000
0
LINE
8
DC
6
CONTINUOUS
62
7
10
  0.12576699
20
 -0.12635000
30
  0.00000000
11
  0.12663301
21
 -0.12635000
31
  0.00000000
0
LINE
8
DC
6
CONTINUOUS
62
7
10
  0.12580000
20
 -0.12630000
30
  0.00000000
11
  0.12660000
21
 -0.12630000
31
  0.00000000
0
LINE
8
DC
6
CONTINUOUS
62
7
10
  0.12584293
20
 -0.12625000
30
  0.00000000
11
  0.12655707
21
 -0.12625000
31
  0.00000000
0
LINE
8
DC
6
CONTINUOUS
62
7
10
  0.12590000
20
 -0.12620000
30
  0.00000000
11
  0.12650000
21
 -0.12620000
31
  0.00000000
0
LINE
8
DC
6
CONTINUOUS
62
7
10
  0.12598206
20
 -0.12615000
30
  0.00000000
11
  0.12641794
21
 -0.12615000
31
  0.00000000
0
CIRCLE
8
DC
6
CONTINUOUS
62
7
10
  0.12620000
20
 -0.12660000
30
  0.00000000
40
  0.00050000
0
LINE
8
DC
6
CONTINUOUS
62
7
10
  0.12780000
20
 -0.12710000
30
  0.00000000
11
  0.12780000
21
 -0.12710000
31
  0.00000000
0
LINE
8
DC
6
CONTINUOUS
62
7
10
  0.12758206
20
 -0.12705000
30
  0.00000000
11
  0.12801794
21
 -0.12705000
31
  0.00000000
0
LINE
8
DC
6
CONTINUOUS
62
7
10
  0.12750000
20
 -0.12700000
30
  0.00000000
11
  0.12810000
21
 -0.12700000
31
  0.00000000
0
LINE
8
DC
6
CONTINUOUS
62
7
10
  0.12744293
20
 -0.12695000
30
  0.00000000
11
  0.12815707
21
 -0.12695000
31
  0.00000000
0
LINE
8
DC
6
CONTINUOUS
62
7
10
  0.12740000
20
 -0.12690000
30
  0.00000000
11
  0.12820000
21
 -0.12690000
31
  0.00000000
0
LINE
8
DC
6
CONTINUOUS
62
7
10
  0.12736699
20
 -0.12685000
30
  0.00000000
11
  0.12823301
21
 -0.12685000
31
  0.00000000
0
LINE
8
DC
6
CONTINUOUS
62
7
10
  0.12734174
20
 -0.12680000
30
  0.00000000
11
  0.12825826
21
 -0.12680000
31
  0.00000000
0
LINE
8
DC
6
CONTINUOUS
62
7
10
  0.12732303
20
 -0.12675000
30
  0.00000000
11
  0.12827697
21
 -0.12675000
31
  0.00000000
0
LINE
8
DC
6
CONTINUOUS
62
7
10
  0.12731010
20
 -0.12670000
30
  0.00000000
11
  0.12828990
21
 -0.12670000
31
  0.00000000
0
LINE
8
DC
6
CONTINUOUS
62
7
10
  0.12730251
20
 -0.12665000
30
  0.00000000
11
  0.12829749
21
 -0.12665000
31
  0.00000000
0
LINE
8
DC
6
CONTINUOUS
62
7
10
  0.12730000
20
 -0.12660000
30
  0.00000000
11
  0.12830000
21
 -0.12660000
31
  0.00000000
0
LINE
8
DC
6
CONTINUOUS
62
7
10
  0.12730251
20
 -0.12655000
30
  0.00000000
11
  0.12829749
21
 -0.12655000
31
  0.00000000
0
LINE
8
DC
6
CONTINUOUS
62
7
10
  0.12731010
20
 -0.12650000
30
  0.00000000
11
  0.12828990
21
 -0.12650000
31
  0.00000000
0
LINE
8
DC
6
CONTINUOUS
62
7
10
  0.12732303
20
 -0.12645000
30
  0.00000000
11
  0.12827697
21
 -0.12645000
31
  0.00000000
0
LINE
8
DC
6
CONTINUOUS
62
7
10
  0.12734174
20
 -0.12640000
30
  0.00000000
11
  0.12825826
21
 -0.12640000
31
  0.00000000
0
LINE
8
DC
6
CONTINUOUS
62
7
10
  0.12736699
20
 -0.12635000
30
  0.00000000
11
  0.12823301
21
 -0.12635000
31
  0.00000000
0
LINE
8
DC
6
CONTINUOUS
62
7
10
  0.12740000
20
 -0.12630000
30
  0.00000000
11
  0.12820000
21
 -0.12630000
31
  0.00000000
0
LINE
8
DC
6
CONTINUOUS
62
7
10
  0.12744293
20
 -0.12625000
30
  0.00000000
11
  0.12815707
21
 -0.12625000
31
  0.00000000
0
LINE
8
DC
6
CONTINUOUS
62
7
10
  0.12750000
20
 -0.12620000
30
  0.00000000
11
  0.12810000
21
 -0.12620000
31
  0.00000000
0
LINE
8
DC
6
CONTINUOUS
62
7
10
  0.12758206
20
 -0.12615000
30
  0.00000000
11
  0.12801794
21
 -0.12615000
31
  0.00000000
0
CIRCLE
8
DC
6
CONTINUOUS
62
7
10
  0.12780000
20
 -0.12660000
30
  0.00000000
40
  0.00050000
0
LINE
8
DC
6
CONTINUOUS
62
7
10
  0.12560000
20
 -0.12710000
30
  0.00000000
11
  0.12860000
21
 -0.12710000
31
  0.00000000
0
LINE
8
DC
6
CONTINUOUS
62
7
10
  0.12510000
20
 -0.12910000
30
  0.00000000
11
  0.12810000
21
 -0.12910000
31
  0.00000000
0
LINE
8
DC
6
CONTINUOUS
62
7
10
  0.12610000
20
 -0.13070000
30
  0.00000000
11
  0.12910000
21
 -0.13070000
31
  0.00000000
0
LINE
8
DC
6
CONTINUOUS
62
7
10
  0.12620000
20
 -0.13370000
30
  0.00000000
11
  0.12620000
21
 -0.13370000
31
  0.00000000
0
LINE
8
DC
6
CONTINUOUS
62
7
10
  0.12598206
20
 -0.13365000
30
  0.00000000
11
  0.12641794
21
 -0.13365000
31
  0.00000000
0
LINE
8
DC
6
CONTINUOUS
62
7
10
  0.12590000
20
 -0.13360000
30
  0.00000000
11
  0.12650000
21
 -0.13360000
31
  0.00000000
0
LINE
8
DC
6
CONTINUOUS
62
7
10
  0.12584293
20
 -0.13355000
30
  0.00000000
11
  0.12655707
21
 -0.13355000
31
  0.00000000
0
LINE
8
DC
6
CONTINUOUS
62
7
10
  0.12580000
20
 -0.13350000
30
  0.00000000
11
  0.12660000
21
 -0.13350000
31
  0.00000000
0
LINE
8
DC
6
CONTINUOUS
62
7
10
  0.12576699
20
 -0.13345000
30
  0.00000000
11
  0.12663301
21
 -0.13345000
31
  0.00000000
0
LINE
8
DC
6
CONTINUOUS
62
7
10
  0.12574174
20
 -0.13340000
30
  0.00000000
11
  0.12665826
21
 -0.13340000
31
  0.00000000
0
LINE
8
DC
6
CONTINUOUS
62
7
10
  0.12572303
20
 -0.13335000
30
  0.00000000
11
  0.12667697
21
 -0.13335000
31
  0.00000000
0
LINE
8
DC
6
CONTINUOUS
62
7
10
  0.12571010
20
 -0.13330000
30
  0.00000000
11
  0.12668990
21
 -0.13330000
31
  0.00000000
0
LINE
8
DC
6
CONTINUOUS
62
7
10
  0.12570251
20
 -0.13325000
30
  0.00000000
11
  0.12669749
21
 -0.13325000
31
  0.00000000
0
LINE
8
DC
6
CONTINUOUS
62
7
10
  0.12570000
20
 -0.13320000
30
  0.00000000
11
  0.12670000
21
 -0.13320000
31
  0.00000000
0
LINE
8
DC
6
CONTINUOUS
62
7
10
  0.12570251
20
 -0.13315000
30
  0.00000000
11
  0.12669749
21
 -0.13315000
31
  0.00000000
0
LINE
8
DC
6
CONTINUOUS
62
7
10
  0.12571010
20
 -0.13310000
30
  0.00000000
11
  0.12668990
21
 -0.13310000
31
  0.00000000
0
LINE
8
DC
6
CONTINUOUS
62
7
10
  0.12572303
20
 -0.13305000
30
  0.00000000
11
  0.12667697
21
 -0.13305000
31
  0.00000000
0
LINE
8
DC
6
CONTINUOUS
62
7
10
  0.12574174
20
 -0.13300000
30
  0.00000000
11
  0.12665826
21
 -0.13300000
31
  0.00000000
0
LINE
8
DC
6
CONTINUOUS
62
7
10
  0.12576699
20
 -0.13295000
30
  0.00000000
11
  0.12663301
21
 -0.13295000
31
  0.00000000
0
LINE
8
DC
6
CONTINUOUS
62
7
10
  0.12580000
20
 -0.13290000
30
  0.00000000
11
  0.12660000
21
 -0.13290000
31
  0.00000000
0
LINE
8
DC
6
CONTINUOUS
62
7
10
  0.12584293
20
 -0.13285000
30
  0.00000000
11
  0.12655707
21
 -0.13285000
31
  0.00000000
0
LINE
8
DC
6
CONTINUOUS
62
7
10
  0.12590000
20
 -0.13280000
30
  0.00000000
11
  0.12650000
21
 -0.13280000
31
  0.00000000
0
LINE
8
DC
6
CONTINUOUS
62
7
10
  0.12598206
20
 -0.13275000
30
  0.00000000
11
  0.12641794
21
 -0.13275000
31
  0.00000000
0
CIRCLE
8
DC
6
CONTINUOUS
62
7
10
  0.12620000
20
 -0.13320000
30
  0.00000000
40
  0.00050000
0
LINE
8
DC
6
CONTINUOUS
62
7
10
  0.12780000
20
 -0.13370000
30
  0.00000000
11
  0.12780000
21
 -0.13370000
31
  0.00000000
0
LINE
8
DC
6
CONTINUOUS
62
7
10
  0.12758206
20
 -0.13365000
30
  0.00000000
11
  0.12801794
21
 -0.13365000
31
  0.00000000
0
LINE
8
DC
6
CONTINUOUS
62
7
10
  0.12750000
20
 -0.13360000
30
  0.00000000
11
  0.12810000
21
 -0.13360000
31
  0.00000000
0
LINE
8
DC
6
CONTINUOUS
62
7
10
  0.12744293
20
 -0.13355000
30
  0.00000000
11
  0.12815707
21
 -0.13355000
31
  0.00000000
0
LINE
8
DC
6
CONTINUOUS
62
7
10
  0.12740000
20
 -0.13350000
30
  0.00000000
11
  0.12820000
21
 -0.13350000
31
  0.00000000
0
LINE
8
DC
6
CONTINUOUS
62
7
10
  0.12736699
20
 -0.13345000
30
  0.00000000
11
  0.12823301
21
 -0.13345000
31
  0.00000000
0
LINE
8
DC
6
CONTINUOUS
62
7
10
  0.12734174
20
 -0.13340000
30
  0.00000000
11
  0.12825826
21
 -0.13340000
31
  0.00000000
0
LINE
8
DC
6
CONTINUOUS
62
7
10
  0.12732303
20
 -0.13335000
30
  0.00000000
11
  0.12827697
21
 -0.13335000
31
  0.00000000
0
LINE
8
DC
6
CONTINUOUS
62
7
10
  0.12731010
20
 -0.13330000
30
  0.00000000
11
  0.12828990
21
 -0.13330000
31
  0.00000000
0
LINE
8
DC
6
CONTINUOUS
62
7
10
  0.12730251
20
 -0.13325000
30
  0.00000000
11
  0.12829749
21
 -0.13325000
31
  0.00000000
0
LINE
8
DC
6
CONTINUOUS
62
7
10
  0.12730000
20
 -0.13320000
30
  0.00000000
11
  0.12830000
21
 -0.13320000
31
  0.00000000
0
LINE
8
DC
6
CONTINUOUS
62
7
10
  0.12730251
20
 -0.13315000
30
  0.00000000
11
  0.12829749
21
 -0.13315000
31
  0.00000000
0
LINE
8
DC
6
CONTINUOUS
62
7
10
  0.12731010
20
 -0.13310000
30
  0.00000000
11
  0.12828990
21
 -0.13310000
31
  0.00000000
0
LINE
8
DC
6
CONTINUOUS
62
7
10
  0.12732303
20
 -0.13305000
30
  0.00000000
11
  0.12827697
21
 -0.13305000
31
  0.00000000
0
LINE
8
DC
6
CONTINUOUS
62
7
10
  0.12734174
20
 -0.13300000
30
  0.00000000
11
  0.12825826
21
 -0.13300000
31
  0.00000000
0
LINE
8
DC
6
CONTINUOUS
62
7
10
  0.12736699
20
 -0.13295000
30
  0.00000000
11
  0.12823301
21
 -0.13295000
31
  0.00000000
0
LINE
8
DC
6
CONTINUOUS
62
7
10
  0.12740000
20
 -0.13290000
30
  0.00000000
11
  0.12820000
21
 -0.13290000
31
  0.00000000
0
LINE
8
DC
6
CONTINUOUS
62
7
10
  0.12744293
20
 -0.13285000
30
  0.00000000
11
  0.12815707
21
 -0.13285000
31
  0.00000000
0
LINE
8
DC
6
CONTINUOUS
62
7
10
  0.12750000
20
 -0.13280000
30
  0.00000000
11
  0.12810000
21
 -0.13280000
31
  0.00000000
0
LINE
8
DC
6
CONTINUOUS
62
7
10
  0.12758206
20
 -0.13275000
30
  0.00000000
11
  0.12801794
21
 -0.13275000
31
  0.00000000
0
CIRCLE
8
DC
6
CONTINUOUS
62
7
10
  0.12780000
20
 -0.13320000
30
  0.00000000
40
  0.00050000
0
LINE
8
DC
6
CONTINUOUS
62
7
10
  0.12560000
20
 -0.13370000
30
  0.00000000
11
  0.12860000
21
 -0.13370000
31
  0.00000000
0
LINE
8
DC
6
CONTINUOUS
62
7
10
  0.12510000
20
 -0.13570000
30
  0.00000000
11
  0.12810000
21
 -0.13570000
31
  0.00000000
0
LINE
8
DC
6
CONTINUOUS
62
7
10
  0.12610000
20
 -0.13730000
30
  0.00000000
11
  0.12910000
21
 -0.13730000
31
  0.00000000
0
LINE
8
DC
6
CONTINUOUS
62
7
10
  0.12620000
20
 -0.14030000
30
  0.00000000
11
  0.12620000
21
 -0.14030000
31
  0.00000000
0
LINE
8
DC
6
CONTINUOUS
62
7
10
  0.12598206
20
 -0.14025000
30
  0.00000000
11
  0.12641794
21
 -0.14025000
31
  0.00000000
0
LINE
8
DC
6
CONTINUOUS
62
7
10
  0.12590000
20
 -0.14020000
30
  0.00000000
11
  0.12650000
21
 -0.14020000
31
  0.00000000
0
LINE
8
DC
6
CONTINUOUS
62
7
10
  0.12584293
20
 -0.14015000
30
  0.00000000
11
  0.12655707
21
 -0.14015000
31
  0.00000000
0
LINE
8
DC
6
CONTINUOUS
62
7
10
  0.12580000
20
 -0.14010000
30
  0.00000000
11
  0.12660000
21
 -0.14010000
31
  0.00000000
0
LINE
8
DC
6
CONTINUOUS
62
7
10
  0.12576699
20
 -0.14005000
30
  0.00000000
11
  0.12663301
21
 -0.14005000
31
  0.00000000
0
LINE
8
DC
6
CONTINUOUS
62
7
10
  0.12574174
20
 -0.14000000
30
  0.00000000
11
  0.12665826
21
 -0.14000000
31
  0.00000000
0
LINE
8
DC
6
CONTINUOUS
62
7
10
  0.12572303
20
 -0.13995000
30
  0.00000000
11
  0.12667697
21
 -0.13995000
31
  0.00000000
0
LINE
8
DC
6
CONTINUOUS
62
7
10
  0.12571010
20
 -0.13990000
30
  0.00000000
11
  0.12668990
21
 -0.13990000
31
  0.00000000
0
LINE
8
DC
6
CONTINUOUS
62
7
10
  0.12570251
20
 -0.13985000
30
  0.00000000
11
  0.12669749
21
 -0.13985000
31
  0.00000000
0
LINE
8
DC
6
CONTINUOUS
62
7
10
  0.12570000
20
 -0.13980000
30
  0.00000000
11
  0.12670000
21
 -0.13980000
31
  0.00000000
0
LINE
8
DC
6
CONTINUOUS
62
7
10
  0.12570251
20
 -0.13975000
30
  0.00000000
11
  0.12669749
21
 -0.13975000
31
  0.00000000
0
LINE
8
DC
6
CONTINUOUS
62
7
10
  0.12571010
20
 -0.13970000
30
  0.00000000
11
  0.12668990
21
 -0.13970000
31
  0.00000000
0
LINE
8
DC
6
CONTINUOUS
62
7
10
  0.12572303
20
 -0.13965000
30
  0.00000000
11
  0.12667697
21
 -0.13965000
31
  0.00000000
0
LINE
8
DC
6
CONTINUOUS
62
7
10
  0.12574174
20
 -0.13960000
30
  0.00000000
11
  0.12665826
21
 -0.13960000
31
  0.00000000
0
LINE
8
DC
6
CONTINUOUS
62
7
10
  0.12576699
20
 -0.13955000
30
  0.00000000
11
  0.12663301
21
 -0.13955000
31
  0.00000000
0
LINE
8
DC
6
CONTINUOUS
62
7
10
  0.12580000
20
 -0.13950000
30
  0.00000000
11
  0.12660000
21
 -0.13950000
31
  0.00000000
0
LINE
8
DC
6
CONTINUOUS
62
7
10
  0.12584293
20
 -0.13945000
30
  0.00000000
11
  0.12655707
21
 -0.13945000
31
  0.00000000
0
LINE
8
DC
6
CONTINUOUS
62
7
10
  0.12590000
20
 -0.13940000
30
  0.00000000
11
  0.12650000
21
 -0.13940000
31
  0.00000000
0
LINE
8
DC
6
CONTINUOUS
62
7
10
  0.12598206
20
 -0.13935000
30
  0.00000000
11
  0.12641794
21
 -0.13935000
31
  0.00000000
0
CIRCLE
8
DC
6
CONTINUOUS
62
7
10
  0.12620000
20
 -0.13980000
30
  0.00000000
40
  0.00050000
0
LINE
8
DC
6
CONTINUOUS
62
7
10
  0.12780000
20
 -0.14030000
30
  0.00000000
11
  0.12780000
21
 -0.14030000
31
  0.00000000
0
LINE
8
DC
6
CONTINUOUS
62
7
10
  0.12758206
20
 -0.14025000
30
  0.00000000
11
  0.12801794
21
 -0.14025000
31
  0.00000000
0
LINE
8
DC
6
CONTINUOUS
62
7
10
  0.12750000
20
 -0.14020000
30
  0.00000000
11
  0.12810000
21
 -0.14020000
31
  0.00000000
0
LINE
8
DC
6
CONTINUOUS
62
7
10
  0.12744293
20
 -0.14015000
30
  0.00000000
11
  0.12815707
21
 -0.14015000
31
  0.00000000
0
LINE
8
DC
6
CONTINUOUS
62
7
10
  0.12740000
20
 -0.14010000
30
  0.00000000
11
  0.12820000
21
 -0.14010000
31
  0.00000000
0
LINE
8
DC
6
CONTINUOUS
62
7
10
  0.12736699
20
 -0.14005000
30
  0.00000000
11
  0.12823301
21
 -0.14005000
31
  0.00000000
0
LINE
8
DC
6
CONTINUOUS
62
7
10
  0.12734174
20
 -0.14000000
30
  0.00000000
11
  0.12825826
21
 -0.14000000
31
  0.00000000
0
LINE
8
DC
6
CONTINUOUS
62
7
10
  0.12732303
20
 -0.13995000
30
  0.00000000
11
  0.12827697
21
 -0.13995000
31
  0.00000000
0
LINE
8
DC
6
CONTINUOUS
62
7
10
  0.12731010
20
 -0.13990000
30
  0.00000000
11
  0.12828990
21
 -0.13990000
31
  0.00000000
0
LINE
8
DC
6
CONTINUOUS
62
7
10
  0.12730251
20
 -0.13985000
30
  0.00000000
11
  0.12829749
21
 -0.13985000
31
  0.00000000
0
LINE
8
DC
6
CONTINUOUS
62
7
10
  0.12730000
20
 -0.13980000
30
  0.00000000
11
  0.12830000
21
 -0.13980000
31
  0.00000000
0
LINE
8
DC
6
CONTINUOUS
62
7
10
  0.12730251
20
 -0.13975000
30
  0.00000000
11
  0.12829749
21
 -0.13975000
31
  0.00000000
0
LINE
8
DC
6
CONTINUOUS
62
7
10
  0.12731010
20
 -0.13970000
30
  0.00000000
11
  0.12828990
21
 -0.13970000
31
  0.00000000
0
LINE
8
DC
6
CONTINUOUS
62
7
10
  0.12732303
20
 -0.13965000
30
  0.00000000
11
  0.12827697
21
 -0.13965000
31
  0.00000000
0
LINE
8
DC
6
CONTINUOUS
62
7
10
  0.12734174
20
 -0.13960000
30
  0.00000000
11
  0.12825826
21
 -0.13960000
31
  0.00000000
0
LINE
8
DC
6
CONTINUOUS
62
7
10
  0.12736699
20
 -0.13955000
30
  0.00000000
11
  0.12823301
21
 -0.13955000
31
  0.00000000
0
LINE
8
DC
6
CONTINUOUS
62
7
10
  0.12740000
20
 -0.13950000
30
  0.00000000
11
  0.12820000
21
 -0.13950000
31
  0.00000000
0
LINE
8
DC
6
CONTINUOUS
62
7
10
  0.12744293
20
 -0.13945000
30
  0.00000000
11
  0.12815707
21
 -0.13945000
31
  0.00000000
0
LINE
8
DC
6
CONTINUOUS
62
7
10
  0.12750000
20
 -0.13940000
30
  0.00000000
11
  0.12810000
21
 -0.13940000
31
  0.00000000
0
LINE
8
DC
6
CONTINUOUS
62
7
10
  0.12758206
20
 -0.13935000
30
  0.00000000
11
  0.12801794
21
 -0.13935000
31
  0.00000000
0
CIRCLE
8
DC
6
CONTINUOUS
62
7
10
  0.12780000
20
 -0.13980000
30
  0.00000000
40
  0.00050000
0
LINE
8
DC
6
CONTINUOUS
62
7
10
  0.12560000
20
 -0.14030000
30
  0.00000000
11
  0.12860000
21
 -0.14030000
31
  0.00000000
0
LINE
8
DC
6
CONTINUOUS
62
7
10
  0.12510000
20
 -0.14230000
30
  0.00000000
11
  0.12810000
21
 -0.14230000
31
  0.00000000
0
LINE
8
DC
6
CONTINUOUS
62
7
10
  0.11960000
20
 -0.12500000
30
  0.00000000
11
  0.17660000
21
 -0.12500000
31
  0.00000000
0
LINE
8
DC
6
CONTINUOUS
62
7
10
  0.11960000
20
 -0.14500000
30
  0.00000000
11
  0.11860000
21
 -0.14500000
31
  0.00000000
0
LINE
8
DC
6
CONTINUOUS
62
7
10
  0.10920000
20
 -0.14500000
30
  0.00000000
11
  0.11860000
21
 -0.14500000
31
  0.00000000
0
TEXT
8
DC
62
7
10
  0.11860000
20
 -0.14450000
30
  0.00000000
40
  0.00250000
41
  0.60000000
1
    5.00m
50
  0.00000000
72
2
73
0
11
  0.11860000
21
 -0.14450000
31
  0.00000000
0
TEXT
8
DC
62
7
10
  0.13660000
20
 -0.13190000
30
  0.00000000
40
  0.00216667
41
  0.60000000
1
Ton, stark schluffig
50
  0.00000000
72
0
73
1
11
  0.13660000
21
 -0.13190000
31
  0.00000000
0
TEXT
8
DC
62
7
10
  0.13660000
20
 -0.13500000
30
  0.00000000
40
  0.00216667
41
  0.60000000
1
steif
50
  0.00000000
72
0
73
1
11
  0.13660000
21
 -0.13500000
31
  0.00000000
0
TEXT
8
DC
62
7
10
  0.13660000
20
 -0.13810000
30
  0.00000000
40
  0.00216667
41
  0.60000000
1
erdfeucht
50
  0.00000000
72
0
73
1
11
  0.13660000
21
 -0.13810000
31
  0.00000000
0
TEXT
8
DC
62
7
10
  0.13660000
20
 -0.14120000
30
  0.00000000
40
  0.00216667
41
  0.60000000
1
grüngrau
50
  0.00000000
72
0
73
1
11
  0.13660000
21
 -0.14120000
31
  0.00000000
0
CIRCLE
8
DC
6
CONTINUOUS
62
7
10
  0.18290000
20
 -0.13500000
30
  0.00000000
40
  0.00530000
0
TEXT
8
DC
62
7
10
  0.18090000
20
 -0.13700000
30
  0.00000000
40
  0.00250000
41
  0.60000000
1
TL
50
  0.00000000
72
0
73
1
11
  0.18090000
21
 -0.13700000
31
  0.00000000
0
LINE
8
DC
6
CONTINUOUS
62
7
10
  0.17040000
20
 -0.13190000
30
  0.00000000
11
  0.17660000
21
 -0.13190000
31
  0.00000000
0
LINE
8
DC
6
CONTINUOUS
62
7
10
  0.17660000
20
 -0.13190000
30
  0.00000000
11
  0.17660000
21
 -0.13810000
31
  0.00000000
0
LINE
8
DC
6
CONTINUOUS
62
7
10
  0.17660000
20
 -0.13810000
30
  0.00000000
11
  0.17040000
21
 -0.13810000
31
  0.00000000
0
LINE
8
DC
6
CONTINUOUS
62
7
10
  0.17040000
20
 -0.13810000
30
  0.00000000
11
  0.17040000
21
 -0.13190000
31
  0.00000000
0
TEXT
8
DC
62
7
10
  0.17350000
20
 -0.13700000
30
  0.00000000
40
  0.00250000
41
  0.60000000
1
4
50
  0.00000000
72
1
73
1
11
  0.17350000
21
 -0.13700000
31
  0.00000000
0
LINE
8
DC
6
CONTINUOUS
62
7
10
  0.11960000
20
 -0.14500000
30
  0.00000000
11
  0.17660000
21
 -0.14500000
31
  0.00000000
0
TEXT
8
DC
62
7
10
  0.11960000
20
 -0.14850000
30
  0.00000000
40
  0.00250000
41
  0.60000000
1
Endtiefe
50
  0.00000000
72
2
73
1
11
  0.11960000
21
 -0.14850000
31
  0.00000000
0
TEXT
8
DC
62
7
10
  0.12460000
20
 -0.15250000
30
  0.00000000
40
  0.00250000
41
  0.60000000
1
Station 0+379.500
50
  0.00000000
72
1
73
1
11
  0.12460000
21
 -0.15250000
31
  0.00000000
0
LINE
8
DC
6
CONTINUOUS
62
7
10
  0.11960000
20
 -0.04500000
30
  0.00000000
11
  0.12960000
21
 -0.04500000
31
  0.00000000
0
LINE
8
DC
6
CONTINUOUS
62
7
10
  0.12960000
20
 -0.04500000
30
  0.00000000
11
  0.12960000
21
 -0.14500000
31
  0.00000000
0
LINE
8
DC
6
CONTINUOUS
62
7
10
  0.12960000
20
 -0.14500000
30
  0.00000000
11
  0.11960000
21
 -0.14500000
31
  0.00000000
0
LINE
8
DC
6
CONTINUOUS
62
7
10
  0.11960000
20
 -0.14500000
30
  0.00000000
11
  0.11960000
21
 -0.04500000
31
  0.00000000
0
TEXT
8
DC
62
7
10
  0.12460000
20
 -0.03600000
30
  0.00000000
40
  0.00500000
41
  0.60000000
1
BS 10/22
50
  0.00000000
72
1
73
0
11
  0.12460000
21
 -0.03600000
31
  0.00000000
0
TEXT
8
DC
62
7
10
  0.12460000
20
 -0.04100000
30
  0.00000000
40
  0.00250000
41
  0.60000000
1
Ansatzpunkt:GOK
50
  0.00000000
72
1
73
0
11
  0.12460000
21
 -0.04100000
31
  0.00000000
0
LINE
8
DC
6
CONTINUOUS
62
7
10
  0.03560000
20
 -0.04500000
30
  0.00000000
11
  0.05200000
21
 -0.04500000
31
  0.00000000
0
LINE
8
DC
6
CONTINUOUS
62
7
10
  0.03700000
20
 -0.04500000
30
  0.00000000
11
  0.03560000
21
 -0.04210000
31
  0.00000000
0
LINE
8
DC
6
CONTINUOUS
62
7
10
  0.03560000
20
 -0.04210000
30
  0.00000000
11
  0.03850000
21
 -0.04210000
31
  0.00000000
0
LINE
8
DC
6
CONTINUOUS
62
7
10
  0.03850000
20
 -0.04210000
30
  0.00000000
11
  0.03700000
21
 -0.04500000
31
  0.00000000
0
TEXT
8
DC
62
7
10
  0.03980000
20
 -0.04300000
30
  0.00000000
40
  0.00250000
41
  0.60000000
1
   0.00m
50
  0.00000000
72
0
73
0
11
  0.03980000
21
 -0.04300000
31
  0.00000000
0
LINE
8
DC
6
CONTINUOUS
62
7
10
  0.03560000
20
 -0.06500000
30
  0.00000000
11
  0.05200000
21
 -0.06500000
31
  0.00000000
0
LINE
8
DC
6
CONTINUOUS
62
7
10
  0.03700000
20
 -0.06500000
30
  0.00000000
11
  0.03560000
21
 -0.06210000
31
  0.00000000
0
LINE
8
DC
6
CONTINUOUS
62
7
10
  0.03560000
20
 -0.06210000
30
  0.00000000
11
  0.03850000
21
 -0.06210000
31
  0.00000000
0
LINE
8
DC
6
CONTINUOUS
62
7
10
  0.03850000
20
 -0.06210000
30
  0.00000000
11
  0.03700000
21
 -0.06500000
31
  0.00000000
0
TEXT
8
DC
62
7
10
  0.03980000
20
 -0.06300000
30
  0.00000000
40
  0.00250000
41
  0.60000000
1
  -1.00m
50
  0.00000000
72
0
73
0
11
  0.03980000
21
 -0.06300000
31
  0.00000000
0
LINE
8
DC
6
CONTINUOUS
62
7
10
  0.03560000
20
 -0.08500000
30
  0.00000000
11
  0.05200000
21
 -0.08500000
31
  0.00000000
0
LINE
8
DC
6
CONTINUOUS
62
7
10
  0.03700000
20
 -0.08500000
30
  0.00000000
11
  0.03560000
21
 -0.08210000
31
  0.00000000
0
LINE
8
DC
6
CONTINUOUS
62
7
10
  0.03560000
20
 -0.08210000
30
  0.00000000
11
  0.03850000
21
 -0.08210000
31
  0.00000000
0
LINE
8
DC
6
CONTINUOUS
62
7
10
  0.03850000
20
 -0.08210000
30
  0.00000000
11
  0.03700000
21
 -0.08500000
31
  0.00000000
0
TEXT
8
DC
62
7
10
  0.03980000
20
 -0.08300000
30
  0.00000000
40
  0.00250000
41
  0.60000000
1
  -2.00m
50
  0.00000000
72
0
73
0
11
  0.03980000
21
 -0.08300000
31
  0.00000000
0
LINE
8
DC
6
CONTINUOUS
62
7
10
  0.03560000
20
 -0.10500000
30
  0.00000000
11
  0.05200000
21
 -0.10500000
31
  0.00000000
0
LINE
8
DC
6
CONTINUOUS
62
7
10
  0.03700000
20
 -0.10500000
30
  0.00000000
11
  0.03560000
21
 -0.10210000
31
  0.00000000
0
LINE
8
DC
6
CONTINUOUS
62
7
10
  0.03560000
20
 -0.10210000
30
  0.00000000
11
  0.03850000
21
 -0.10210000
31
  0.00000000
0
LINE
8
DC
6
CONTINUOUS
62
7
10
  0.03850000
20
 -0.10210000
30
  0.00000000
11
  0.03700000
21
 -0.10500000
31
  0.00000000
0
TEXT
8
DC
62
7
10
  0.03980000
20
 -0.10300000
30
  0.00000000
40
  0.00250000
41
  0.60000000
1
  -3.00m
50
  0.00000000
72
0
73
0
11
  0.03980000
21
 -0.10300000
31
  0.00000000
0
LINE
8
DC
6
CONTINUOUS
62
7
10
  0.03560000
20
 -0.12500000
30
  0.00000000
11
  0.05200000
21
 -0.12500000
31
  0.00000000
0
LINE
8
DC
6
CONTINUOUS
62
7
10
  0.03700000
20
 -0.12500000
30
  0.00000000
11
  0.03560000
21
 -0.12210000
31
  0.00000000
0
LINE
8
DC
6
CONTINUOUS
62
7
10
  0.03560000
20
 -0.12210000
30
  0.00000000
11
  0.03850000
21
 -0.12210000
31
  0.00000000
0
LINE
8
DC
6
CONTINUOUS
62
7
10
  0.03850000
20
 -0.12210000
30
  0.00000000
11
  0.03700000
21
 -0.12500000
31
  0.00000000
0
TEXT
8
DC
62
7
10
  0.03980000
20
 -0.12300000
30
  0.00000000
40
  0.00250000
41
  0.60000000
1
  -4.00m
50
  0.00000000
72
0
73
0
11
  0.03980000
21
 -0.12300000
31
  0.00000000
0
LINE
8
DC
6
CONTINUOUS
62
7
10
  0.03560000
20
 -0.14500000
30
  0.00000000
11
  0.05200000
21
 -0.14500000
31
  0.00000000
0
LINE
8
DC
6
CONTINUOUS
62
7
10
  0.03700000
20
 -0.14500000
30
  0.00000000
11
  0.03560000
21
 -0.14210000
31
  0.00000000
0
LINE
8
DC
6
CONTINUOUS
62
7
10
  0.03560000
20
 -0.14210000
30
  0.00000000
11
  0.03850000
21
 -0.14210000
31
  0.00000000
0
LINE
8
DC
6
CONTINUOUS
62
7
10
  0.03850000
20
 -0.14210000
30
  0.00000000
11
  0.03700000
21
 -0.14500000
31
  0.00000000
0
TEXT
8
DC
62
7
10
  0.03980000
20
 -0.14300000
30
  0.00000000
40
  0.00250000
41
  0.60000000
1
  -5.00m
50
  0.00000000
72
0
73
0
11
  0.03980000
21
 -0.14300000
31
  0.00000000
0
LINE
8
DC
6
CONTINUOUS
62
7
10
  0.03560000
20
 -0.16500000
30
  0.00000000
11
  0.05200000
21
 -0.16500000
31
  0.00000000
0
LINE
8
DC
6
CONTINUOUS
62
7
10
  0.03700000
20
 -0.16500000
30
  0.00000000
11
  0.03560000
21
 -0.16210000
31
  0.00000000
0
LINE
8
DC
6
CONTINUOUS
62
7
10
  0.03560000
20
 -0.16210000
30
  0.00000000
11
  0.03850000
21
 -0.16210000
31
  0.00000000
0
LINE
8
DC
6
CONTINUOUS
62
7
10
  0.03850000
20
 -0.16210000
30
  0.00000000
11
  0.03700000
21
 -0.16500000
31
  0.00000000
0
TEXT
8
DC
62
7
10
  0.03980000
20
 -0.16300000
30
  0.00000000
40
  0.00250000
41
  0.60000000
1
  -6.00m
50
  0.00000000
72
0
73
0
11
  0.03980000
21
 -0.16300000
31
  0.00000000
0
ENDSEC
0
EOF
